  0
SECTION
  2
HEADER
  9
$ACADVER
  1
AC1014
  9
$ACADMAINTVER
 70
     9
  9
$DWGCODEPAGE
  3
ANSI_1250
  9
$INSBASE
 10
0.0
 20
0.0
 30
0.0
  9
$EXTMIN
 10
-16.1262
 20
-32.0637
 30
0.0
  9
$EXTMAX
 10
16.2672
 20
32.0638
 30
0.0
  9
$LIMMIN
 10
0.0
 20
0.0
  9
$LIMMAX
 10
12.0
 20
9.0
  9
$ORTHOMODE
 70
     0
  9
$REGENMODE
 70
     1
  9
$FILLMODE
 70
     1
  9
$QTEXTMODE
 70
     0
  9
$MIRRTEXT
 70
     1
  9
$DRAGMODE
 70
     2
  9
$LTSCALE
 40
1.0
  9
$OSMODE
 70
    37
  9
$ATTMODE
 70
     1
  9
$TEXTSIZE
 40
0.2
  9
$TRACEWID
 40
0.05
  9
$TEXTSTYLE
  7
STANDARD
  9
$CLAYER
  8
0
  9
$CELTYPE
  6
BYLAYER
  9
$CECOLOR
 62
   256
  9
$CELTSCALE
 40
1.0
  9
$DELOBJ
 70
     1
  9
$DISPSILH
 70
     0
  9
$DIMSCALE
 40
1.0
  9
$DIMASZ
 40
0.18
  9
$DIMEXO
 40
0.0625
  9
$DIMDLI
 40
0.38
  9
$DIMRND
 40
0.0
  9
$DIMDLE
 40
0.0
  9
$DIMEXE
 40
0.18
  9
$DIMTP
 40
0.0
  9
$DIMTM
 40
0.0
  9
$DIMTXT
 40
0.18
  9
$DIMCEN
 40
0.09
  9
$DIMTSZ
 40
0.0
  9
$DIMTOL
 70
     0
  9
$DIMLIM
 70
     0
  9
$DIMTIH
 70
     1
  9
$DIMTOH
 70
     1
  9
$DIMSE1
 70
     0
  9
$DIMSE2
 70
     0
  9
$DIMTAD
 70
     0
  9
$DIMZIN
 70
     0
  9
$DIMBLK
  1

  9
$DIMASO
 70
     1
  9
$DIMSHO
 70
     1
  9
$DIMPOST
  1

  9
$DIMAPOST
  1

  9
$DIMALT
 70
     0
  9
$DIMALTD
 70
     2
  9
$DIMALTF
 40
25.4
  9
$DIMLFAC
 40
1.0
  9
$DIMTOFL
 70
     0
  9
$DIMTVP
 40
0.0
  9
$DIMTIX
 70
     0
  9
$DIMSOXD
 70
     0
  9
$DIMSAH
 70
     0
  9
$DIMBLK1
  1

  9
$DIMBLK2
  1

  9
$DIMSTYLE
  2
STANDARD
  9
$DIMCLRD
 70
     0
  9
$DIMCLRE
 70
     0
  9
$DIMCLRT
 70
     0
  9
$DIMTFAC
 40
1.0
  9
$DIMGAP
 40
0.09
  9
$DIMJUST
 70
     0
  9
$DIMSD1
 70
     0
  9
$DIMSD2
 70
     0
  9
$DIMTOLJ
 70
     1
  9
$DIMTZIN
 70
     0
  9
$DIMALTZ
 70
     0
  9
$DIMALTTZ
 70
     0
  9
$DIMFIT
 70
     3
  9
$DIMUPT
 70
     0
  9
$DIMUNIT
 70
     2
  9
$DIMDEC
 70
     4
  9
$DIMTDEC
 70
     4
  9
$DIMALTU
 70
     2
  9
$DIMALTTD
 70
     2
  9
$DIMTXSTY
  7
STANDARD
  9
$DIMAUNIT
 70
     0
  9
$LUNITS
 70
     2
  9
$LUPREC
 70
     4
  9
$SKETCHINC
 40
0.1
  9
$FILLETRAD
 40
0.5
  9
$AUNITS
 70
     0
  9
$AUPREC
 70
     0
  9
$MENU
  1
.
  9
$ELEVATION
 40
0.0
  9
$PELEVATION
 40
0.0
  9
$THICKNESS
 40
0.0
  9
$LIMCHECK
 70
     0
  9
$CHAMFERA
 40
0.5
  9
$CHAMFERB
 40
0.5
  9
$CHAMFERC
 40
1.0
  9
$CHAMFERD
 40
0.0
  9
$SKPOLY
 70
     0
  9
$TDCREATE
 40
2456247.443539572
  9
$TDUPDATE
 40
2456247.443539583
  9
$TDINDWG
 40
0.0000000116
  9
$TDUSRTIMER
 40
0.0000000116
  9
$USRTIMER
 70
     1
  9
$ANGBASE
 50
0.0
  9
$ANGDIR
 70
     0
  9
$PDMODE
 70
     0
  9
$PDSIZE
 40
0.0
  9
$PLINEWID
 40
0.0
  9
$COORDS
 70
     1
  9
$SPLFRAME
 70
     0
  9
$SPLINETYPE
 70
     6
  9
$SPLINESEGS
 70
     8
  9
$ATTDIA
 70
     0
  9
$ATTREQ
 70
     1
  9
$HANDLING
 70
     1
  9
$HANDSEED
  5
E0
  9
$SURFTAB1
 70
     6
  9
$SURFTAB2
 70
     6
  9
$SURFTYPE
 70
     6
  9
$SURFU
 70
     6
  9
$SURFV
 70
     6
  9
$UCSNAME
  2

  9
$UCSORG
 10
0.0
 20
0.0
 30
0.0
  9
$UCSXDIR
 10
1.0
 20
0.0
 30
0.0
  9
$UCSYDIR
 10
0.0
 20
1.0
 30
0.0
  9
$PUCSNAME
  2

  9
$PUCSORG
 10
0.0
 20
0.0
 30
0.0
  9
$PUCSXDIR
 10
1.0
 20
0.0
 30
0.0
  9
$PUCSYDIR
 10
0.0
 20
1.0
 30
0.0
  9
$USERI1
 70
     0
  9
$USERI2
 70
     0
  9
$USERI3
 70
     0
  9
$USERI4
 70
     0
  9
$USERI5
 70
     0
  9
$USERR1
 40
0.0
  9
$USERR2
 40
0.0
  9
$USERR3
 40
0.0
  9
$USERR4
 40
0.0
  9
$USERR5
 40
0.0
  9
$WORLDVIEW
 70
     1
  9
$SHADEDGE
 70
     3
  9
$SHADEDIF
 70
    70
  9
$TILEMODE
 70
     1
  9
$MAXACTVP
 70
    64
  9
$PINSBASE
 10
0.0
 20
0.0
 30
0.0
  9
$PLIMCHECK
 70
     0
  9
$PEXTMIN
 10
1.000000000000000E+20
 20
1.000000000000000E+20
 30
1.000000000000000E+20
  9
$PEXTMAX
 10
-1.000000000000000E+20
 20
-1.000000000000000E+20
 30
-1.000000000000000E+20
  9
$PLIMMIN
 10
0.0
 20
0.0
  9
$PLIMMAX
 10
12.0
 20
9.0
  9
$UNITMODE
 70
     0
  9
$VISRETAIN
 70
     1
  9
$PLINEGEN
 70
     0
  9
$PSLTSCALE
 70
     1
  9
$TREEDEPTH
 70
  3020
  9
$PICKSTYLE
 70
     1
  9
$CMLSTYLE
  2
STANDARD
  9
$CMLJUST
 70
     0
  9
$CMLSCALE
 40
1.0
  9
$PROXYGRAPHICS
 70
     1
  9
$MEASUREMENT
 70
     0
  0
ENDSEC
  0
SECTION
  2
CLASSES
  0
CLASS
  1
ACDBDICTIONARYWDFLT
  2
AcDbDictionaryWithDefault
  3
ObjectDBX Classes
 90
        0
280
     0
281
     0
  0
CLASS
  1
VISUALSTYLE
  2
AcDbVisualStyle
  3
ObjectDBX Classes
 90
     4095
280
     0
281
     0
  0
CLASS
  1
MATERIAL
  2
AcDbMaterial
  3
ObjectDBX Classes
 90
     1153
280
     0
281
     0
  0
CLASS
  1
DICTIONARYVAR
  2
AcDbDictionaryVar
  3
ObjectDBX Classes
 90
        0
280
     0
281
     0
  0
CLASS
  1
XRECORD
  2
AcDbXrecord
  3
AutoCAD 2000
 90
        0
280
     0
281
     0
  0
CLASS
  1
LWPOLYLINE
  2
AcDbPolyline
  3
AutoCAD 2000
 90
        0
280
     0
281
     1
  0
CLASS
  1
HATCH
  2
AcDbHatch
  3
AutoCAD 2000
 90
        0
280
     0
281
     1
  0
CLASS
  1
ACDBPLACEHOLDER
  2
AcDbPlaceHolder
  3
ObjectDBX Classes
 90
        0
280
     0
281
     0
  0
CLASS
  1
LAYOUT
  2
AcDbLayout
  3
ObjectDBX Classes
 90
        0
280
     0
281
     0
  0
ENDSEC
  0
SECTION
  2
TABLES
  0
TABLE
  2
VPORT
  5
8
330
0
100
AcDbSymbolTable
 70
     1
  0
VPORT
  5
29
330
8
100
AcDbSymbolTableRecord
100
AcDbViewportTableRecord
  2
*ACTIVE
 70
     0
 10
0.0
 20
0.0
 11
1.0
 21
1.0
 12
10.42990654205607
 22
4.5
 13
0.0
 23
0.0
 14
0.5
 24
0.5
 15
0.5
 25
0.5
 16
0.0
 26
0.0
 36
1.0
 17
0.0
 27
0.0
 37
0.0
 40
9.0
 41
1.972972972850329
 42
50.0
 43
0.0
 44
0.0
 50
0.0
 51
0.0
 71
     0
 72
   100
 73
     1
 74
     3
 75
     0
 76
     0
 77
     0
 78
     0
  0
ENDTAB
  0
TABLE
  2
LTYPE
  5
5
330
0
100
AcDbSymbolTable
 70
     2
  0
LTYPE
  5
14
330
5
100
AcDbSymbolTableRecord
100
AcDbLinetypeTableRecord
  2
BYBLOCK
 70
     0
  3

 72
    65
 73
     0
 40
0.0
  0
LTYPE
  5
15
330
5
100
AcDbSymbolTableRecord
100
AcDbLinetypeTableRecord
  2
BYLAYER
 70
     0
  3

 72
    65
 73
     0
 40
0.0
  0
LTYPE
  5
16
330
5
100
AcDbSymbolTableRecord
100
AcDbLinetypeTableRecord
  2
CONTINUOUS
 70
     0
  3
Solid line
 72
    65
 73
     0
 40
0.0
  0
LTYPE
  5
50
330
5
100
AcDbSymbolTableRecord
100
AcDbLinetypeTableRecord
  2
NEW_LINE1
 70
     0
  3

 72
    65
 73
     4
 40
1.2
 49
0.5
 74
     4
 75
     0
340
0
 46
1.0
 50
0.0
 44
0.0
 45
0.0
 49
-0.3
 74
     4
 75
     0
340
0
 46
1.0
 50
0.0
 44
0.0
 45
0.0
 49
0.1
 74
     4
 75
     0
340
0
 46
1.0
 50
0.0
 44
0.0
 45
0.0
 49
-0.3
 74
     4
 75
     0
340
0
 46
1.0
 50
0.0
 44
0.0
 45
0.0
  0
ENDTAB
  0
TABLE
  2
LAYER
  5
2
330
0
100
AcDbSymbolTable
 70
     2
  0
LAYER
  5
10
330
2
100
AcDbSymbolTableRecord
100
AcDbLayerTableRecord
  2
0
 70
     0
 62
     7
  6
CONTINUOUS
  0
LAYER
  5
40
330
2
100
AcDbSymbolTableRecord
100
AcDbLayerTableRecord
  2
DEFAULT_1
 70
     0
 62
     7
  6
CONTINUOUS
  0
ENDTAB
  0
TABLE
  2
STYLE
  5
3
330
0
100
AcDbSymbolTable
 70
     1
  0
STYLE
  5
11
330
3
100
AcDbSymbolTableRecord
100
AcDbTextStyleTableRecord
  2
STANDARD
 70
     0
 40
0.0
 41
1.0
 50
0.0
 71
     0
 42
0.2
  3
txt
  4

  0
ENDTAB
  0
TABLE
  2
VIEW
  5
6
330
0
100
AcDbSymbolTable
 70
     0
  0
ENDTAB
  0
TABLE
  2
UCS
  5
7
330
0
100
AcDbSymbolTable
 70
     0
  0
ENDTAB
  0
TABLE
  2
APPID
  5
9
330
0
100
AcDbSymbolTable
 70
     2
  0
APPID
  5
12
330
9
100
AcDbSymbolTableRecord
100
AcDbRegAppTableRecord
  2
ACAD
 70
     0
  0
APPID
  5
3F
330
9
100
AcDbSymbolTableRecord
100
AcDbRegAppTableRecord
  2
ODA
 70
     0
  0
ENDTAB
  0
TABLE
  2
DIMSTYLE
  5
A
330
0
100
AcDbSymbolTable
 70
     1
  0
DIMSTYLE
105
27
330
A
100
AcDbSymbolTableRecord
100
AcDbDimStyleTableRecord
  2
STANDARD
 70
     0
  3

  4

  5

  6

  7

 40
1.0
 41
0.18
 42
0.0625
 43
0.38
 44
0.18
 45
0.0
 46
0.0
 47
0.0
 48
0.0
140
0.18
141
0.09
142
0.0
143
25.4
144
1.0
145
0.0
146
1.0
147
0.09
 71
     0
 72
     0
 73
     1
 74
     1
 75
     0
 76
     0
 77
     0
 78
     0
170
     0
171
     2
172
     0
173
     0
174
     0
175
     0
176
     0
177
     0
178
     0
270
     2
271
     4
272
     4
273
     2
274
     2
340
11
275
     0
280
     0
281
     0
282
     0
283
     1
284
     0
285
     0
286
     0
287
     3
288
     0
  0
ENDTAB
  0
TABLE
  2
BLOCK_RECORD
  5
1
330
0
100
AcDbSymbolTable
 70
     1
  0
BLOCK_RECORD
  5
1F
330
1
100
AcDbSymbolTableRecord
100
AcDbBlockTableRecord
  2
*MODEL_SPACE
  0
BLOCK_RECORD
  5
1B
330
1
100
AcDbSymbolTableRecord
100
AcDbBlockTableRecord
  2
*PAPER_SPACE
  0
ENDTAB
  0
ENDSEC
  0
SECTION
  2
BLOCKS
  0
BLOCK
  5
20
330
1F
100
AcDbEntity
  8
0
100
AcDbBlockBegin
  2
*MODEL_SPACE
 70
     0
 10
0.0
 20
0.0
 30
0.0
  3
*MODEL_SPACE
  1

  0
ENDBLK
  5
21
330
1F
100
AcDbEntity
  8
0
100
AcDbBlockEnd
  0
BLOCK
  5
1C
330
1B
100
AcDbEntity
 67
     1
  8
0
100
AcDbBlockBegin
  2
*PAPER_SPACE
 70
     0
 10
0.0
 20
0.0
 30
0.0
  3
*PAPER_SPACE
  1

  0
ENDBLK
  5
1D
330
1B
100
AcDbEntity
 67
     1
  8
0
100
AcDbBlockEnd
  0
ENDSEC
  0
SECTION
  2
ENTITIES
  0
SPLINE
  5
41
330
1F
100
AcDbEntity
  8
DEFAULT_1
 62
   250
100
AcDbSpline
210
0.0
220
0.0
230
1.0
 70
    24
 71
     3
 72
     8
 73
     4
 74
     0
 42
0.0000000001
 43
0.0000000001
 40
0.0
 40
0.0
 40
0.0
 40
0.0
 40
1.0
 40
1.0
 40
1.0
 40
1.0
 10
-3.2338
 20
-21.8045
 30
0.0
 10
-3.2338
 20
-21.8045
 30
0.0
 10
-3.2338
 20
-27.1673
 30
0.0
 10
-3.2338
 20
-27.1673
 30
0.0
  0
SPLINE
  5
42
330
1F
100
AcDbEntity
  8
DEFAULT_1
 62
   250
100
AcDbSpline
210
0.0
220
0.0
230
1.0
 70
    24
 71
     3
 72
     8
 73
     4
 74
     0
 42
0.0000000001
 43
0.0000000001
 40
0.0
 40
0.0
 40
0.0
 40
0.0
 40
1.0
 40
1.0
 40
1.0
 40
1.0
 10
12.1817
 20
-21.945
 30
0.0
 10
12.1817
 20
-21.945
 30
0.0
 10
12.1817
 20
-27.1673
 30
0.0
 10
12.1817
 20
-27.1673
 30
0.0
  0
SPLINE
  5
43
330
1F
100
AcDbEntity
  8
DEFAULT_1
 62
   250
100
AcDbSpline
210
0.0
220
0.0
230
1.0
 70
    24
 71
     3
 72
     8
 73
     4
 74
     0
 42
0.0000000001
 43
0.0000000001
 40
0.0
 40
0.0
 40
0.0
 40
0.0
 40
1.0
 40
1.0
 40
1.0
 40
1.0
 10
-2.9667
 20
-26.4141
 30
0.0
 10
-2.9667
 20
-26.4141
 30
0.0
 10
12.005
 20
-26.4141
 30
0.0
 10
12.005
 20
-26.4141
 30
0.0
  0
SPLINE
  5
44
330
1F
100
AcDbEntity
  8
DEFAULT_1
 62
   250
100
AcDbSpline
210
0.0
220
0.0
230
1.0
 70
    24
 71
     3
 72
     8
 73
     4
 74
     0
 42
0.0000000001
 43
0.0000000001
 40
0.0
 40
0.0
 40
0.0
 40
0.0
 40
1.0
 40
1.0
 40
1.0
 40
1.0
 10
-3.6973
 20
-21.2941
 30
0.0
 10
-3.6973
 20
-21.2941
 30
0.0
 10
-13.8194
 20
-21.2941
 30
0.0
 10
-13.8194
 20
-21.2941
 30
0.0
  0
SPLINE
  5
45
330
1F
100
AcDbEntity
  8
DEFAULT_1
 62
   250
100
AcDbSpline
210
0.0
220
0.0
230
1.0
 70
    24
 71
     3
 72
     8
 73
     4
 74
     0
 42
0.0000000001
 43
0.0000000001
 40
0.0
 40
0.0
 40
0.0
 40
0.0
 40
1.0
 40
1.0
 40
1.0
 40
1.0
 10
-4.3116
 20
-17.1309
 30
0.0
 10
-4.3116
 20
-17.1309
 30
0.0
 10
-8.1731
 20
-17.1309
 30
0.0
 10
-8.1731
 20
-17.1309
 30
0.0
  0
SPLINE
  5
46
330
1F
100
AcDbEntity
  8
DEFAULT_1
 62
   250
100
AcDbSpline
210
0.0
220
0.0
230
1.0
 70
    24
 71
     3
 72
     8
 73
     4
 74
     0
 42
0.0000000001
 43
0.0000000001
 40
0.0
 40
0.0
 40
0.0
 40
0.0
 40
1.0
 40
1.0
 40
1.0
 40
1.0
 10
-7.6723
 20
-25.5935
 30
0.0
 10
-7.6723
 20
-25.5935
 30
0.0
 10
-7.6723
 20
-12.5832
 30
0.0
 10
-7.6723
 20
-12.5832
 30
0.0
  0
SPLINE
  5
47
330
1F
100
AcDbEntity
  8
DEFAULT_1
 62
   250
100
AcDbSpline
210
0.0
220
0.0
230
1.0
 70
    24
 71
     3
 72
     8
 73
     4
 74
     0
 42
0.0000000001
 43
0.0000000001
 40
0.0
 40
0.0
 40
0.0
 40
0.0
 40
1.0
 40
1.0
 40
1.0
 40
1.0
 10
-7.8385
 20
4.8101
 30
0.0
 10
-7.8385
 20
4.8101
 30
0.0
 10
-13.6218
 20
4.8101
 30
0.0
 10
-13.6218
 20
4.8101
 30
0.0
  0
SPLINE
  5
48
330
1F
100
AcDbEntity
  8
DEFAULT_1
 62
   250
100
AcDbSpline
210
0.0
220
0.0
230
1.0
 70
    24
 71
     3
 72
     8
 73
     4
 74
     0
 42
0.0000000001
 43
0.0000000001
 40
0.0
 40
0.0
 40
0.0
 40
0.0
 40
1.0
 40
1.0
 40
1.0
 40
1.0
 10
-12.9551
 20
-21.0771
 30
0.0
 10
-12.9551
 20
-21.0771
 30
0.0
 10
-12.9551
 20
5.1845
 30
0.0
 10
-12.9551
 20
5.1845
 30
0.0
  0
SPLINE
  5
49
330
1F
100
AcDbEntity
  8
DEFAULT_1
 62
   250
100
AcDbSpline
210
0.0
220
0.0
230
1.0
 70
    24
 71
     3
 72
     8
 73
     4
 74
     0
 42
0.0000000001
 43
0.0000000001
 40
0.0
 40
0.0
 40
0.0
 40
0.0
 40
1.0
 40
1.0
 40
1.0
 40
1.0
 10
-12.955
 20
16.3837
 30
0.0
 10
-12.955
 20
16.3837
 30
0.0
 10
-12.955
 20
5.1845
 30
0.0
 10
-12.955
 20
5.1845
 30
0.0
  0
SPLINE
  5
4A
330
1F
100
AcDbEntity
  8
DEFAULT_1
 62
   250
100
AcDbSpline
210
0.0
220
0.0
230
1.0
 70
    24
 71
     3
 72
     8
 73
     4
 74
     0
 42
0.0000000001
 43
0.0000000001
 40
0.0
 40
0.0
 40
0.0
 40
0.0
 40
1.0
 40
1.0
 40
1.0
 40
1.0
 10
-8.4193
 20
16.799
 30
0.0
 10
-8.4193
 20
16.799
 30
0.0
 10
-13.4317
 20
16.799
 30
0.0
 10
-13.4317
 20
16.799
 30
0.0
  0
SPLINE
  5
4B
330
1F
100
AcDbEntity
  8
DEFAULT_1
 62
   250
100
AcDbSpline
210
0.0
220
0.0
230
1.0
 70
    24
 71
     3
 72
     8
 73
     4
 74
     0
 42
0.0000000001
 43
0.0000000001
 40
0.0
 40
0.0
 40
0.0
 40
0.0
 40
1.0
 40
1.0
 40
1.0
 40
1.0
 10
-12.9542
 20
15.3527
 30
0.0
 10
-12.9542
 20
15.3527
 30
0.0
 10
-12.9542
 20
16.3672
 30
0.0
 10
-12.9542
 20
16.3672
 30
0.0
  0
SPLINE
  5
4C
330
1F
100
AcDbEntity
  8
DEFAULT_1
 62
   250
100
AcDbSpline
210
0.0
220
0.0
230
1.0
 70
    24
 71
     3
 72
     8
 73
     4
 74
     0
 42
0.0000000001
 43
0.0000000001
 40
0.0
 40
0.0
 40
0.0
 40
0.0
 40
1.0
 40
1.0
 40
1.0
 40
1.0
 10
-4.0882
 20
-18.0414
 30
0.0
 10
-4.0882
 20
-18.0414
 30
0.0
 10
-4.0882
 20
-31.9623
 30
0.0
 10
-4.0882
 20
-31.9623
 30
0.0
  0
SPLINE
  5
4D
330
1F
100
AcDbEntity
  8
DEFAULT_1
 62
   250
100
AcDbSpline
210
0.0
220
0.0
230
1.0
 70
    24
 71
     3
 72
     8
 73
     4
 74
     0
 42
0.0000000001
 43
0.0000000001
 40
0.0
 40
0.0
 40
0.0
 40
0.0
 40
1.0
 40
1.0
 40
1.0
 40
1.0
 10
13.009
 20
-17.7886
 30
0.0
 10
13.009
 20
-17.7886
 30
0.0
 10
13.009
 20
-32.0637
 30
0.0
 10
13.009
 20
-32.0637
 30
0.0
  0
SPLINE
  5
4E
330
1F
100
AcDbEntity
  8
DEFAULT_1
 62
   250
100
AcDbSpline
210
0.0
220
0.0
230
1.0
 70
    24
 71
     3
 72
     8
 73
     4
 74
     0
 42
0.0000000001
 43
0.0000000001
 40
0.0
 40
0.0
 40
0.0
 40
0.0
 40
1.0
 40
1.0
 40
1.0
 40
1.0
 10
-3.3392
 20
-31.3459
 30
0.0
 10
-3.3392
 20
-31.3459
 30
0.0
 10
12.1321
 20
-31.3459
 30
0.0
 10
12.1321
 20
-31.3459
 30
0.0
  0
SPLINE
  5
4F
330
1F
100
AcDbEntity
  8
DEFAULT_1
  6
NEW_LINE1
 62
   250
100
AcDbSpline
210
0.0
220
0.0
230
1.0
 70
    24
 71
     3
 72
     8
 73
     4
 74
     0
 42
0.0000000001
 43
0.0000000001
 40
0.0
 40
0.0
 40
0.0
 40
0.0
 40
1.0
 40
1.0
 40
1.0
 40
1.0
 10
4.4743
 20
-21.8989
 30
0.0
 10
4.4743
 20
-21.8989
 30
0.0
 10
4.4743
 20
22.364
 30
0.0
 10
4.4743
 20
22.364
 30
0.0
  0
SPLINE
  5
51
330
1F
100
AcDbEntity
  8
DEFAULT_1
 62
   250
100
AcDbSpline
210
0.0
220
0.0
230
1.0
 70
    24
 71
     3
 72
     8
 73
     4
 74
     0
 42
0.0000000001
 43
0.0000000001
 40
0.0
 40
0.0
 40
0.0
 40
0.0
 40
1.0
 40
1.0
 40
1.0
 40
1.0
 10
11.395
 20
21.3366
 30
0.0
 10
11.395
 20
21.3366
 30
0.0
 10
11.395
 20
25.2494
 30
0.0
 10
11.395
 20
25.2494
 30
0.0
  0
SPLINE
  5
52
330
1F
100
AcDbEntity
  8
DEFAULT_1
 62
   250
100
AcDbSpline
210
0.0
220
0.0
230
1.0
 70
    24
 71
     3
 72
     8
 73
     4
 74
     0
 42
0.0000000001
 43
0.0000000001
 40
0.0
 40
0.0
 40
0.0
 40
0.0
 40
1.0
 40
1.0
 40
1.0
 40
1.0
 10
-2.5469
 20
21.0912
 30
0.0
 10
-2.5469
 20
21.0912
 30
0.0
 10
-2.5469
 20
25.1396
 30
0.0
 10
-2.5469
 20
25.1396
 30
0.0
  0
SPLINE
  5
53
330
1F
100
AcDbEntity
  8
DEFAULT_1
 62
   250
100
AcDbSpline
210
0.0
220
0.0
230
1.0
 70
    24
 71
     3
 72
     8
 73
     4
 74
     0
 42
0.0000000001
 43
0.0000000001
 40
0.0
 40
0.0
 40
0.0
 40
0.0
 40
1.0
 40
1.0
 40
1.0
 40
1.0
 10
-2.0472
 20
24.7889
 30
0.0
 10
-2.0472
 20
24.7889
 30
0.0
 10
10.2655
 20
24.7889
 30
0.0
 10
10.2655
 20
24.7889
 30
0.0
  0
SPLINE
  5
54
330
1F
100
AcDbEntity
  8
DEFAULT_1
 62
   250
100
AcDbSpline
210
0.0
220
0.0
230
1.0
 70
    11
 71
     3
 72
    48
 73
    44
 74
     0
 42
0.0000000001
 43
0.0000000001
 40
0.0
 40
0.0
 40
0.0
 40
0.0
 40
0.0833333333333333
 40
0.0833333333333333
 40
0.0833333333333333
 40
0.0833333333333333
 40
0.1666666666666667
 40
0.1666666666666667
 40
0.1666666666666667
 40
0.1666666666666667
 40
0.25
 40
0.25
 40
0.25
 40
0.25
 40
0.3333333333333333
 40
0.3333333333333333
 40
0.3333333333333333
 40
0.3333333333333333
 40
0.4166666666666667
 40
0.4166666666666667
 40
0.4166666666666667
 40
0.4166666666666667
 40
0.5
 40
0.5
 40
0.5
 40
0.5
 40
0.5833333333333334
 40
0.5833333333333334
 40
0.5833333333333334
 40
0.5833333333333334
 40
0.6666666666666666
 40
0.6666666666666666
 40
0.6666666666666666
 40
0.6666666666666666
 40
0.75
 40
0.75
 40
0.75
 40
0.75
 40
0.8333333333333334
 40
0.8333333333333334
 40
0.8333333333333334
 40
0.8333333333333334
 40
1.0
 40
1.0
 40
1.0
 40
1.0
 10
-1.8875
 20
18.9889
 30
0.0
 10
-1.8875
 20
18.9889
 30
0.0
 10
-2.7576
 20
19.1304
 30
0.0
 10
-2.7576
 20
19.1304
 30
0.0
 10
-2.7576
 20
19.1304
 30
0.0
 10
-2.7576
 20
19.1304
 30
0.0
 10
-2.8431
 20
19.233
 30
0.0
 10
-2.8431
 20
19.233
 30
0.0
 10
-2.8431
 20
19.233
 30
0.0
 10
-2.8431
 20
19.233
 30
0.0
 10
-2.826
 20
19.3527
 30
0.0
 10
-2.826
 20
19.3527
 30
0.0
 10
-2.826
 20
19.3527
 30
0.0
 10
-2.826
 20
19.3527
 30
0.0
 10
-2.7234
 20
19.4211
 30
0.0
 10
-2.7234
 20
19.4211
 30
0.0
 10
-2.7234
 20
19.4211
 30
0.0
 10
-2.7234
 20
19.4211
 30
0.0
 10
-1.8513
 20
19.5237
 30
0.0
 10
-1.8513
 20
19.5237
 30
0.0
 10
-1.8513
 20
19.5237
 30
0.0
 10
-1.8513
 20
19.5237
 30
0.0
 10
10.7685
 20
19.5237
 30
0.0
 10
10.7685
 20
19.5237
 30
0.0
 10
10.7685
 20
19.5237
 30
0.0
 10
10.7685
 20
19.5237
 30
0.0
 10
11.6748
 20
19.3869
 30
0.0
 10
11.6748
 20
19.3869
 30
0.0
 10
11.6748
 20
19.3869
 30
0.0
 10
11.6748
 20
19.3869
 30
0.0
 10
11.7261
 20
19.2672
 30
0.0
 10
11.7261
 20
19.2672
 30
0.0
 10
11.7261
 20
19.2672
 30
0.0
 10
11.7261
 20
19.2672
 30
0.0
 10
11.6748
 20
19.1304
 30
0.0
 10
11.6748
 20
19.1304
 30
0.0
 10
11.6748
 20
19.1304
 30
0.0
 10
11.6748
 20
19.1304
 30
0.0
 10
10.7462
 20
18.9889
 30
0.0
 10
10.7462
 20
18.9889
 30
0.0
 10
10.7462
 20
18.9889
 30
0.0
 10
10.7462
 20
18.9889
 30
0.0
 10
-1.8875
 20
18.9889
 30
0.0
 10
-1.8875
 20
18.9889
 30
0.0
  0
SPLINE
  5
55
330
1F
100
AcDbEntity
  8
DEFAULT_1
 62
   250
100
AcDbSpline
210
0.0
220
0.0
230
1.0
 70
    11
 71
     3
 72
    84
 73
    80
 74
     0
 42
0.0000000001
 43
0.0000000001
 40
0.0
 40
0.0
 40
0.0
 40
0.0
 40
0.0476190476190476
 40
0.0476190476190476
 40
0.0476190476190476
 40
0.0476190476190476
 40
0.0952380952380952
 40
0.0952380952380952
 40
0.0952380952380952
 40
0.0952380952380952
 40
0.1428571428571428
 40
0.1428571428571428
 40
0.1428571428571428
 40
0.1428571428571428
 40
0.1904761904761905
 40
0.1904761904761905
 40
0.1904761904761905
 40
0.1904761904761905
 40
0.2380952380952381
 40
0.2380952380952381
 40
0.2380952380952381
 40
0.2380952380952381
 40
0.2857142857142857
 40
0.2857142857142857
 40
0.2857142857142857
 40
0.2857142857142857
 40
0.3333333333333333
 40
0.3333333333333333
 40
0.3333333333333333
 40
0.3333333333333333
 40
0.3809523809523809
 40
0.3809523809523809
 40
0.3809523809523809
 40
0.3809523809523809
 40
0.4285714285714285
 40
0.4285714285714285
 40
0.4285714285714285
 40
0.4285714285714285
 40
0.4761904761904762
 40
0.4761904761904762
 40
0.4761904761904762
 40
0.4761904761904762
 40
0.5238095238095238
 40
0.5238095238095238
 40
0.5238095238095238
 40
0.5238095238095238
 40
0.5714285714285714
 40
0.5714285714285714
 40
0.5714285714285714
 40
0.5714285714285714
 40
0.6190476190476191
 40
0.6190476190476191
 40
0.6190476190476191
 40
0.6190476190476191
 40
0.6666666666666666
 40
0.6666666666666666
 40
0.6666666666666666
 40
0.6666666666666666
 40
0.7142857142857143
 40
0.7142857142857143
 40
0.7142857142857143
 40
0.7142857142857143
 40
0.7619047619047619
 40
0.7619047619047619
 40
0.7619047619047619
 40
0.7619047619047619
 40
0.8095238095238095
 40
0.8095238095238095
 40
0.8095238095238095
 40
0.8095238095238095
 40
0.8571428571428571
 40
0.8571428571428571
 40
0.8571428571428571
 40
0.8571428571428571
 40
0.9047619047619048
 40
0.9047619047619048
 40
0.9047619047619048
 40
0.9047619047619048
 40
1.0
 40
1.0
 40
1.0
 40
1.0
 10
3.5105
 20
31.8047
 30
0.0
 10
3.5105
 20
31.8047
 30
0.0
 10
3.7419
 20
32.0638
 30
0.0
 10
3.7419
 20
32.0638
 30
0.0
 10
3.7419
 20
32.0638
 30
0.0
 10
3.7419
 20
32.0638
 30
0.0
 10
3.8783
 20
31.9481
 30
0.0
 10
3.8783
 20
31.9481
 30
0.0
 10
3.8783
 20
31.9481
 30
0.0
 10
3.8783
 20
31.9481
 30
0.0
 10
3.6361
 20
31.6753
 30
0.0
 10
3.6361
 20
31.6753
 30
0.0
 10
3.6361
 20
31.6753
 30
0.0
 10
3.7151
 20
31.5577
 30
0.0
 10
3.7682
 20
31.4547
 30
0.0
 10
3.796
 20
31.3668
 30
0.0
 10
3.796
 20
31.3668
 30
0.0
 10
3.8327
 20
31.251
 30
0.0
 10
3.851
 20
31.1212
 30
0.0
 10
3.851
 20
30.9782
 30
0.0
 10
3.851
 20
30.9782
 30
0.0
 10
3.851
 20
30.7713
 30
0.0
 10
3.8092
 20
30.5869
 30
0.0
 10
3.7254
 20
30.4256
 30
0.0
 10
3.7254
 20
30.4256
 30
0.0
 10
3.6417
 20
30.2637
 30
0.0
 10
3.5246
 20
30.1415
 30
0.0
 10
3.3736
 20
30.0587
 30
0.0
 10
3.3736
 20
30.0587
 30
0.0
 10
3.2221
 20
29.9764
 30
0.0
 10
3.0618
 20
29.935
 30
0.0
 10
2.892
 20
29.935
 30
0.0
 10
2.892
 20
29.935
 30
0.0
 10
2.765
 20
29.935
 30
0.0
 10
2.6502
 20
29.9528
 30
0.0
 10
2.5472
 20
29.9886
 30
0.0
 10
2.5472
 20
29.9886
 30
0.0
 10
2.4682
 20
30.0163
 30
0.0
 10
2.376
 20
30.069
 30
0.0
 10
2.2701
 20
30.1471
 30
0.0
 10
2.2701
 20
30.1471
 30
0.0
 10
2.2701
 20
30.1471
 30
0.0
 10
2.0387
 20
29.8879
 30
0.0
 10
2.0387
 20
29.8879
 30
0.0
 10
2.0387
 20
29.8879
 30
0.0
 10
2.0387
 20
29.8879
 30
0.0
 10
1.9023
 20
30.0036
 30
0.0
 10
1.9023
 20
30.0036
 30
0.0
 10
1.9023
 20
30.0036
 30
0.0
 10
1.9023
 20
30.0036
 30
0.0
 10
2.145
 20
30.275
 30
0.0
 10
2.145
 20
30.275
 30
0.0
 10
2.145
 20
30.275
 30
0.0
 10
2.0547
 20
30.4119
 30
0.0
 10
1.9945
 20
30.529
 30
0.0
 10
1.9644
 20
30.6259
 30
0.0
 10
1.9644
 20
30.6259
 30
0.0
 10
1.9343
 20
30.7228
 30
0.0
 10
1.9188
 20
30.8395
 30
0.0
 10
1.9188
 20
30.9754
 30
0.0
 10
1.9188
 20
30.9754
 30
0.0
 10
1.9188
 20
31.1828
 30
0.0
 10
1.9602
 20
31.3677
 30
0.0
 10
2.0429
 20
31.53
 30
0.0
 10
2.0429
 20
31.53
 30
0.0
 10
2.1257
 20
31.6923
 30
0.0
 10
2.2414
 20
31.815
 30
0.0
 10
2.391
 20
31.8987
 30
0.0
 10
2.391
 20
31.8987
 30
0.0
 10
2.5401
 20
31.982
 30
0.0
 10
2.7062
 20
32.0239
 30
0.0
 10
2.8891
 20
32.0239
 30
0.0
 10
2.8891
 20
32.0239
 30
0.0
 10
3.0124
 20
32.0239
 30
0.0
 10
3.1201
 20
32.0079
 30
0.0
 10
3.2123
 20
31.9749
 30
0.0
 10
3.2123
 20
31.9749
 30
0.0
 10
3.3045
 20
31.9425
 30
0.0
 10
3.4042
 20
31.8856
 30
0.0
 10
3.5105
 20
31.8047
 30
0.0
  0
SPLINE
  5
56
330
1F
100
AcDbEntity
  8
DEFAULT_1
 62
   250
100
AcDbSpline
210
0.0
220
0.0
230
1.0
 70
    11
 71
     3
 72
    32
 73
    28
 74
     0
 42
0.0000000001
 43
0.0000000001
 40
0.0
 40
0.0
 40
0.0
 40
0.0
 40
0.125
 40
0.125
 40
0.125
 40
0.125
 40
0.25
 40
0.25
 40
0.25
 40
0.25
 40
0.375
 40
0.375
 40
0.375
 40
0.375
 40
0.5
 40
0.5
 40
0.5
 40
0.5
 40
0.625
 40
0.625
 40
0.625
 40
0.625
 40
0.75
 40
0.75
 40
0.75
 40
0.75
 40
1.0
 40
1.0
 40
1.0
 40
1.0
 10
3.3454
 20
31.6189
 30
0.0
 10
3.2588
 20
31.6866
 30
0.0
 10
3.1831
 20
31.7332
 30
0.0
 10
3.1187
 20
31.7581
 30
0.0
 10
3.1187
 20
31.7581
 30
0.0
 10
3.0538
 20
31.7826
 30
0.0
 10
2.9776
 20
31.7953
 30
0.0
 10
2.8905
 20
31.7953
 30
0.0
 10
2.8905
 20
31.7953
 30
0.0
 10
2.6892
 20
31.7953
 30
0.0
 10
2.5232
 20
31.7271
 30
0.0
 10
2.3915
 20
31.5907
 30
0.0
 10
2.3915
 20
31.5907
 30
0.0
 10
2.2602
 20
31.4542
 30
0.0
 10
2.1944
 20
31.2506
 30
0.0
 10
2.1944
 20
30.9792
 30
0.0
 10
2.1944
 20
30.9792
 30
0.0
 10
2.1944
 20
30.8729
 30
0.0
 10
2.2047
 20
30.7783
 30
0.0
 10
2.225
 20
30.6955
 30
0.0
 10
2.225
 20
30.6955
 30
0.0
 10
2.2396
 20
30.6339
 30
0.0
 10
2.2701
 20
30.5582
 30
0.0
 10
2.3172
 20
30.4684
 30
0.0
 10
2.3172
 20
30.4684
 30
0.0
 10
2.3172
 20
30.4684
 30
0.0
 10
3.3454
 20
31.6189
 30
0.0
 10
3.3454
 20
31.6189
 30
0.0
  0
SPLINE
  5
57
330
1F
100
AcDbEntity
  8
DEFAULT_1
 62
   250
100
AcDbSpline
210
0.0
220
0.0
230
1.0
 70
    11
 71
     3
 72
    28
 73
    24
 74
     0
 42
0.0000000001
 43
0.0000000001
 40
0.0
 40
0.0
 40
0.0
 40
0.0
 40
0.1428571428571428
 40
0.1428571428571428
 40
0.1428571428571428
 40
0.1428571428571428
 40
0.2857142857142857
 40
0.2857142857142857
 40
0.2857142857142857
 40
0.2857142857142857
 40
0.4285714285714285
 40
0.4285714285714285
 40
0.4285714285714285
 40
0.4285714285714285
 40
0.5714285714285714
 40
0.5714285714285714
 40
0.5714285714285714
 40
0.5714285714285714
 40
0.7142857142857143
 40
0.7142857142857143
 40
0.7142857142857143
 40
0.7142857142857143
 40
1.0
 40
1.0
 40
1.0
 40
1.0
 10
3.4583
 20
31.4768
 30
0.0
 10
3.4583
 20
31.4768
 30
0.0
 10
2.4343
 20
30.3305
 30
0.0
 10
2.4343
 20
30.3305
 30
0.0
 10
2.4343
 20
30.3305
 30
0.0
 10
2.5048
 20
30.2727
 30
0.0
 10
2.5702
 20
30.2322
 30
0.0
 10
2.63
 20
30.2092
 30
0.0
 10
2.63
 20
30.2092
 30
0.0
 10
2.708
 20
30.1786
 30
0.0
 10
2.7927
 20
30.1636
 30
0.0
 10
2.8835
 20
30.1636
 30
0.0
 10
2.8835
 20
30.1636
 30
0.0
 10
3.0839
 20
30.1636
 30
0.0
 10
3.249
 20
30.2341
 30
0.0
 10
3.3797
 20
30.3757
 30
0.0
 10
3.3797
 20
30.3757
 30
0.0
 10
3.51
 20
30.5173
 30
0.0
 10
3.5754
 20
30.7158
 30
0.0
 10
3.5754
 20
30.9712
 30
0.0
 10
3.5754
 20
30.9712
 30
0.0
 10
3.5754
 20
31.1621
 30
0.0
 10
3.5364
 20
31.331
 30
0.0
 10
3.4583
 20
31.4768
 30
0.0
  0
SPLINE
  5
58
330
1F
100
AcDbEntity
  8
DEFAULT_1
 62
   250
100
AcDbSpline
210
0.0
220
0.0
230
1.0
 70
    11
 71
     3
 72
    80
 73
    76
 74
     0
 42
0.0000000001
 43
0.0000000001
 40
0.0
 40
0.0
 40
0.0
 40
0.0
 40
0.05
 40
0.05
 40
0.05
 40
0.05
 40
0.1
 40
0.1
 40
0.1
 40
0.1
 40
0.15
 40
0.15
 40
0.15
 40
0.15
 40
0.2
 40
0.2
 40
0.2
 40
0.2
 40
0.25
 40
0.25
 40
0.25
 40
0.25
 40
0.3
 40
0.3
 40
0.3
 40
0.3
 40
0.35
 40
0.35
 40
0.35
 40
0.35
 40
0.4
 40
0.4
 40
0.4
 40
0.4
 40
0.45
 40
0.45
 40
0.45
 40
0.45
 40
0.5
 40
0.5
 40
0.5
 40
0.5
 40
0.55
 40
0.55
 40
0.55
 40
0.55
 40
0.6
 40
0.6
 40
0.6
 40
0.6
 40
0.65
 40
0.65
 40
0.65
 40
0.65
 40
0.7
 40
0.7
 40
0.7
 40
0.7
 40
0.75
 40
0.75
 40
0.75
 40
0.75
 40
0.8
 40
0.8
 40
0.8
 40
0.8
 40
0.85
 40
0.85
 40
0.85
 40
0.85
 40
0.9
 40
0.9
 40
0.9
 40
0.9
 40
1.0
 40
1.0
 40
1.0
 40
1.0
 10
5.3872
 20
31.4947
 30
0.0
 10
5.3872
 20
31.4947
 30
0.0
 10
5.1408
 20
31.4754
 30
0.0
 10
5.1408
 20
31.4754
 30
0.0
 10
5.1408
 20
31.4754
 30
0.0
 10
5.1187
 20
31.5728
 30
0.0
 10
5.0876
 20
31.6438
 30
0.0
 10
5.0472
 20
31.6875
 30
0.0
 10
5.0472
 20
31.6875
 30
0.0
 10
4.9799
 20
31.7586
 30
0.0
 10
4.8971
 20
31.7939
 30
0.0
 10
4.7988
 20
31.7939
 30
0.0
 10
4.7988
 20
31.7939
 30
0.0
 10
4.7198
 20
31.7939
 30
0.0
 10
4.6507
 20
31.7717
 30
0.0
 10
4.5909
 20
31.7275
 30
0.0
 10
4.5909
 20
31.7275
 30
0.0
 10
4.5128
 20
31.6706
 30
0.0
 10
4.4512
 20
31.5874
 30
0.0
 10
4.4061
 20
31.4782
 30
0.0
 10
4.4061
 20
31.4782
 30
0.0
 10
4.3614
 20
31.3691
 30
0.0
 10
4.3379
 20
31.2134
 30
0.0
 10
4.336
 20
31.0112
 30
0.0
 10
4.336
 20
31.0112
 30
0.0
 10
4.3957
 20
31.1019
 30
0.0
 10
4.4686
 20
31.1697
 30
0.0
 10
4.5552
 20
31.2139
 30
0.0
 10
4.5552
 20
31.2139
 30
0.0
 10
4.6412
 20
31.2576
 30
0.0
 10
4.732
 20
31.2797
 30
0.0
 10
4.8266
 20
31.2797
 30
0.0
 10
4.8266
 20
31.2797
 30
0.0
 10
4.9921
 20
31.2797
 30
0.0
 10
5.1328
 20
31.2191
 30
0.0
 10
5.249
 20
31.0972
 30
0.0
 10
5.249
 20
31.0972
 30
0.0
 10
5.3651
 20
30.9754
 30
0.0
 10
5.4235
 20
30.8183
 30
0.0
 10
5.4235
 20
30.6255
 30
0.0
 10
5.4235
 20
30.6255
 30
0.0
 10
5.4235
 20
30.4985
 30
0.0
 10
5.3957
 20
30.3809
 30
0.0
 10
5.3411
 20
30.2717
 30
0.0
 10
5.3411
 20
30.2717
 30
0.0
 10
5.2866
 20
30.1631
 30
0.0
 10
5.2113
 20
30.0794
 30
0.0
 10
5.1158
 20
30.0215
 30
0.0
 10
5.1158
 20
30.0215
 30
0.0
 10
5.0204
 20
29.9637
 30
0.0
 10
4.9122
 20
29.935
 30
0.0
 10
4.7908
 20
29.935
 30
0.0
 10
4.7908
 20
29.935
 30
0.0
 10
4.5839
 20
29.935
 30
0.0
 10
4.4155
 20
30.0107
 30
0.0
 10
4.2852
 20
30.1631
 30
0.0
 10
4.2852
 20
30.1631
 30
0.0
 10
4.1544
 20
30.315
 30
0.0
 10
4.0895
 20
30.5657
 30
0.0
 10
4.0895
 20
30.9147
 30
0.0
 10
4.0895
 20
30.9147
 30
0.0
 10
4.0895
 20
31.3051
 30
0.0
 10
4.1615
 20
31.5888
 30
0.0
 10
4.3059
 20
31.7661
 30
0.0
 10
4.3059
 20
31.7661
 30
0.0
 10
4.4315
 20
31.9204
 30
0.0
 10
4.6008
 20
31.998
 30
0.0
 10
4.8143
 20
31.998
 30
0.0
 10
4.8143
 20
31.998
 30
0.0
 10
4.9729
 20
31.998
 30
0.0
 10
5.1031
 20
31.9533
 30
0.0
 10
5.2047
 20
31.8639
 30
0.0
 10
5.2047
 20
31.8639
 30
0.0
 10
5.3063
 20
31.775
 30
0.0
 10
5.367
 20
31.6518
 30
0.0
 10
5.3872
 20
31.4947
 30
0.0
  0
SPLINE
  5
59
330
1F
100
AcDbEntity
  8
DEFAULT_1
 62
   250
100
AcDbSpline
210
0.0
220
0.0
230
1.0
 70
    11
 71
     3
 72
    40
 73
    36
 74
     0
 42
0.0000000001
 43
0.0000000001
 40
0.0
 40
0.0
 40
0.0
 40
0.0
 40
0.1
 40
0.1
 40
0.1
 40
0.1
 40
0.2
 40
0.2
 40
0.2
 40
0.2
 40
0.3
 40
0.3
 40
0.3
 40
0.3
 40
0.4
 40
0.4
 40
0.4
 40
0.4
 40
0.5
 40
0.5
 40
0.5
 40
0.5
 40
0.6
 40
0.6
 40
0.6
 40
0.6
 40
0.7
 40
0.7
 40
0.7
 40
0.7
 40
0.8
 40
0.8
 40
0.8
 40
0.8
 40
1.0
 40
1.0
 40
1.0
 40
1.0
 10
4.3745
 20
30.6241
 30
0.0
 10
4.3745
 20
30.5384
 30
0.0
 10
4.3929
 20
30.4566
 30
0.0
 10
4.4291
 20
30.3785
 30
0.0
 10
4.4291
 20
30.3785
 30
0.0
 10
4.4653
 20
30.3004
 30
0.0
 10
4.5161
 20
30.2412
 30
0.0
 10
4.581
 20
30.2003
 30
0.0
 10
4.581
 20
30.2003
 30
0.0
 10
4.6464
 20
30.1593
 30
0.0
 10
4.7151
 20
30.1386
 30
0.0
 10
4.7866
 20
30.1386
 30
0.0
 10
4.7866
 20
30.1386
 30
0.0
 10
4.8915
 20
30.1386
 30
0.0
 10
4.9813
 20
30.181
 30
0.0
 10
5.0566
 20
30.2656
 30
0.0
 10
5.0566
 20
30.2656
 30
0.0
 10
5.1318
 20
30.3503
 30
0.0
 10
5.1695
 20
30.4651
 30
0.0
 10
5.1695
 20
30.6099
 30
0.0
 10
5.1695
 20
30.6099
 30
0.0
 10
5.1695
 20
30.7496
 30
0.0
 10
5.1323
 20
30.8597
 30
0.0
 10
5.058
 20
30.9401
 30
0.0
 10
5.058
 20
30.9401
 30
0.0
 10
4.9837
 20
31.0206
 30
0.0
 10
4.8901
 20
31.0606
 30
0.0
 10
4.7772
 20
31.0606
 30
0.0
 10
4.7772
 20
31.0606
 30
0.0
 10
4.6648
 20
31.0606
 30
0.0
 10
4.5697
 20
31.0206
 30
0.0
 10
4.4917
 20
30.9401
 30
0.0
 10
4.4917
 20
30.9401
 30
0.0
 10
4.4136
 20
30.8597
 30
0.0
 10
4.3745
 20
30.7543
 30
0.0
 10
4.3745
 20
30.6241
 30
0.0
  0
SPLINE
  5
5A
330
1F
100
AcDbEntity
  8
DEFAULT_1
 62
   250
100
AcDbSpline
210
0.0
220
0.0
230
1.0
 70
    11
 71
     3
 72
    92
 73
    88
 74
     0
 42
0.0000000001
 43
0.0000000001
 40
0.0
 40
0.0
 40
0.0
 40
0.0
 40
0.0434782608695652
 40
0.0434782608695652
 40
0.0434782608695652
 40
0.0434782608695652
 40
0.0869565217391304
 40
0.0869565217391304
 40
0.0869565217391304
 40
0.0869565217391304
 40
0.1304347826086956
 40
0.1304347826086956
 40
0.1304347826086956
 40
0.1304347826086956
 40
0.1739130434782609
 40
0.1739130434782609
 40
0.1739130434782609
 40
0.1739130434782609
 40
0.2173913043478261
 40
0.2173913043478261
 40
0.2173913043478261
 40
0.2173913043478261
 40
0.2608695652173913
 40
0.2608695652173913
 40
0.2608695652173913
 40
0.2608695652173913
 40
0.3043478260869565
 40
0.3043478260869565
 40
0.3043478260869565
 40
0.3043478260869565
 40
0.3478260869565217
 40
0.3478260869565217
 40
0.3478260869565217
 40
0.3478260869565217
 40
0.391304347826087
 40
0.391304347826087
 40
0.391304347826087
 40
0.391304347826087
 40
0.4347826086956522
 40
0.4347826086956522
 40
0.4347826086956522
 40
0.4347826086956522
 40
0.4782608695652174
 40
0.4782608695652174
 40
0.4782608695652174
 40
0.4782608695652174
 40
0.5217391304347826
 40
0.5217391304347826
 40
0.5217391304347826
 40
0.5217391304347826
 40
0.5652173913043478
 40
0.5652173913043478
 40
0.5652173913043478
 40
0.5652173913043478
 40
0.6086956521739131
 40
0.6086956521739131
 40
0.6086956521739131
 40
0.6086956521739131
 40
0.6521739130434783
 40
0.6521739130434783
 40
0.6521739130434783
 40
0.6521739130434783
 40
0.6956521739130435
 40
0.6956521739130435
 40
0.6956521739130435
 40
0.6956521739130435
 40
0.7391304347826086
 40
0.7391304347826086
 40
0.7391304347826086
 40
0.7391304347826086
 40
0.782608695652174
 40
0.782608695652174
 40
0.782608695652174
 40
0.782608695652174
 40
0.8260869565217391
 40
0.8260869565217391
 40
0.8260869565217391
 40
0.8260869565217391
 40
0.8695652173913043
 40
0.8695652173913043
 40
0.8695652173913043
 40
0.8695652173913043
 40
0.9130434782608695
 40
0.9130434782608695
 40
0.9130434782608695
 40
0.9130434782608695
 40
1.0
 40
1.0
 40
1.0
 40
1.0
 10
6.9738
 20
30.2078
 30
0.0
 10
6.9738
 20
30.2078
 30
0.0
 10
6.9738
 20
29.9693
 30
0.0
 10
6.9738
 20
29.9693
 30
0.0
 10
6.9738
 20
29.9693
 30
0.0
 10
6.9738
 20
29.9693
 30
0.0
 10
5.6384
 20
29.9693
 30
0.0
 10
5.6384
 20
29.9693
 30
0.0
 10
5.6384
 20
29.9693
 30
0.0
 10
5.6365
 20
30.029
 30
0.0
 10
5.6459
 20
30.0864
 30
0.0
 10
5.6671
 20
30.1415
 30
0.0
 10
5.6671
 20
30.1415
 30
0.0
 10
5.701
 20
30.2327
 30
0.0
 10
5.7555
 20
30.3221
 30
0.0
 10
5.8303
 20
30.4105
 30
0.0
 10
5.8303
 20
30.4105
 30
0.0
 10
5.9056
 20
30.4985
 30
0.0
 10
6.0138
 20
30.6005
 30
0.0
 10
6.1549
 20
30.7162
 30
0.0
 10
6.1549
 20
30.7162
 30
0.0
 10
6.3745
 20
30.8964
 30
0.0
 10
6.5232
 20
31.0389
 30
0.0
 10
6.6003
 20
31.1443
 30
0.0
 10
6.6003
 20
31.1443
 30
0.0
 10
6.6774
 20
31.2492
 30
0.0
 10
6.716
 20
31.3489
 30
0.0
 10
6.716
 20
31.4425
 30
0.0
 10
6.716
 20
31.4425
 30
0.0
 10
6.716
 20
31.5408
 30
0.0
 10
6.6807
 20
31.6236
 30
0.0
 10
6.6107
 20
31.6913
 30
0.0
 10
6.6107
 20
31.6913
 30
0.0
 10
6.5401
 20
31.7586
 30
0.0
 10
6.4484
 20
31.7924
 30
0.0
 10
6.3355
 20
31.7924
 30
0.0
 10
6.3355
 20
31.7924
 30
0.0
 10
6.216
 20
31.7924
 30
0.0
 10
6.1205
 20
31.7567
 30
0.0
 10
6.049
 20
31.6847
 30
0.0
 10
6.049
 20
31.6847
 30
0.0
 10
5.9771
 20
31.6132
 30
0.0
 10
5.9409
 20
31.514
 30
0.0
 10
5.9399
 20
31.3875
 30
0.0
 10
5.9399
 20
31.3875
 30
0.0
 10
5.9399
 20
31.3875
 30
0.0
 10
5.685
 20
31.4133
 30
0.0
 10
5.685
 20
31.4133
 30
0.0
 10
5.685
 20
31.4133
 30
0.0
 10
5.7024
 20
31.6038
 30
0.0
 10
5.7682
 20
31.7487
 30
0.0
 10
5.8821
 20
31.8484
 30
0.0
 10
5.8821
 20
31.8484
 30
0.0
 10
5.9959
 20
31.9481
 30
0.0
 10
6.1492
 20
31.998
 30
0.0
 10
6.3411
 20
31.998
 30
0.0
 10
6.3411
 20
31.998
 30
0.0
 10
6.5349
 20
31.998
 30
0.0
 10
6.6883
 20
31.9439
 30
0.0
 10
6.8012
 20
31.8367
 30
0.0
 10
6.8012
 20
31.8367
 30
0.0
 10
6.9145
 20
31.7289
 30
0.0
 10
6.971
 20
31.5958
 30
0.0
 10
6.971
 20
31.4368
 30
0.0
 10
6.971
 20
31.4368
 30
0.0
 10
6.971
 20
31.3559
 30
0.0
 10
6.9545
 20
31.2764
 30
0.0
 10
6.9211
 20
31.1984
 30
0.0
 10
6.9211
 20
31.1984
 30
0.0
 10
6.8882
 20
31.1203
 30
0.0
 10
6.8331
 20
31.038
 30
0.0
 10
6.7565
 20
30.9519
 30
0.0
 10
6.7565
 20
30.9519
 30
0.0
 10
6.6798
 20
30.8653
 30
0.0
 10
6.5523
 20
30.7468
 30
0.0
 10
6.3741
 20
30.5963
 30
0.0
 10
6.3741
 20
30.5963
 30
0.0
 10
6.2254
 20
30.4712
 30
0.0
 10
6.1299
 20
30.3865
 30
0.0
 10
6.0876
 20
30.3418
 30
0.0
 10
6.0876
 20
30.3418
 30
0.0
 10
6.0453
 20
30.2976
 30
0.0
 10
6.0105
 20
30.2529
 30
0.0
 10
5.9827
 20
30.2078
 30
0.0
 10
5.9827
 20
30.2078
 30
0.0
 10
5.9827
 20
30.2078
 30
0.0
 10
6.9738
 20
30.2078
 30
0.0
 10
6.9738
 20
30.2078
 30
0.0
  0
SPLINE
  5
5B
330
1F
100
AcDbEntity
  8
DEFAULT_1
 62
   250
100
AcDbSpline
210
0.0
220
0.0
230
1.0
 70
    11
 71
     3
 72
    80
 73
    76
 74
     0
 42
0.0000000001
 43
0.0000000001
 40
0.0
 40
0.0
 40
0.0
 40
0.0
 40
0.05
 40
0.05
 40
0.05
 40
0.05
 40
0.1
 40
0.1
 40
0.1
 40
0.1
 40
0.15
 40
0.15
 40
0.15
 40
0.15
 40
0.2
 40
0.2
 40
0.2
 40
0.2
 40
0.25
 40
0.25
 40
0.25
 40
0.25
 40
0.3
 40
0.3
 40
0.3
 40
0.3
 40
0.35
 40
0.35
 40
0.35
 40
0.35
 40
0.4
 40
0.4
 40
0.4
 40
0.4
 40
0.45
 40
0.45
 40
0.45
 40
0.45
 40
0.5
 40
0.5
 40
0.5
 40
0.5
 40
0.55
 40
0.55
 40
0.55
 40
0.55
 40
0.6
 40
0.6
 40
0.6
 40
0.6
 40
0.65
 40
0.65
 40
0.65
 40
0.65
 40
0.7
 40
0.7
 40
0.7
 40
0.7
 40
0.75
 40
0.75
 40
0.75
 40
0.75
 40
0.8
 40
0.8
 40
0.8
 40
0.8
 40
0.85
 40
0.85
 40
0.85
 40
0.85
 40
0.9
 40
0.9
 40
0.9
 40
0.9
 40
1.0
 40
1.0
 40
1.0
 40
1.0
 10
-15.002
 20
-7.8659
 30
0.0
 10
-15.002
 20
-7.8659
 30
0.0
 10
-14.9827
 20
-8.1123
 30
0.0
 10
-14.9827
 20
-8.1123
 30
0.0
 10
-14.9827
 20
-8.1123
 30
0.0
 10
-15.0801
 20
-8.1344
 30
0.0
 10
-15.1511
 20
-8.1655
 30
0.0
 10
-15.1948
 20
-8.2059
 30
0.0
 10
-15.1948
 20
-8.2059
 30
0.0
 10
-15.2659
 20
-8.2732
 30
0.0
 10
-15.3012
 20
-8.356
 30
0.0
 10
-15.3012
 20
-8.4543
 30
0.0
 10
-15.3012
 20
-8.4543
 30
0.0
 10
-15.3012
 20
-8.5333
 30
0.0
 10
-15.279
 20
-8.6024
 30
0.0
 10
-15.2348
 20
-8.6622
 30
0.0
 10
-15.2348
 20
-8.6622
 30
0.0
 10
-15.1779
 20
-8.7403
 30
0.0
 10
-15.0947
 20
-8.8019
 30
0.0
 10
-14.9855
 20
-8.847
 30
0.0
 10
-14.9855
 20
-8.847
 30
0.0
 10
-14.8764
 20
-8.8917
 30
0.0
 10
-14.7207
 20
-8.9152
 30
0.0
 10
-14.5185
 20
-8.9171
 30
0.0
 10
-14.5185
 20
-8.9171
 30
0.0
 10
-14.6092
 20
-8.8574
 30
0.0
 10
-14.677
 20
-8.7845
 30
0.0
 10
-14.7212
 20
-8.6979
 30
0.0
 10
-14.7212
 20
-8.6979
 30
0.0
 10
-14.7649
 20
-8.6119
 30
0.0
 10
-14.787
 20
-8.5211
 30
0.0
 10
-14.787
 20
-8.4265
 30
0.0
 10
-14.787
 20
-8.4265
 30
0.0
 10
-14.787
 20
-8.261
 30
0.0
 10
-14.7264
 20
-8.1203
 30
0.0
 10
-14.6045
 20
-8.0041
 30
0.0
 10
-14.6045
 20
-8.0041
 30
0.0
 10
-14.4827
 20
-7.888
 30
0.0
 10
-14.3256
 20
-7.8296
 30
0.0
 10
-14.1328
 20
-7.8296
 30
0.0
 10
-14.1328
 20
-7.8296
 30
0.0
 10
-14.0058
 20
-7.8296
 30
0.0
 10
-13.8882
 20
-7.8574
 30
0.0
 10
-13.779
 20
-7.912
 30
0.0
 10
-13.779
 20
-7.912
 30
0.0
 10
-13.6704
 20
-7.9665
 30
0.0
 10
-13.5867
 20
-8.0418
 30
0.0
 10
-13.5288
 20
-8.1373
 30
0.0
 10
-13.5288
 20
-8.1373
 30
0.0
 10
-13.471
 20
-8.2327
 30
0.0
 10
-13.4423
 20
-8.3409
 30
0.0
 10
-13.4423
 20
-8.4623
 30
0.0
 10
-13.4423
 20
-8.4623
 30
0.0
 10
-13.4423
 20
-8.6692
 30
0.0
 10
-13.518
 20
-8.8376
 30
0.0
 10
-13.6704
 20
-8.9679
 30
0.0
 10
-13.6704
 20
-8.9679
 30
0.0
 10
-13.8223
 20
-9.0987
 30
0.0
 10
-14.073
 20
-9.1636
 30
0.0
 10
-14.422
 20
-9.1636
 30
0.0
 10
-14.422
 20
-9.1636
 30
0.0
 10
-14.8124
 20
-9.1636
 30
0.0
 10
-15.0961
 20
-9.0916
 30
0.0
 10
-15.2734
 20
-8.9472
 30
0.0
 10
-15.2734
 20
-8.9472
 30
0.0
 10
-15.4277
 20
-8.8216
 30
0.0
 10
-15.5053
 20
-8.6523
 30
0.0
 10
-15.5053
 20
-8.4388
 30
0.0
 10
-15.5053
 20
-8.4388
 30
0.0
 10
-15.5053
 20
-8.2802
 30
0.0
 10
-15.4606
 20
-8.15
 30
0.0
 10
-15.3712
 20
-8.0484
 30
0.0
 10
-15.3712
 20
-8.0484
 30
0.0
 10
-15.2823
 20
-7.9468
 30
0.0
 10
-15.1591
 20
-7.8861
 30
0.0
 10
-15.002
 20
-7.8659
 30
0.0
  0
SPLINE
  5
5C
330
1F
100
AcDbEntity
  8
DEFAULT_1
 62
   250
100
AcDbSpline
210
0.0
220
0.0
230
1.0
 70
    11
 71
     3
 72
    40
 73
    36
 74
     0
 42
0.0000000001
 43
0.0000000001
 40
0.0
 40
0.0
 40
0.0
 40
0.0
 40
0.1
 40
0.1
 40
0.1
 40
0.1
 40
0.2
 40
0.2
 40
0.2
 40
0.2
 40
0.3
 40
0.3
 40
0.3
 40
0.3
 40
0.4
 40
0.4
 40
0.4
 40
0.4
 40
0.5
 40
0.5
 40
0.5
 40
0.5
 40
0.6
 40
0.6
 40
0.6
 40
0.6
 40
0.7
 40
0.7
 40
0.7
 40
0.7
 40
0.8
 40
0.8
 40
0.8
 40
0.8
 40
1.0
 40
1.0
 40
1.0
 40
1.0
 10
-14.1314
 20
-8.8786
 30
0.0
 10
-14.0457
 20
-8.8786
 30
0.0
 10
-13.9639
 20
-8.8602
 30
0.0
 10
-13.8858
 20
-8.824
 30
0.0
 10
-13.8858
 20
-8.824
 30
0.0
 10
-13.8077
 20
-8.7878
 30
0.0
 10
-13.7485
 20
-8.737
 30
0.0
 10
-13.7076
 20
-8.6721
 30
0.0
 10
-13.7076
 20
-8.6721
 30
0.0
 10
-13.6666
 20
-8.6067
 30
0.0
 10
-13.6459
 20
-8.538
 30
0.0
 10
-13.6459
 20
-8.4665
 30
0.0
 10
-13.6459
 20
-8.4665
 30
0.0
 10
-13.6459
 20
-8.3616
 30
0.0
 10
-13.6883
 20
-8.2718
 30
0.0
 10
-13.7729
 20
-8.1965
 30
0.0
 10
-13.7729
 20
-8.1965
 30
0.0
 10
-13.8576
 20
-8.1213
 30
0.0
 10
-13.9724
 20
-8.0836
 30
0.0
 10
-14.1172
 20
-8.0836
 30
0.0
 10
-14.1172
 20
-8.0836
 30
0.0
 10
-14.2569
 20
-8.0836
 30
0.0
 10
-14.367
 20
-8.1208
 30
0.0
 10
-14.4474
 20
-8.1951
 30
0.0
 10
-14.4474
 20
-8.1951
 30
0.0
 10
-14.5279
 20
-8.2694
 30
0.0
 10
-14.5679
 20
-8.363
 30
0.0
 10
-14.5679
 20
-8.4759
 30
0.0
 10
-14.5679
 20
-8.4759
 30
0.0
 10
-14.5679
 20
-8.5883
 30
0.0
 10
-14.5279
 20
-8.6834
 30
0.0
 10
-14.4474
 20
-8.7614
 30
0.0
 10
-14.4474
 20
-8.7614
 30
0.0
 10
-14.367
 20
-8.8395
 30
0.0
 10
-14.2616
 20
-8.8786
 30
0.0
 10
-14.1314
 20
-8.8786
 30
0.0
  0
SPLINE
  5
5D
330
1F
100
AcDbEntity
  8
DEFAULT_1
 62
   250
100
AcDbSpline
210
0.0
220
0.0
230
1.0
 70
    11
 71
     3
 72
    92
 73
    88
 74
     0
 42
0.0000000001
 43
0.0000000001
 40
0.0
 40
0.0
 40
0.0
 40
0.0
 40
0.0434782608695652
 40
0.0434782608695652
 40
0.0434782608695652
 40
0.0434782608695652
 40
0.0869565217391304
 40
0.0869565217391304
 40
0.0869565217391304
 40
0.0869565217391304
 40
0.1304347826086956
 40
0.1304347826086956
 40
0.1304347826086956
 40
0.1304347826086956
 40
0.1739130434782609
 40
0.1739130434782609
 40
0.1739130434782609
 40
0.1739130434782609
 40
0.2173913043478261
 40
0.2173913043478261
 40
0.2173913043478261
 40
0.2173913043478261
 40
0.2608695652173913
 40
0.2608695652173913
 40
0.2608695652173913
 40
0.2608695652173913
 40
0.3043478260869565
 40
0.3043478260869565
 40
0.3043478260869565
 40
0.3043478260869565
 40
0.3478260869565217
 40
0.3478260869565217
 40
0.3478260869565217
 40
0.3478260869565217
 40
0.391304347826087
 40
0.391304347826087
 40
0.391304347826087
 40
0.391304347826087
 40
0.4347826086956522
 40
0.4347826086956522
 40
0.4347826086956522
 40
0.4347826086956522
 40
0.4782608695652174
 40
0.4782608695652174
 40
0.4782608695652174
 40
0.4782608695652174
 40
0.5217391304347826
 40
0.5217391304347826
 40
0.5217391304347826
 40
0.5217391304347826
 40
0.5652173913043478
 40
0.5652173913043478
 40
0.5652173913043478
 40
0.5652173913043478
 40
0.6086956521739131
 40
0.6086956521739131
 40
0.6086956521739131
 40
0.6086956521739131
 40
0.6521739130434783
 40
0.6521739130434783
 40
0.6521739130434783
 40
0.6521739130434783
 40
0.6956521739130435
 40
0.6956521739130435
 40
0.6956521739130435
 40
0.6956521739130435
 40
0.7391304347826086
 40
0.7391304347826086
 40
0.7391304347826086
 40
0.7391304347826086
 40
0.782608695652174
 40
0.782608695652174
 40
0.782608695652174
 40
0.782608695652174
 40
0.8260869565217391
 40
0.8260869565217391
 40
0.8260869565217391
 40
0.8260869565217391
 40
0.8695652173913043
 40
0.8695652173913043
 40
0.8695652173913043
 40
0.8695652173913043
 40
0.9130434782608695
 40
0.9130434782608695
 40
0.9130434782608695
 40
0.9130434782608695
 40
1.0
 40
1.0
 40
1.0
 40
1.0
 10
-13.9437
 20
-7.546
 30
0.0
 10
-13.9437
 20
-7.546
 30
0.0
 10
-13.9658
 20
-7.3075
 30
0.0
 10
-13.9658
 20
-7.3075
 30
0.0
 10
-13.9658
 20
-7.3075
 30
0.0
 10
-13.8538
 20
-7.2873
 30
0.0
 10
-13.7725
 20
-7.2487
 30
0.0
 10
-13.7217
 20
-7.1918
 30
0.0
 10
-13.7217
 20
-7.1918
 30
0.0
 10
-13.6713
 20
-7.1349
 30
0.0
 10
-13.6459
 20
-7.062
 30
0.0
 10
-13.6459
 20
-6.9726
 30
0.0
 10
-13.6459
 20
-6.9726
 30
0.0
 10
-13.6459
 20
-6.8964
 30
0.0
 10
-13.6633
 20
-6.8297
 30
0.0
 10
-13.6986
 20
-6.7723
 30
0.0
 10
-13.6986
 20
-6.7723
 30
0.0
 10
-13.7334
 20
-6.7149
 30
0.0
 10
-13.78
 20
-6.6678
 30
0.0
 10
-13.8383
 20
-6.6312
 30
0.0
 10
-13.8383
 20
-6.6312
 30
0.0
 10
-13.8966
 20
-6.594
 30
0.0
 10
-13.9757
 20
-6.5634
 30
0.0
 10
-14.0744
 20
-6.5385
 30
0.0
 10
-14.0744
 20
-6.5385
 30
0.0
 10
-14.1737
 20
-6.514
 30
0.0
 10
-14.2748
 20
-6.5013
 30
0.0
 10
-14.3778
 20
-6.5013
 30
0.0
 10
-14.3778
 20
-6.5013
 30
0.0
 10
-14.3886
 20
-6.5013
 30
0.0
 10
-14.4056
 20
-6.5018
 30
0.0
 10
-14.4272
 20
-6.5027
 30
0.0
 10
-14.4272
 20
-6.5027
 30
0.0
 10
-14.3487
 20
-6.5526
 30
0.0
 10
-14.2842
 20
-6.6203
 30
0.0
 10
-14.2353
 20
-6.7059
 30
0.0
 10
-14.2353
 20
-6.7059
 30
0.0
 10
-14.1859
 20
-6.792
 30
0.0
 10
-14.1615
 20
-6.8852
 30
0.0
 10
-14.1615
 20
-6.9849
 30
0.0
 10
-14.1615
 20
-6.9849
 30
0.0
 10
-14.1615
 20
-7.1523
 30
0.0
 10
-14.2221
 20
-7.2939
 30
0.0
 10
-14.3435
 20
-7.4096
 30
0.0
 10
-14.3435
 20
-7.4096
 30
0.0
 10
-14.4648
 20
-7.5253
 30
0.0
 10
-14.6243
 20
-7.5832
 30
0.0
 10
-14.8228
 20
-7.5832
 30
0.0
 10
-14.8228
 20
-7.5832
 30
0.0
 10
-15.0279
 20
-7.5832
 30
0.0
 10
-15.1925
 20
-7.523
 30
0.0
 10
-15.3176
 20
-7.4021
 30
0.0
 10
-15.3176
 20
-7.4021
 30
0.0
 10
-15.4427
 20
-7.2812
 30
0.0
 10
-15.5053
 20
-7.1297
 30
0.0
 10
-15.5053
 20
-6.9477
 30
0.0
 10
-15.5053
 20
-6.9477
 30
0.0
 10
-15.5053
 20
-6.8165
 30
0.0
 10
-15.4695
 20
-6.6965
 30
0.0
 10
-15.399
 20
-6.5874
 30
0.0
 10
-15.399
 20
-6.5874
 30
0.0
 10
-15.3284
 20
-6.4788
 30
0.0
 10
-15.2273
 20
-6.396
 30
0.0
 10
-15.0965
 20
-6.3395
 30
0.0
 10
-15.0965
 20
-6.3395
 30
0.0
 10
-14.9658
 20
-6.2831
 30
0.0
 10
-14.7762
 20
-6.2549
 30
0.0
 10
-14.5279
 20
-6.2549
 30
0.0
 10
-14.5279
 20
-6.2549
 30
0.0
 10
-14.2701
 20
-6.2549
 30
0.0
 10
-14.0646
 20
-6.2826
 30
0.0
 10
-13.9112
 20
-6.3386
 30
0.0
 10
-13.9112
 20
-6.3386
 30
0.0
 10
-13.7583
 20
-6.395
 30
0.0
 10
-13.6422
 20
-6.4783
 30
0.0
 10
-13.5622
 20
-6.5888
 30
0.0
 10
-13.5622
 20
-6.5888
 30
0.0
 10
-13.4822
 20
-6.6998
 30
0.0
 10
-13.4423
 20
-6.8292
 30
0.0
 10
-13.4423
 20
-6.9783
 30
0.0
 10
-13.4423
 20
-6.9783
 30
0.0
 10
-13.4423
 20
-7.1363
 30
0.0
 10
-13.486
 20
-7.2652
 30
0.0
 10
-13.574
 20
-7.3654
 30
0.0
 10
-13.574
 20
-7.3654
 30
0.0
 10
-13.6615
 20
-7.4656
 30
0.0
 10
-13.7847
 20
-7.5258
 30
0.0
 10
-13.9437
 20
-7.546
 30
0.0
  0
SPLINE
  5
5E
330
1F
100
AcDbEntity
  8
DEFAULT_1
 62
   250
100
AcDbSpline
210
0.0
220
0.0
230
1.0
 70
    11
 71
     3
 72
    36
 73
    32
 74
     0
 42
0.0000000001
 43
0.0000000001
 40
0.0
 40
0.0
 40
0.0
 40
0.0
 40
0.1111111111111111
 40
0.1111111111111111
 40
0.1111111111111111
 40
0.1111111111111111
 40
0.2222222222222222
 40
0.2222222222222222
 40
0.2222222222222222
 40
0.2222222222222222
 40
0.3333333333333333
 40
0.3333333333333333
 40
0.3333333333333333
 40
0.3333333333333333
 40
0.4444444444444444
 40
0.4444444444444444
 40
0.4444444444444444
 40
0.4444444444444444
 40
0.5555555555555556
 40
0.5555555555555556
 40
0.5555555555555556
 40
0.5555555555555556
 40
0.6666666666666666
 40
0.6666666666666666
 40
0.6666666666666666
 40
0.6666666666666666
 40
0.7777777777777778
 40
0.7777777777777778
 40
0.7777777777777778
 40
0.7777777777777778
 40
1.0
 40
1.0
 40
1.0
 40
1.0
 10
-14.8355
 20
-6.5305
 30
0.0
 10
-14.9775
 20
-6.5305
 30
0.0
 10
-15.0909
 20
-6.5681
 30
0.0
 10
-15.1742
 20
-6.6439
 30
0.0
 10
-15.1742
 20
-6.6439
 30
0.0
 10
-15.2579
 20
-6.7201
 30
0.0
 10
-15.2997
 20
-6.8108
 30
0.0
 10
-15.2997
 20
-6.9176
 30
0.0
 10
-15.2997
 20
-6.9176
 30
0.0
 10
-15.2997
 20
-7.0277
 30
0.0
 10
-15.2546
 20
-7.1236
 30
0.0
 10
-15.1647
 20
-7.2055
 30
0.0
 10
-15.1647
 20
-7.2055
 30
0.0
 10
-15.0744
 20
-7.2873
 30
0.0
 10
-14.9578
 20
-7.3282
 30
0.0
 10
-14.8148
 20
-7.3282
 30
0.0
 10
-14.8148
 20
-7.3282
 30
0.0
 10
-14.6859
 20
-7.3282
 30
0.0
 10
-14.5815
 20
-7.2892
 30
0.0
 10
-14.5011
 20
-7.2116
 30
0.0
 10
-14.5011
 20
-7.2116
 30
0.0
 10
-14.4206
 20
-7.134
 30
0.0
 10
-14.3806
 20
-7.0385
 30
0.0
 10
-14.3806
 20
-6.9247
 30
0.0
 10
-14.3806
 20
-6.9247
 30
0.0
 10
-14.3806
 20
-6.8094
 30
0.0
 10
-14.4206
 20
-6.7154
 30
0.0
 10
-14.5011
 20
-6.6415
 30
0.0
 10
-14.5011
 20
-6.6415
 30
0.0
 10
-14.5815
 20
-6.5672
 30
0.0
 10
-14.693
 20
-6.5305
 30
0.0
 10
-14.8355
 20
-6.5305
 30
0.0
  0
SPLINE
  5
5F
330
1F
100
AcDbEntity
  8
DEFAULT_1
 62
   250
100
AcDbSpline
210
0.0
220
0.0
230
1.0
 70
    11
 71
     3
 72
    20
 73
    16
 74
     0
 42
0.0000000001
 43
0.0000000001
 40
0.0
 40
0.0
 40
0.0
 40
0.0
 40
0.2
 40
0.2
 40
0.2
 40
0.2
 40
0.4
 40
0.4
 40
0.4
 40
0.4
 40
0.6
 40
0.6
 40
0.6
 40
0.6
 40
1.0
 40
1.0
 40
1.0
 40
1.0
 10
9.7678
 20
-30.8412
 30
0.0
 10
9.7678
 20
-30.8412
 30
0.0
 10
12.8928
 20
-31.2823
 30
0.0
 10
12.8928
 20
-31.2823
 30
0.0
 10
12.8928
 20
-31.2823
 30
0.0
 10
12.8928
 20
-31.2823
 30
0.0
 10
12.8928
 20
-31.3802
 30
0.0
 10
12.8928
 20
-31.3802
 30
0.0
 10
12.8928
 20
-31.3802
 30
0.0
 10
12.8928
 20
-31.3802
 30
0.0
 10
9.7678
 20
-31.8506
 30
0.0
 10
9.7678
 20
-31.8506
 30
0.0
 10
9.7678
 20
-31.8506
 30
0.0
 10
9.7678
 20
-31.8506
 30
0.0
 10
9.7678
 20
-30.8412
 30
0.0
 10
9.7678
 20
-30.8412
 30
0.0
  0
SPLINE
  5
60
330
1F
100
AcDbEntity
  8
DEFAULT_1
 62
   250
100
AcDbSpline
210
0.0
220
0.0
230
1.0
 70
    11
 71
     3
 72
    20
 73
    16
 74
     0
 42
0.0000000001
 43
0.0000000001
 40
0.0
 40
0.0
 40
0.0
 40
0.0
 40
0.2
 40
0.2
 40
0.2
 40
0.2
 40
0.4
 40
0.4
 40
0.4
 40
0.4
 40
0.6
 40
0.6
 40
0.6
 40
0.6
 40
1.0
 40
1.0
 40
1.0
 40
1.0
 10
-0.8215
 20
-31.8505
 30
0.0
 10
-0.8215
 20
-31.8505
 30
0.0
 10
-3.9465
 20
-31.4095
 30
0.0
 10
-3.9465
 20
-31.4095
 30
0.0
 10
-3.9465
 20
-31.4095
 30
0.0
 10
-3.9465
 20
-31.4095
 30
0.0
 10
-3.9465
 20
-31.3116
 30
0.0
 10
-3.9465
 20
-31.3116
 30
0.0
 10
-3.9465
 20
-31.3116
 30
0.0
 10
-3.9465
 20
-31.3116
 30
0.0
 10
-0.8215
 20
-30.8412
 30
0.0
 10
-0.8215
 20
-30.8412
 30
0.0
 10
-0.8215
 20
-30.8412
 30
0.0
 10
-0.8215
 20
-30.8412
 30
0.0
 10
-0.8215
 20
-31.8505
 30
0.0
 10
-0.8215
 20
-31.8505
 30
0.0
  0
SPLINE
  5
61
330
1F
100
AcDbEntity
  8
DEFAULT_1
 62
   250
100
AcDbSpline
210
0.0
220
0.0
230
1.0
 70
    11
 71
     3
 72
   120
 73
   116
 74
     0
 42
0.0000000001
 43
0.0000000001
 40
0.0
 40
0.0
 40
0.0
 40
0.0
 40
0.0333333333333333
 40
0.0333333333333333
 40
0.0333333333333333
 40
0.0333333333333333
 40
0.0666666666666667
 40
0.0666666666666667
 40
0.0666666666666667
 40
0.0666666666666667
 40
0.1
 40
0.1
 40
0.1
 40
0.1
 40
0.1333333333333333
 40
0.1333333333333333
 40
0.1333333333333333
 40
0.1333333333333333
 40
0.1666666666666667
 40
0.1666666666666667
 40
0.1666666666666667
 40
0.1666666666666667
 40
0.2
 40
0.2
 40
0.2
 40
0.2
 40
0.2333333333333333
 40
0.2333333333333333
 40
0.2333333333333333
 40
0.2333333333333333
 40
0.2666666666666667
 40
0.2666666666666667
 40
0.2666666666666667
 40
0.2666666666666667
 40
0.3
 40
0.3
 40
0.3
 40
0.3
 40
0.3333333333333333
 40
0.3333333333333333
 40
0.3333333333333333
 40
0.3333333333333333
 40
0.3666666666666666
 40
0.3666666666666666
 40
0.3666666666666666
 40
0.3666666666666666
 40
0.4
 40
0.4
 40
0.4
 40
0.4
 40
0.4333333333333333
 40
0.4333333333333333
 40
0.4333333333333333
 40
0.4333333333333333
 40
0.4666666666666667
 40
0.4666666666666667
 40
0.4666666666666667
 40
0.4666666666666667
 40
0.5
 40
0.5
 40
0.5
 40
0.5
 40
0.5333333333333333
 40
0.5333333333333333
 40
0.5333333333333333
 40
0.5333333333333333
 40
0.5666666666666667
 40
0.5666666666666667
 40
0.5666666666666667
 40
0.5666666666666667
 40
0.6
 40
0.6
 40
0.6
 40
0.6
 40
0.6333333333333333
 40
0.6333333333333333
 40
0.6333333333333333
 40
0.6333333333333333
 40
0.6666666666666666
 40
0.6666666666666666
 40
0.6666666666666666
 40
0.6666666666666666
 40
0.7
 40
0.7
 40
0.7
 40
0.7
 40
0.7333333333333333
 40
0.7333333333333333
 40
0.7333333333333333
 40
0.7333333333333333
 40
0.7666666666666667
 40
0.7666666666666667
 40
0.7666666666666667
 40
0.7666666666666667
 40
0.8
 40
0.8
 40
0.8
 40
0.8
 40
0.8333333333333334
 40
0.8333333333333334
 40
0.8333333333333334
 40
0.8333333333333334
 40
0.8666666666666667
 40
0.8666666666666667
 40
0.8666666666666667
 40
0.8666666666666667
 40
0.9
 40
0.9
 40
0.9
 40
0.9
 40
0.9333333333333333
 40
0.9333333333333333
 40
0.9333333333333333
 40
0.9333333333333333
 40
1.0
 40
1.0
 40
1.0
 40
1.0
 10
2.2716
 20
-24.9726
 30
0.0
 10
2.2716
 20
-24.9726
 30
0.0
 10
2.2716
 20
-24.736
 30
0.0
 10
2.2716
 20
-24.736
 30
0.0
 10
2.2716
 20
-24.736
 30
0.0
 10
2.2716
 20
-24.736
 30
0.0
 10
3.1272
 20
-24.7346
 30
0.0
 10
3.1272
 20
-24.7346
 30
0.0
 10
3.1272
 20
-24.7346
 30
0.0
 10
3.1272
 20
-24.7346
 30
0.0
 10
3.1272
 20
-25.4839
 30
0.0
 10
3.1272
 20
-25.4839
 30
0.0
 10
3.1272
 20
-25.4839
 30
0.0
 10
2.996
 20
-25.5888
 30
0.0
 10
2.8605
 20
-25.6674
 30
0.0
 10
2.7208
 20
-25.7205
 30
0.0
 10
2.7208
 20
-25.7205
 30
0.0
 10
2.5811
 20
-25.7732
 30
0.0
 10
2.4377
 20
-25.7995
 30
0.0
 10
2.2909
 20
-25.7995
 30
0.0
 10
2.2909
 20
-25.7995
 30
0.0
 10
2.0924
 20
-25.7995
 30
0.0
 10
1.9118
 20
-25.7572
 30
0.0
 10
1.75
 20
-25.6721
 30
0.0
 10
1.75
 20
-25.6721
 30
0.0
 10
1.5877
 20
-25.5874
 30
0.0
 10
1.4654
 20
-25.4642
 30
0.0
 10
1.3826
 20
-25.3038
 30
0.0
 10
1.3826
 20
-25.3038
 30
0.0
 10
1.2998
 20
-25.1429
 30
0.0
 10
1.2584
 20
-24.9632
 30
0.0
 10
1.2584
 20
-24.7647
 30
0.0
 10
1.2584
 20
-24.7647
 30
0.0
 10
1.2584
 20
-24.5681
 30
0.0
 10
1.2998
 20
-24.3847
 30
0.0
 10
1.3822
 20
-24.2144
 30
0.0
 10
1.3822
 20
-24.2144
 30
0.0
 10
1.464
 20
-24.0437
 30
0.0
 10
1.5825
 20
-23.9171
 30
0.0
 10
1.7368
 20
-23.8343
 30
0.0
 10
1.7368
 20
-23.8343
 30
0.0
 10
1.8911
 20
-23.752
 30
0.0
 10
2.0689
 20
-23.7106
 30
0.0
 10
2.2702
 20
-23.7106
 30
0.0
 10
2.2702
 20
-23.7106
 30
0.0
 10
2.416
 20
-23.7106
 30
0.0
 10
2.5482
 20
-23.7342
 30
0.0
 10
2.6663
 20
-23.7817
 30
0.0
 10
2.6663
 20
-23.7817
 30
0.0
 10
2.7843
 20
-23.8287
 30
0.0
 10
2.877
 20
-23.8946
 30
0.0
 10
2.9438
 20
-23.9792
 30
0.0
 10
2.9438
 20
-23.9792
 30
0.0
 10
3.011
 20
-24.0639
 30
0.0
 10
3.0618
 20
-24.1739
 30
0.0
 10
3.0971
 20
-24.3099
 30
0.0
 10
3.0971
 20
-24.3099
 30
0.0
 10
3.0971
 20
-24.3099
 30
0.0
 10
2.8558
 20
-24.3762
 30
0.0
 10
2.8558
 20
-24.3762
 30
0.0
 10
2.8558
 20
-24.3762
 30
0.0
 10
2.8252
 20
-24.2732
 30
0.0
 10
2.7876
 20
-24.1923
 30
0.0
 10
2.7429
 20
-24.1335
 30
0.0
 10
2.7429
 20
-24.1335
 30
0.0
 10
2.6978
 20
-24.0747
 30
0.0
 10
2.6333
 20
-24.0277
 30
0.0
 10
2.5496
 20
-23.9924
 30
0.0
 10
2.5496
 20
-23.9924
 30
0.0
 10
2.4663
 20
-23.9571
 30
0.0
 10
2.3732
 20
-23.9392
 30
0.0
 10
2.2716
 20
-23.9392
 30
0.0
 10
2.2716
 20
-23.9392
 30
0.0
 10
2.1493
 20
-23.9392
 30
0.0
 10
2.0435
 20
-23.9581
 30
0.0
 10
1.9546
 20
-23.9952
 30
0.0
 10
1.9546
 20
-23.9952
 30
0.0
 10
1.8652
 20
-24.0324
 30
0.0
 10
1.7937
 20
-24.0813
 30
0.0
 10
1.7387
 20
-24.142
 30
0.0
 10
1.7387
 20
-24.142
 30
0.0
 10
1.6841
 20
-24.2026
 30
0.0
 10
1.6418
 20
-24.269
 30
0.0
 10
1.6112
 20
-24.3419
 30
0.0
 10
1.6112
 20
-24.3419
 30
0.0
 10
1.56
 20
-24.4665
 30
0.0
 10
1.5341
 20
-24.602
 30
0.0
 10
1.5341
 20
-24.7483
 30
0.0
 10
1.5341
 20
-24.7483
 30
0.0
 10
1.5341
 20
-24.9284
 30
0.0
 10
1.5651
 20
-25.0789
 30
0.0
 10
1.6272
 20
-25.2003
 30
0.0
 10
1.6272
 20
-25.2003
 30
0.0
 10
1.6893
 20
-25.3216
 30
0.0
 10
1.7796
 20
-25.4115
 30
0.0
 10
1.8981
 20
-25.4703
 30
0.0
 10
1.8981
 20
-25.4703
 30
0.0
 10
2.0167
 20
-25.5291
 30
0.0
 10
2.1423
 20
-25.5587
 30
0.0
 10
2.2754
 20
-25.5587
 30
0.0
 10
2.2754
 20
-25.5587
 30
0.0
 10
2.3916
 20
-25.5587
 30
0.0
 10
2.5044
 20
-25.5361
 30
0.0
 10
2.6145
 20
-25.4914
 30
0.0
 10
2.6145
 20
-25.4914
 30
0.0
 10
2.7251
 20
-25.4472
 30
0.0
 10
2.8083
 20
-25.3997
 30
0.0
 10
2.8652
 20
-25.3489
 30
0.0
 10
2.8652
 20
-25.3489
 30
0.0
 10
2.8652
 20
-25.3489
 30
0.0
 10
2.8652
 20
-24.9726
 30
0.0
 10
2.8652
 20
-24.9726
 30
0.0
 10
2.8652
 20
-24.9726
 30
0.0
 10
2.8652
 20
-24.9726
 30
0.0
 10
2.2716
 20
-24.9726
 30
0.0
 10
2.2716
 20
-24.9726
 30
0.0
  0
SPLINE
  5
62
330
1F
100
AcDbEntity
  8
DEFAULT_1
 62
   250
100
AcDbSpline
210
0.0
220
0.0
230
1.0
 70
    11
 71
     3
 72
    92
 73
    88
 74
     0
 42
0.0000000001
 43
0.0000000001
 40
0.0
 40
0.0
 40
0.0
 40
0.0
 40
0.0434782608695652
 40
0.0434782608695652
 40
0.0434782608695652
 40
0.0434782608695652
 40
0.0869565217391304
 40
0.0869565217391304
 40
0.0869565217391304
 40
0.0869565217391304
 40
0.1304347826086956
 40
0.1304347826086956
 40
0.1304347826086956
 40
0.1304347826086956
 40
0.1739130434782609
 40
0.1739130434782609
 40
0.1739130434782609
 40
0.1739130434782609
 40
0.2173913043478261
 40
0.2173913043478261
 40
0.2173913043478261
 40
0.2173913043478261
 40
0.2608695652173913
 40
0.2608695652173913
 40
0.2608695652173913
 40
0.2608695652173913
 40
0.3043478260869565
 40
0.3043478260869565
 40
0.3043478260869565
 40
0.3043478260869565
 40
0.3478260869565217
 40
0.3478260869565217
 40
0.3478260869565217
 40
0.3478260869565217
 40
0.391304347826087
 40
0.391304347826087
 40
0.391304347826087
 40
0.391304347826087
 40
0.4347826086956522
 40
0.4347826086956522
 40
0.4347826086956522
 40
0.4347826086956522
 40
0.4782608695652174
 40
0.4782608695652174
 40
0.4782608695652174
 40
0.4782608695652174
 40
0.5217391304347826
 40
0.5217391304347826
 40
0.5217391304347826
 40
0.5217391304347826
 40
0.5652173913043478
 40
0.5652173913043478
 40
0.5652173913043478
 40
0.5652173913043478
 40
0.6086956521739131
 40
0.6086956521739131
 40
0.6086956521739131
 40
0.6086956521739131
 40
0.6521739130434783
 40
0.6521739130434783
 40
0.6521739130434783
 40
0.6521739130434783
 40
0.6956521739130435
 40
0.6956521739130435
 40
0.6956521739130435
 40
0.6956521739130435
 40
0.7391304347826086
 40
0.7391304347826086
 40
0.7391304347826086
 40
0.7391304347826086
 40
0.782608695652174
 40
0.782608695652174
 40
0.782608695652174
 40
0.782608695652174
 40
0.8260869565217391
 40
0.8260869565217391
 40
0.8260869565217391
 40
0.8260869565217391
 40
0.8695652173913043
 40
0.8695652173913043
 40
0.8695652173913043
 40
0.8695652173913043
 40
0.9130434782608695
 40
0.9130434782608695
 40
0.9130434782608695
 40
0.9130434782608695
 40
1.0
 40
1.0
 40
1.0
 40
1.0
 10
4.2048
 20
-25.236
 30
0.0
 10
4.2048
 20
-25.236
 30
0.0
 10
4.4654
 20
-25.2139
 30
0.0
 10
4.4654
 20
-25.2139
 30
0.0
 10
4.4654
 20
-25.2139
 30
0.0
 10
4.4847
 20
-25.3409
 30
0.0
 10
4.5294
 20
-25.4359
 30
0.0
 10
4.5995
 20
-25.4999
 30
0.0
 10
4.5995
 20
-25.4999
 30
0.0
 10
4.67
 20
-25.5639
 30
0.0
 10
4.7547
 20
-25.5959
 30
0.0
 10
4.8539
 20
-25.5959
 30
0.0
 10
4.8539
 20
-25.5959
 30
0.0
 10
4.9734
 20
-25.5959
 30
0.0
 10
5.0745
 20
-25.5507
 30
0.0
 10
5.1568
 20
-25.4609
 30
0.0
 10
5.1568
 20
-25.4609
 30
0.0
 10
5.2396
 20
-25.3706
 30
0.0
 10
5.281
 20
-25.2511
 30
0.0
 10
5.281
 20
-25.1025
 30
0.0
 10
5.281
 20
-25.1025
 30
0.0
 10
5.281
 20
-24.9609
 30
0.0
 10
5.2415
 20
-24.8494
 30
0.0
 10
5.162
 20
-24.7676
 30
0.0
 10
5.162
 20
-24.7676
 30
0.0
 10
5.0825
 20
-24.6857
 30
0.0
 10
4.9786
 20
-24.6448
 30
0.0
 10
4.8497
 20
-24.6448
 30
0.0
 10
4.8497
 20
-24.6448
 30
0.0
 10
4.7697
 20
-24.6448
 30
0.0
 10
4.6978
 20
-24.6631
 30
0.0
 10
4.6333
 20
-24.6993
 30
0.0
 10
4.6333
 20
-24.6993
 30
0.0
 10
4.5689
 20
-24.7356
 30
0.0
 10
4.5186
 20
-24.7826
 30
0.0
 10
4.4819
 20
-24.8405
 30
0.0
 10
4.4819
 20
-24.8405
 30
0.0
 10
4.4819
 20
-24.8405
 30
0.0
 10
4.249
 20
-24.8104
 30
0.0
 10
4.249
 20
-24.8104
 30
0.0
 10
4.249
 20
-24.8104
 30
0.0
 10
4.249
 20
-24.8104
 30
0.0
 10
4.4447
 20
-23.7727
 30
0.0
 10
4.4447
 20
-23.7727
 30
0.0
 10
4.4447
 20
-23.7727
 30
0.0
 10
4.4447
 20
-23.7727
 30
0.0
 10
5.4494
 20
-23.7727
 30
0.0
 10
5.4494
 20
-23.7727
 30
0.0
 10
5.4494
 20
-23.7727
 30
0.0
 10
5.4494
 20
-23.7727
 30
0.0
 10
5.4494
 20
-24.0098
 30
0.0
 10
5.4494
 20
-24.0098
 30
0.0
 10
5.4494
 20
-24.0098
 30
0.0
 10
5.4494
 20
-24.0098
 30
0.0
 10
4.6432
 20
-24.0098
 30
0.0
 10
4.6432
 20
-24.0098
 30
0.0
 10
4.6432
 20
-24.0098
 30
0.0
 10
4.6432
 20
-24.0098
 30
0.0
 10
4.5341
 20
-24.5526
 30
0.0
 10
4.5341
 20
-24.5526
 30
0.0
 10
4.5341
 20
-24.5526
 30
0.0
 10
4.6554
 20
-24.4679
 30
0.0
 10
4.7829
 20
-24.4256
 30
0.0
 10
4.916
 20
-24.4256
 30
0.0
 10
4.916
 20
-24.4256
 30
0.0
 10
5.0924
 20
-24.4256
 30
0.0
 10
5.241
 20
-24.4867
 30
0.0
 10
5.3624
 20
-24.609
 30
0.0
 10
5.3624
 20
-24.609
 30
0.0
 10
5.4837
 20
-24.7313
 30
0.0
 10
5.5444
 20
-24.8884
 30
0.0
 10
5.5444
 20
-25.0803
 30
0.0
 10
5.5444
 20
-25.0803
 30
0.0
 10
5.5444
 20
-25.2633
 30
0.0
 10
5.4908
 20
-25.4214
 30
0.0
 10
5.3845
 20
-25.5545
 30
0.0
 10
5.3845
 20
-25.5545
 30
0.0
 10
5.2547
 20
-25.7177
 30
0.0
 10
5.0778
 20
-25.7995
 30
0.0
 10
4.8539
 20
-25.7995
 30
0.0
 10
4.8539
 20
-25.7995
 30
0.0
 10
4.67
 20
-25.7995
 30
0.0
 10
4.52
 20
-25.7483
 30
0.0
 10
4.4038
 20
-25.6453
 30
0.0
 10
4.4038
 20
-25.6453
 30
0.0
 10
4.2876
 20
-25.5422
 30
0.0
 10
4.2213
 20
-25.4058
 30
0.0
 10
4.2048
 20
-25.236
 30
0.0
  0
SPLINE
  5
63
330
1F
100
AcDbEntity
  8
DEFAULT_1
 62
   250
100
AcDbSpline
210
0.0
220
0.0
230
1.0
 70
    11
 71
     3
 72
    20
 73
    16
 74
     0
 42
0.0000000001
 43
0.0000000001
 40
0.0
 40
0.0
 40
0.0
 40
0.0
 40
0.2
 40
0.2
 40
0.2
 40
0.2
 40
0.4
 40
0.4
 40
0.4
 40
0.4
 40
0.6
 40
0.6
 40
0.6
 40
0.6
 40
1.0
 40
1.0
 40
1.0
 40
1.0
 10
5.6573
 20
-25.7995
 30
0.0
 10
5.6573
 20
-25.7995
 30
0.0
 10
6.2429
 20
-23.7106
 30
0.0
 10
6.2429
 20
-23.7106
 30
0.0
 10
6.2429
 20
-23.7106
 30
0.0
 10
6.2429
 20
-23.7106
 30
0.0
 10
6.4414
 20
-23.7106
 30
0.0
 10
6.4414
 20
-23.7106
 30
0.0
 10
6.4414
 20
-23.7106
 30
0.0
 10
6.4414
 20
-23.7106
 30
0.0
 10
5.8572
 20
-25.7995
 30
0.0
 10
5.8572
 20
-25.7995
 30
0.0
 10
5.8572
 20
-25.7995
 30
0.0
 10
5.8572
 20
-25.7995
 30
0.0
 10
5.6573
 20
-25.7995
 30
0.0
 10
5.6573
 20
-25.7995
 30
0.0
  0
SPLINE
  5
64
330
1F
100
AcDbEntity
  8
DEFAULT_1
 62
   250
100
AcDbSpline
210
0.0
220
0.0
230
1.0
 70
    11
 71
     3
 72
    48
 73
    44
 74
     0
 42
0.0000000001
 43
0.0000000001
 40
0.0
 40
0.0
 40
0.0
 40
0.0
 40
0.0833333333333333
 40
0.0833333333333333
 40
0.0833333333333333
 40
0.0833333333333333
 40
0.1666666666666667
 40
0.1666666666666667
 40
0.1666666666666667
 40
0.1666666666666667
 40
0.25
 40
0.25
 40
0.25
 40
0.25
 40
0.3333333333333333
 40
0.3333333333333333
 40
0.3333333333333333
 40
0.3333333333333333
 40
0.4166666666666667
 40
0.4166666666666667
 40
0.4166666666666667
 40
0.4166666666666667
 40
0.5
 40
0.5
 40
0.5
 40
0.5
 40
0.5833333333333334
 40
0.5833333333333334
 40
0.5833333333333334
 40
0.5833333333333334
 40
0.6666666666666666
 40
0.6666666666666666
 40
0.6666666666666666
 40
0.6666666666666666
 40
0.75
 40
0.75
 40
0.75
 40
0.75
 40
0.8333333333333334
 40
0.8333333333333334
 40
0.8333333333333334
 40
0.8333333333333334
 40
1.0
 40
1.0
 40
1.0
 40
1.0
 10
7.3534
 20
-25.7652
 30
0.0
 10
7.3534
 20
-25.7652
 30
0.0
 10
7.3534
 20
-25.2817
 30
0.0
 10
7.3534
 20
-25.2817
 30
0.0
 10
7.3534
 20
-25.2817
 30
0.0
 10
7.3534
 20
-25.2817
 30
0.0
 10
6.4771
 20
-25.2817
 30
0.0
 10
6.4771
 20
-25.2817
 30
0.0
 10
6.4771
 20
-25.2817
 30
0.0
 10
6.4771
 20
-25.2817
 30
0.0
 10
6.4771
 20
-25.054
 30
0.0
 10
6.4771
 20
-25.054
 30
0.0
 10
6.4771
 20
-25.054
 30
0.0
 10
6.4771
 20
-25.054
 30
0.0
 10
7.3991
 20
-23.745
 30
0.0
 10
7.3991
 20
-23.745
 30
0.0
 10
7.3991
 20
-23.745
 30
0.0
 10
7.3991
 20
-23.745
 30
0.0
 10
7.6018
 20
-23.745
 30
0.0
 10
7.6018
 20
-23.745
 30
0.0
 10
7.6018
 20
-23.745
 30
0.0
 10
7.6018
 20
-23.745
 30
0.0
 10
7.6018
 20
-25.054
 30
0.0
 10
7.6018
 20
-25.054
 30
0.0
 10
7.6018
 20
-25.054
 30
0.0
 10
7.6018
 20
-25.054
 30
0.0
 10
7.8746
 20
-25.054
 30
0.0
 10
7.8746
 20
-25.054
 30
0.0
 10
7.8746
 20
-25.054
 30
0.0
 10
7.8746
 20
-25.054
 30
0.0
 10
7.8746
 20
-25.2817
 30
0.0
 10
7.8746
 20
-25.2817
 30
0.0
 10
7.8746
 20
-25.2817
 30
0.0
 10
7.8746
 20
-25.2817
 30
0.0
 10
7.6018
 20
-25.2817
 30
0.0
 10
7.6018
 20
-25.2817
 30
0.0
 10
7.6018
 20
-25.2817
 30
0.0
 10
7.6018
 20
-25.2817
 30
0.0
 10
7.6018
 20
-25.7652
 30
0.0
 10
7.6018
 20
-25.7652
 30
0.0
 10
7.6018
 20
-25.7652
 30
0.0
 10
7.6018
 20
-25.7652
 30
0.0
 10
7.3534
 20
-25.7652
 30
0.0
 10
7.3534
 20
-25.7652
 30
0.0
  0
SPLINE
  5
65
330
1F
100
AcDbEntity
  8
DEFAULT_1
 62
   250
100
AcDbSpline
210
0.0
220
0.0
230
1.0
 70
    11
 71
     3
 72
    16
 73
    12
 74
     0
 42
0.0000000001
 43
0.0000000001
 40
0.0
 40
0.0
 40
0.0
 40
0.0
 40
0.25
 40
0.25
 40
0.25
 40
0.25
 40
0.5
 40
0.5
 40
0.5
 40
0.5
 40
1.0
 40
1.0
 40
1.0
 40
1.0
 10
7.3534
 20
-25.054
 30
0.0
 10
7.3534
 20
-25.054
 30
0.0
 10
7.3534
 20
-24.1434
 30
0.0
 10
7.3534
 20
-24.1434
 30
0.0
 10
7.3534
 20
-24.1434
 30
0.0
 10
7.3534
 20
-24.1434
 30
0.0
 10
6.7213
 20
-25.054
 30
0.0
 10
6.7213
 20
-25.054
 30
0.0
 10
6.7213
 20
-25.054
 30
0.0
 10
6.7213
 20
-25.054
 30
0.0
 10
7.3534
 20
-25.054
 30
0.0
 10
7.3534
 20
-25.054
 30
0.0
  0
SPLINE
  5
66
330
1F
100
AcDbEntity
  8
DEFAULT_1
 62
   250
100
AcDbSpline
210
0.0
220
0.0
230
1.0
 70
    11
 71
     3
 72
    28
 73
    24
 74
     0
 42
0.0000000001
 43
0.0000000001
 40
0.0
 40
0.0
 40
0.0
 40
0.0
 40
0.1428571428571428
 40
0.1428571428571428
 40
0.1428571428571428
 40
0.1428571428571428
 40
0.2857142857142857
 40
0.2857142857142857
 40
0.2857142857142857
 40
0.2857142857142857
 40
0.4285714285714285
 40
0.4285714285714285
 40
0.4285714285714285
 40
0.4285714285714285
 40
0.5714285714285714
 40
0.5714285714285714
 40
0.5714285714285714
 40
0.5714285714285714
 40
0.7142857142857143
 40
0.7142857142857143
 40
0.7142857142857143
 40
0.7142857142857143
 40
1.0
 40
1.0
 40
1.0
 40
1.0
 10
8.2095
 20
-24.4604
 30
0.0
 10
8.2095
 20
-24.4604
 30
0.0
 10
8.1404
 20
-24.0756
 30
0.0
 10
8.1404
 20
-24.0756
 30
0.0
 10
8.1404
 20
-24.0756
 30
0.0
 10
8.1404
 20
-24.0756
 30
0.0
 10
8.1404
 20
-23.745
 30
0.0
 10
8.1404
 20
-23.745
 30
0.0
 10
8.1404
 20
-23.745
 30
0.0
 10
8.1404
 20
-23.745
 30
0.0
 10
8.423
 20
-23.745
 30
0.0
 10
8.423
 20
-23.745
 30
0.0
 10
8.423
 20
-23.745
 30
0.0
 10
8.423
 20
-23.745
 30
0.0
 10
8.423
 20
-24.0756
 30
0.0
 10
8.423
 20
-24.0756
 30
0.0
 10
8.423
 20
-24.0756
 30
0.0
 10
8.423
 20
-24.0756
 30
0.0
 10
8.361
 20
-24.4604
 30
0.0
 10
8.361
 20
-24.4604
 30
0.0
 10
8.361
 20
-24.4604
 30
0.0
 10
8.361
 20
-24.4604
 30
0.0
 10
8.2095
 20
-24.4604
 30
0.0
 10
8.2095
 20
-24.4604
 30
0.0
  0
SPLINE
  5
67
330
1F
100
AcDbEntity
  8
DEFAULT_1
 62
   250
100
AcDbSpline
210
0.0
220
0.0
230
1.0
 70
    11
 71
     3
 72
    28
 73
    24
 74
     0
 42
0.0000000001
 43
0.0000000001
 40
0.0
 40
0.0
 40
0.0
 40
0.0
 40
0.1428571428571428
 40
0.1428571428571428
 40
0.1428571428571428
 40
0.1428571428571428
 40
0.2857142857142857
 40
0.2857142857142857
 40
0.2857142857142857
 40
0.2857142857142857
 40
0.4285714285714285
 40
0.4285714285714285
 40
0.4285714285714285
 40
0.4285714285714285
 40
0.5714285714285714
 40
0.5714285714285714
 40
0.5714285714285714
 40
0.5714285714285714
 40
0.7142857142857143
 40
0.7142857142857143
 40
0.7142857142857143
 40
0.7142857142857143
 40
1.0
 40
1.0
 40
1.0
 40
1.0
 10
8.6658
 20
-24.4604
 30
0.0
 10
8.6658
 20
-24.4604
 30
0.0
 10
8.598
 20
-24.0756
 30
0.0
 10
8.598
 20
-24.0756
 30
0.0
 10
8.598
 20
-24.0756
 30
0.0
 10
8.598
 20
-24.0756
 30
0.0
 10
8.598
 20
-23.745
 30
0.0
 10
8.598
 20
-23.745
 30
0.0
 10
8.598
 20
-23.745
 30
0.0
 10
8.598
 20
-23.745
 30
0.0
 10
8.8807
 20
-23.745
 30
0.0
 10
8.8807
 20
-23.745
 30
0.0
 10
8.8807
 20
-23.745
 30
0.0
 10
8.8807
 20
-23.745
 30
0.0
 10
8.8807
 20
-24.0756
 30
0.0
 10
8.8807
 20
-24.0756
 30
0.0
 10
8.8807
 20
-24.0756
 30
0.0
 10
8.8807
 20
-24.0756
 30
0.0
 10
8.8144
 20
-24.4604
 30
0.0
 10
8.8144
 20
-24.4604
 30
0.0
 10
8.8144
 20
-24.4604
 30
0.0
 10
8.8144
 20
-24.4604
 30
0.0
 10
8.6658
 20
-24.4604
 30
0.0
 10
8.6658
 20
-24.4604
 30
0.0
  0
SPLINE
  5
68
330
1F
100
AcDbEntity
  8
DEFAULT_1
 62
   250
100
AcDbSpline
210
0.0
220
0.0
230
1.0
 70
    11
 71
     3
 72
    84
 73
    80
 74
     0
 42
0.0000000001
 43
0.0000000001
 40
0.0
 40
0.0
 40
0.0
 40
0.0
 40
0.0476190476190476
 40
0.0476190476190476
 40
0.0476190476190476
 40
0.0476190476190476
 40
0.0952380952380952
 40
0.0952380952380952
 40
0.0952380952380952
 40
0.0952380952380952
 40
0.1428571428571428
 40
0.1428571428571428
 40
0.1428571428571428
 40
0.1428571428571428
 40
0.1904761904761905
 40
0.1904761904761905
 40
0.1904761904761905
 40
0.1904761904761905
 40
0.2380952380952381
 40
0.2380952380952381
 40
0.2380952380952381
 40
0.2380952380952381
 40
0.2857142857142857
 40
0.2857142857142857
 40
0.2857142857142857
 40
0.2857142857142857
 40
0.3333333333333333
 40
0.3333333333333333
 40
0.3333333333333333
 40
0.3333333333333333
 40
0.3809523809523809
 40
0.3809523809523809
 40
0.3809523809523809
 40
0.3809523809523809
 40
0.4285714285714285
 40
0.4285714285714285
 40
0.4285714285714285
 40
0.4285714285714285
 40
0.4761904761904762
 40
0.4761904761904762
 40
0.4761904761904762
 40
0.4761904761904762
 40
0.5238095238095238
 40
0.5238095238095238
 40
0.5238095238095238
 40
0.5238095238095238
 40
0.5714285714285714
 40
0.5714285714285714
 40
0.5714285714285714
 40
0.5714285714285714
 40
0.6190476190476191
 40
0.6190476190476191
 40
0.6190476190476191
 40
0.6190476190476191
 40
0.6666666666666666
 40
0.6666666666666666
 40
0.6666666666666666
 40
0.6666666666666666
 40
0.7142857142857143
 40
0.7142857142857143
 40
0.7142857142857143
 40
0.7142857142857143
 40
0.7619047619047619
 40
0.7619047619047619
 40
0.7619047619047619
 40
0.7619047619047619
 40
0.8095238095238095
 40
0.8095238095238095
 40
0.8095238095238095
 40
0.8095238095238095
 40
0.8571428571428571
 40
0.8571428571428571
 40
0.8571428571428571
 40
0.8571428571428571
 40
0.9047619047619048
 40
0.9047619047619048
 40
0.9047619047619048
 40
0.9047619047619048
 40
1.0
 40
1.0
 40
1.0
 40
1.0
 10
3.6461
 20
-28.8907
 30
0.0
 10
3.6461
 20
-28.8907
 30
0.0
 10
3.8775
 20
-28.6316
 30
0.0
 10
3.8775
 20
-28.6316
 30
0.0
 10
3.8775
 20
-28.6316
 30
0.0
 10
3.8775
 20
-28.6316
 30
0.0
 10
4.0139
 20
-28.7473
 30
0.0
 10
4.0139
 20
-28.7473
 30
0.0
 10
4.0139
 20
-28.7473
 30
0.0
 10
4.0139
 20
-28.7473
 30
0.0
 10
3.7717
 20
-29.0201
 30
0.0
 10
3.7717
 20
-29.0201
 30
0.0
 10
3.7717
 20
-29.0201
 30
0.0
 10
3.8507
 20
-29.1377
 30
0.0
 10
3.9038
 20
-29.2407
 30
0.0
 10
3.9316
 20
-29.3286
 30
0.0
 10
3.9316
 20
-29.3286
 30
0.0
 10
3.9683
 20
-29.4444
 30
0.0
 10
3.9866
 20
-29.5742
 30
0.0
 10
3.9866
 20
-29.7172
 30
0.0
 10
3.9866
 20
-29.7172
 30
0.0
 10
3.9866
 20
-29.9241
 30
0.0
 10
3.9448
 20
-30.1085
 30
0.0
 10
3.861
 20
-30.2698
 30
0.0
 10
3.861
 20
-30.2698
 30
0.0
 10
3.7773
 20
-30.4317
 30
0.0
 10
3.6602
 20
-30.5539
 30
0.0
 10
3.5092
 20
-30.6367
 30
0.0
 10
3.5092
 20
-30.6367
 30
0.0
 10
3.3577
 20
-30.719
 30
0.0
 10
3.1974
 20
-30.7604
 30
0.0
 10
3.0276
 20
-30.7604
 30
0.0
 10
3.0276
 20
-30.7604
 30
0.0
 10
2.9006
 20
-30.7604
 30
0.0
 10
2.7858
 20
-30.7426
 30
0.0
 10
2.6828
 20
-30.7068
 30
0.0
 10
2.6828
 20
-30.7068
 30
0.0
 10
2.6038
 20
-30.6791
 30
0.0
 10
2.5116
 20
-30.6264
 30
0.0
 10
2.4057
 20
-30.5483
 30
0.0
 10
2.4057
 20
-30.5483
 30
0.0
 10
2.4057
 20
-30.5483
 30
0.0
 10
2.1743
 20
-30.8075
 30
0.0
 10
2.1743
 20
-30.8075
 30
0.0
 10
2.1743
 20
-30.8075
 30
0.0
 10
2.1743
 20
-30.8075
 30
0.0
 10
2.0379
 20
-30.6918
 30
0.0
 10
2.0379
 20
-30.6918
 30
0.0
 10
2.0379
 20
-30.6918
 30
0.0
 10
2.0379
 20
-30.6918
 30
0.0
 10
2.2806
 20
-30.4204
 30
0.0
 10
2.2806
 20
-30.4204
 30
0.0
 10
2.2806
 20
-30.4204
 30
0.0
 10
2.1903
 20
-30.2835
 30
0.0
 10
2.1301
 20
-30.1664
 30
0.0
 10
2.1
 20
-30.0695
 30
0.0
 10
2.1
 20
-30.0695
 30
0.0
 10
2.0699
 20
-29.9726
 30
0.0
 10
2.0544
 20
-29.8559
 30
0.0
 10
2.0544
 20
-29.72
 30
0.0
 10
2.0544
 20
-29.72
 30
0.0
 10
2.0544
 20
-29.5126
 30
0.0
 10
2.0958
 20
-29.3277
 30
0.0
 10
2.1785
 20
-29.1654
 30
0.0
 10
2.1785
 20
-29.1654
 30
0.0
 10
2.2613
 20
-29.0031
 30
0.0
 10
2.377
 20
-28.8804
 30
0.0
 10
2.5266
 20
-28.7967
 30
0.0
 10
2.5266
 20
-28.7967
 30
0.0
 10
2.6757
 20
-28.7134
 30
0.0
 10
2.8418
 20
-28.6715
 30
0.0
 10
3.0247
 20
-28.6715
 30
0.0
 10
3.0247
 20
-28.6715
 30
0.0
 10
3.148
 20
-28.6715
 30
0.0
 10
3.2557
 20
-28.6875
 30
0.0
 10
3.3479
 20
-28.7205
 30
0.0
 10
3.3479
 20
-28.7205
 30
0.0
 10
3.4401
 20
-28.7529
 30
0.0
 10
3.5398
 20
-28.8098
 30
0.0
 10
3.6461
 20
-28.8907
 30
0.0
  0
SPLINE
  5
69
330
1F
100
AcDbEntity
  8
DEFAULT_1
 62
   250
100
AcDbSpline
210
0.0
220
0.0
230
1.0
 70
    11
 71
     3
 72
    32
 73
    28
 74
     0
 42
0.0000000001
 43
0.0000000001
 40
0.0
 40
0.0
 40
0.0
 40
0.0
 40
0.125
 40
0.125
 40
0.125
 40
0.125
 40
0.25
 40
0.25
 40
0.25
 40
0.25
 40
0.375
 40
0.375
 40
0.375
 40
0.375
 40
0.5
 40
0.5
 40
0.5
 40
0.5
 40
0.625
 40
0.625
 40
0.625
 40
0.625
 40
0.75
 40
0.75
 40
0.75
 40
0.75
 40
1.0
 40
1.0
 40
1.0
 40
1.0
 10
3.481
 20
-29.0765
 30
0.0
 10
3.3944
 20
-29.0088
 30
0.0
 10
3.3187
 20
-28.9622
 30
0.0
 10
3.2543
 20
-28.9373
 30
0.0
 10
3.2543
 20
-28.9373
 30
0.0
 10
3.1894
 20
-28.9128
 30
0.0
 10
3.1132
 20
-28.9001
 30
0.0
 10
3.0261
 20
-28.9001
 30
0.0
 10
3.0261
 20
-28.9001
 30
0.0
 10
2.8248
 20
-28.9001
 30
0.0
 10
2.6588
 20
-28.9683
 30
0.0
 10
2.5271
 20
-29.1047
 30
0.0
 10
2.5271
 20
-29.1047
 30
0.0
 10
2.3958
 20
-29.2412
 30
0.0
 10
2.33
 20
-29.4448
 30
0.0
 10
2.33
 20
-29.7162
 30
0.0
 10
2.33
 20
-29.7162
 30
0.0
 10
2.33
 20
-29.8225
 30
0.0
 10
2.3403
 20
-29.9171
 30
0.0
 10
2.3606
 20
-29.9999
 30
0.0
 10
2.3606
 20
-29.9999
 30
0.0
 10
2.3752
 20
-30.0615
 30
0.0
 10
2.4057
 20
-30.1372
 30
0.0
 10
2.4528
 20
-30.227
 30
0.0
 10
2.4528
 20
-30.227
 30
0.0
 10
2.4528
 20
-30.227
 30
0.0
 10
3.481
 20
-29.0765
 30
0.0
 10
3.481
 20
-29.0765
 30
0.0
  0
SPLINE
  5
6A
330
1F
100
AcDbEntity
  8
DEFAULT_1
 62
   250
100
AcDbSpline
210
0.0
220
0.0
230
1.0
 70
    11
 71
     3
 72
    28
 73
    24
 74
     0
 42
0.0000000001
 43
0.0000000001
 40
0.0
 40
0.0
 40
0.0
 40
0.0
 40
0.1428571428571428
 40
0.1428571428571428
 40
0.1428571428571428
 40
0.1428571428571428
 40
0.2857142857142857
 40
0.2857142857142857
 40
0.2857142857142857
 40
0.2857142857142857
 40
0.4285714285714285
 40
0.4285714285714285
 40
0.4285714285714285
 40
0.4285714285714285
 40
0.5714285714285714
 40
0.5714285714285714
 40
0.5714285714285714
 40
0.5714285714285714
 40
0.7142857142857143
 40
0.7142857142857143
 40
0.7142857142857143
 40
0.7142857142857143
 40
1.0
 40
1.0
 40
1.0
 40
1.0
 10
3.5939
 20
-29.2186
 30
0.0
 10
3.5939
 20
-29.2186
 30
0.0
 10
2.5699
 20
-30.3649
 30
0.0
 10
2.5699
 20
-30.3649
 30
0.0
 10
2.5699
 20
-30.3649
 30
0.0
 10
2.6404
 20
-30.4227
 30
0.0
 10
2.7058
 20
-30.4632
 30
0.0
 10
2.7656
 20
-30.4862
 30
0.0
 10
2.7656
 20
-30.4862
 30
0.0
 10
2.8436
 20
-30.5168
 30
0.0
 10
2.9283
 20
-30.5318
 30
0.0
 10
3.0191
 20
-30.5318
 30
0.0
 10
3.0191
 20
-30.5318
 30
0.0
 10
3.2195
 20
-30.5318
 30
0.0
 10
3.3846
 20
-30.4613
 30
0.0
 10
3.5153
 20
-30.3197
 30
0.0
 10
3.5153
 20
-30.3197
 30
0.0
 10
3.6456
 20
-30.1781
 30
0.0
 10
3.711
 20
-29.9796
 30
0.0
 10
3.711
 20
-29.7242
 30
0.0
 10
3.711
 20
-29.7242
 30
0.0
 10
3.711
 20
-29.5333
 30
0.0
 10
3.672
 20
-29.3644
 30
0.0
 10
3.5939
 20
-29.2186
 30
0.0
  0
SPLINE
  5
6B
330
1F
100
AcDbEntity
  8
DEFAULT_1
 62
   250
100
AcDbSpline
210
0.0
220
0.0
230
1.0
 70
    11
 71
     3
 72
    48
 73
    44
 74
     0
 42
0.0000000001
 43
0.0000000001
 40
0.0
 40
0.0
 40
0.0
 40
0.0
 40
0.0833333333333333
 40
0.0833333333333333
 40
0.0833333333333333
 40
0.0833333333333333
 40
0.1666666666666667
 40
0.1666666666666667
 40
0.1666666666666667
 40
0.1666666666666667
 40
0.25
 40
0.25
 40
0.25
 40
0.25
 40
0.3333333333333333
 40
0.3333333333333333
 40
0.3333333333333333
 40
0.3333333333333333
 40
0.4166666666666667
 40
0.4166666666666667
 40
0.4166666666666667
 40
0.4166666666666667
 40
0.5
 40
0.5
 40
0.5
 40
0.5
 40
0.5833333333333334
 40
0.5833333333333334
 40
0.5833333333333334
 40
0.5833333333333334
 40
0.6666666666666666
 40
0.6666666666666666
 40
0.6666666666666666
 40
0.6666666666666666
 40
0.75
 40
0.75
 40
0.75
 40
0.75
 40
0.8333333333333334
 40
0.8333333333333334
 40
0.8333333333333334
 40
0.8333333333333334
 40
1.0
 40
1.0
 40
1.0
 40
1.0
 10
5.0308
 20
-30.7261
 30
0.0
 10
5.0308
 20
-30.7261
 30
0.0
 10
5.0308
 20
-30.2426
 30
0.0
 10
5.0308
 20
-30.2426
 30
0.0
 10
5.0308
 20
-30.2426
 30
0.0
 10
5.0308
 20
-30.2426
 30
0.0
 10
4.1545
 20
-30.2426
 30
0.0
 10
4.1545
 20
-30.2426
 30
0.0
 10
4.1545
 20
-30.2426
 30
0.0
 10
4.1545
 20
-30.2426
 30
0.0
 10
4.1545
 20
-30.0149
 30
0.0
 10
4.1545
 20
-30.0149
 30
0.0
 10
4.1545
 20
-30.0149
 30
0.0
 10
4.1545
 20
-30.0149
 30
0.0
 10
5.0765
 20
-28.7059
 30
0.0
 10
5.0765
 20
-28.7059
 30
0.0
 10
5.0765
 20
-28.7059
 30
0.0
 10
5.0765
 20
-28.7059
 30
0.0
 10
5.2792
 20
-28.7059
 30
0.0
 10
5.2792
 20
-28.7059
 30
0.0
 10
5.2792
 20
-28.7059
 30
0.0
 10
5.2792
 20
-28.7059
 30
0.0
 10
5.2792
 20
-30.0149
 30
0.0
 10
5.2792
 20
-30.0149
 30
0.0
 10
5.2792
 20
-30.0149
 30
0.0
 10
5.2792
 20
-30.0149
 30
0.0
 10
5.552
 20
-30.0149
 30
0.0
 10
5.552
 20
-30.0149
 30
0.0
 10
5.552
 20
-30.0149
 30
0.0
 10
5.552
 20
-30.0149
 30
0.0
 10
5.552
 20
-30.2426
 30
0.0
 10
5.552
 20
-30.2426
 30
0.0
 10
5.552
 20
-30.2426
 30
0.0
 10
5.552
 20
-30.2426
 30
0.0
 10
5.2792
 20
-30.2426
 30
0.0
 10
5.2792
 20
-30.2426
 30
0.0
 10
5.2792
 20
-30.2426
 30
0.0
 10
5.2792
 20
-30.2426
 30
0.0
 10
5.2792
 20
-30.7261
 30
0.0
 10
5.2792
 20
-30.7261
 30
0.0
 10
5.2792
 20
-30.7261
 30
0.0
 10
5.2792
 20
-30.7261
 30
0.0
 10
5.0308
 20
-30.7261
 30
0.0
 10
5.0308
 20
-30.7261
 30
0.0
  0
SPLINE
  5
6C
330
1F
100
AcDbEntity
  8
DEFAULT_1
 62
   250
100
AcDbSpline
210
0.0
220
0.0
230
1.0
 70
    11
 71
     3
 72
    16
 73
    12
 74
     0
 42
0.0000000001
 43
0.0000000001
 40
0.0
 40
0.0
 40
0.0
 40
0.0
 40
0.25
 40
0.25
 40
0.25
 40
0.25
 40
0.5
 40
0.5
 40
0.5
 40
0.5
 40
1.0
 40
1.0
 40
1.0
 40
1.0
 10
5.0308
 20
-30.0149
 30
0.0
 10
5.0308
 20
-30.0149
 30
0.0
 10
5.0308
 20
-29.1043
 30
0.0
 10
5.0308
 20
-29.1043
 30
0.0
 10
5.0308
 20
-29.1043
 30
0.0
 10
5.0308
 20
-29.1043
 30
0.0
 10
4.3987
 20
-30.0149
 30
0.0
 10
4.3987
 20
-30.0149
 30
0.0
 10
4.3987
 20
-30.0149
 30
0.0
 10
4.3987
 20
-30.0149
 30
0.0
 10
5.0308
 20
-30.0149
 30
0.0
 10
5.0308
 20
-30.0149
 30
0.0
  0
SPLINE
  5
6D
330
1F
100
AcDbEntity
  8
DEFAULT_1
 62
   250
100
AcDbSpline
210
0.0
220
0.0
230
1.0
 70
    11
 71
     3
 72
   124
 73
   120
 74
     0
 42
0.0000000001
 43
0.0000000001
 40
0.0
 40
0.0
 40
0.0
 40
0.0
 40
0.032258064516129
 40
0.032258064516129
 40
0.032258064516129
 40
0.032258064516129
 40
0.0645161290322581
 40
0.0645161290322581
 40
0.0645161290322581
 40
0.0645161290322581
 40
0.0967741935483871
 40
0.0967741935483871
 40
0.0967741935483871
 40
0.0967741935483871
 40
0.1290322580645161
 40
0.1290322580645161
 40
0.1290322580645161
 40
0.1290322580645161
 40
0.1612903225806452
 40
0.1612903225806452
 40
0.1612903225806452
 40
0.1612903225806452
 40
0.1935483870967742
 40
0.1935483870967742
 40
0.1935483870967742
 40
0.1935483870967742
 40
0.2258064516129032
 40
0.2258064516129032
 40
0.2258064516129032
 40
0.2258064516129032
 40
0.2580645161290323
 40
0.2580645161290323
 40
0.2580645161290323
 40
0.2580645161290323
 40
0.2903225806451613
 40
0.2903225806451613
 40
0.2903225806451613
 40
0.2903225806451613
 40
0.3225806451612903
 40
0.3225806451612903
 40
0.3225806451612903
 40
0.3225806451612903
 40
0.3548387096774194
 40
0.3548387096774194
 40
0.3548387096774194
 40
0.3548387096774194
 40
0.3870967741935484
 40
0.3870967741935484
 40
0.3870967741935484
 40
0.3870967741935484
 40
0.4193548387096774
 40
0.4193548387096774
 40
0.4193548387096774
 40
0.4193548387096774
 40
0.4516129032258064
 40
0.4516129032258064
 40
0.4516129032258064
 40
0.4516129032258064
 40
0.4838709677419355
 40
0.4838709677419355
 40
0.4838709677419355
 40
0.4838709677419355
 40
0.5161290322580645
 40
0.5161290322580645
 40
0.5161290322580645
 40
0.5161290322580645
 40
0.5483870967741935
 40
0.5483870967741935
 40
0.5483870967741935
 40
0.5483870967741935
 40
0.5806451612903226
 40
0.5806451612903226
 40
0.5806451612903226
 40
0.5806451612903226
 40
0.6129032258064516
 40
0.6129032258064516
 40
0.6129032258064516
 40
0.6129032258064516
 40
0.6451612903225806
 40
0.6451612903225806
 40
0.6451612903225806
 40
0.6451612903225806
 40
0.6774193548387096
 40
0.6774193548387096
 40
0.6774193548387096
 40
0.6774193548387096
 40
0.7096774193548387
 40
0.7096774193548387
 40
0.7096774193548387
 40
0.7096774193548387
 40
0.7419354838709677
 40
0.7419354838709677
 40
0.7419354838709677
 40
0.7419354838709677
 40
0.7741935483870968
 40
0.7741935483870968
 40
0.7741935483870968
 40
0.7741935483870968
 40
0.8064516129032258
 40
0.8064516129032258
 40
0.8064516129032258
 40
0.8064516129032258
 40
0.8387096774193549
 40
0.8387096774193549
 40
0.8387096774193549
 40
0.8387096774193549
 40
0.8709677419354839
 40
0.8709677419354839
 40
0.8709677419354839
 40
0.8709677419354839
 40
0.9032258064516129
 40
0.9032258064516129
 40
0.9032258064516129
 40
0.9032258064516129
 40
0.9354838709677419
 40
0.9354838709677419
 40
0.9354838709677419
 40
0.9354838709677419
 40
1.0
 40
1.0
 40
1.0
 40
1.0
 10
5.8069
 20
-30.1927
 30
0.0
 10
5.8069
 20
-30.1927
 30
0.0
 10
6.0548
 20
-30.1598
 30
0.0
 10
6.0548
 20
-30.1598
 30
0.0
 10
6.0548
 20
-30.1598
 30
0.0
 10
6.0835
 20
-30.3004
 30
0.0
 10
6.132
 20
-30.4015
 30
0.0
 10
6.2002
 20
-30.4636
 30
0.0
 10
6.2002
 20
-30.4636
 30
0.0
 10
6.2688
 20
-30.5257
 30
0.0
 10
6.3521
 20
-30.5568
 30
0.0
 10
6.4504
 20
-30.5568
 30
0.0
 10
6.4504
 20
-30.5568
 30
0.0
 10
6.567
 20
-30.5568
 30
0.0
 10
6.6658
 20
-30.5163
 30
0.0
 10
6.7463
 20
-30.4354
 30
0.0
 10
6.7463
 20
-30.4354
 30
0.0
 10
6.8262
 20
-30.3545
 30
0.0
 10
6.8667
 20
-30.2543
 30
0.0
 10
6.8667
 20
-30.1348
 30
0.0
 10
6.8667
 20
-30.1348
 30
0.0
 10
6.8667
 20
-30.021
 30
0.0
 10
6.8295
 20
-29.9269
 30
0.0
 10
6.7552
 20
-29.8531
 30
0.0
 10
6.7552
 20
-29.8531
 30
0.0
 10
6.6804
 20
-29.7793
 30
0.0
 10
6.5859
 20
-29.7421
 30
0.0
 10
6.4711
 20
-29.7421
 30
0.0
 10
6.4711
 20
-29.7421
 30
0.0
 10
6.4241
 20
-29.7421
 30
0.0
 10
6.3657
 20
-29.7515
 30
0.0
 10
6.2961
 20
-29.7698
 30
0.0
 10
6.2961
 20
-29.7698
 30
0.0
 10
6.2961
 20
-29.7698
 30
0.0
 10
6.3239
 20
-29.5521
 30
0.0
 10
6.3239
 20
-29.5521
 30
0.0
 10
6.3239
 20
-29.5521
 30
0.0
 10
6.3403
 20
-29.5539
 30
0.0
 10
6.3535
 20
-29.5549
 30
0.0
 10
6.3638
 20
-29.5549
 30
0.0
 10
6.3638
 20
-29.5549
 30
0.0
 10
6.4692
 20
-29.5549
 30
0.0
 10
6.5642
 20
-29.5271
 30
0.0
 10
6.6489
 20
-29.4721
 30
0.0
 10
6.6489
 20
-29.4721
 30
0.0
 10
6.7336
 20
-29.4171
 30
0.0
 10
6.7759
 20
-29.3319
 30
0.0
 10
6.7759
 20
-29.2172
 30
0.0
 10
6.7759
 20
-29.2172
 30
0.0
 10
6.7759
 20
-29.1264
 30
0.0
 10
6.7448
 20
-29.0507
 30
0.0
 10
6.6832
 20
-28.9914
 30
0.0
 10
6.6832
 20
-28.9914
 30
0.0
 10
6.6216
 20
-28.9317
 30
0.0
 10
6.5421
 20
-28.9015
 30
0.0
 10
6.4447
 20
-28.9015
 30
0.0
 10
6.4447
 20
-28.9015
 30
0.0
 10
6.3483
 20
-28.9015
 30
0.0
 10
6.2679
 20
-28.9321
 30
0.0
 10
6.2039
 20
-28.9923
 30
0.0
 10
6.2039
 20
-28.9923
 30
0.0
 10
6.1395
 20
-29.053
 30
0.0
 10
6.0981
 20
-29.1443
 30
0.0
 10
6.0797
 20
-29.2656
 30
0.0
 10
6.0797
 20
-29.2656
 30
0.0
 10
6.0797
 20
-29.2656
 30
0.0
 10
5.8319
 20
-29.2214
 30
0.0
 10
5.8319
 20
-29.2214
 30
0.0
 10
5.8319
 20
-29.2214
 30
0.0
 10
5.862
 20
-29.0549
 30
0.0
 10
5.9311
 20
-28.926
 30
0.0
 10
6.0384
 20
-28.8348
 30
0.0
 10
6.0384
 20
-28.8348
 30
0.0
 10
6.1461
 20
-28.7435
 30
0.0
 10
6.2797
 20
-28.6974
 30
0.0
 10
6.4396
 20
-28.6974
 30
0.0
 10
6.4396
 20
-28.6974
 30
0.0
 10
6.5496
 20
-28.6974
 30
0.0
 10
6.6512
 20
-28.7214
 30
0.0
 10
6.7439
 20
-28.7684
 30
0.0
 10
6.7439
 20
-28.7684
 30
0.0
 10
6.8366
 20
-28.8159
 30
0.0
 10
6.9076
 20
-28.8804
 30
0.0
 10
6.957
 20
-28.9622
 30
0.0
 10
6.957
 20
-28.9622
 30
0.0
 10
7.0059
 20
-29.0441
 30
0.0
 10
7.0308
 20
-29.1306
 30
0.0
 10
7.0308
 20
-29.2228
 30
0.0
 10
7.0308
 20
-29.2228
 30
0.0
 10
7.0308
 20
-29.3098
 30
0.0
 10
7.0073
 20
-29.3893
 30
0.0
 10
6.9603
 20
-29.4613
 30
0.0
 10
6.9603
 20
-29.4613
 30
0.0
 10
6.9132
 20
-29.5328
 30
0.0
 10
6.8441
 20
-29.5897
 30
0.0
 10
6.7524
 20
-29.632
 30
0.0
 10
6.7524
 20
-29.632
 30
0.0
 10
6.8718
 20
-29.6593
 30
0.0
 10
6.9645
 20
-29.7167
 30
0.0
 10
7.0308
 20
-29.8037
 30
0.0
 10
7.0308
 20
-29.8037
 30
0.0
 10
7.0967
 20
-29.8903
 30
0.0
 10
7.1296
 20
-29.9989
 30
0.0
 10
7.1296
 20
-30.1292
 30
0.0
 10
7.1296
 20
-30.1292
 30
0.0
 10
7.1296
 20
-30.3056
 30
0.0
 10
7.0656
 20
-30.4552
 30
0.0
 10
6.9368
 20
-30.5779
 30
0.0
 10
6.9368
 20
-30.5779
 30
0.0
 10
6.8083
 20
-30.7007
 30
0.0
 10
6.6456
 20
-30.7618
 30
0.0
 10
6.449
 20
-30.7618
 30
0.0
 10
6.449
 20
-30.7618
 30
0.0
 10
6.2717
 20
-30.7618
 30
0.0
 10
6.1244
 20
-30.7092
 30
0.0
 10
6.0073
 20
-30.6033
 30
0.0
 10
6.0073
 20
-30.6033
 30
0.0
 10
5.8902
 20
-30.498
 30
0.0
 10
5.8234
 20
-30.3611
 30
0.0
 10
5.8069
 20
-30.1927
 30
0.0
  0
SPLINE
  5
6E
330
1F
100
AcDbEntity
  8
DEFAULT_1
 62
   250
100
AcDbSpline
210
0.0
220
0.0
230
1.0
 70
    11
 71
     3
 72
    20
 73
    16
 74
     0
 42
0.0000000001
 43
0.0000000001
 40
0.0
 40
0.0
 40
0.0
 40
0.0
 40
0.2
 40
0.2
 40
0.2
 40
0.2
 40
0.4
 40
0.4
 40
0.4
 40
0.4
 40
0.6
 40
0.6
 40
0.6
 40
0.6
 40
1.0
 40
1.0
 40
1.0
 40
1.0
 10
8.9069
 20
-25.947
 30
0.0
 10
8.9069
 20
-25.947
 30
0.0
 10
12.0319
 20
-26.388
 30
0.0
 10
12.0319
 20
-26.388
 30
0.0
 10
12.0319
 20
-26.388
 30
0.0
 10
12.0319
 20
-26.388
 30
0.0
 10
12.0319
 20
-26.486
 30
0.0
 10
12.0319
 20
-26.486
 30
0.0
 10
12.0319
 20
-26.486
 30
0.0
 10
12.0319
 20
-26.486
 30
0.0
 10
8.9069
 20
-26.9563
 30
0.0
 10
8.9069
 20
-26.9563
 30
0.0
 10
8.9069
 20
-26.9563
 30
0.0
 10
8.9069
 20
-26.9563
 30
0.0
 10
8.9069
 20
-25.947
 30
0.0
 10
8.9069
 20
-25.947
 30
0.0
  0
SPLINE
  5
6F
330
1F
100
AcDbEntity
  8
DEFAULT_1
 62
   250
100
AcDbSpline
210
0.0
220
0.0
230
1.0
 70
    11
 71
     3
 72
    20
 73
    16
 74
     0
 42
0.0000000001
 43
0.0000000001
 40
0.0
 40
0.0
 40
0.0
 40
0.0
 40
0.2
 40
0.2
 40
0.2
 40
0.2
 40
0.4
 40
0.4
 40
0.4
 40
0.4
 40
0.6
 40
0.6
 40
0.6
 40
0.6
 40
1.0
 40
1.0
 40
1.0
 40
1.0
 10
0.066
 20
-26.9342
 30
0.0
 10
0.066
 20
-26.9342
 30
0.0
 10
-3.0591
 20
-26.4932
 30
0.0
 10
-3.0591
 20
-26.4932
 30
0.0
 10
-3.0591
 20
-26.4932
 30
0.0
 10
-3.0591
 20
-26.4932
 30
0.0
 10
-3.0591
 20
-26.3952
 30
0.0
 10
-3.0591
 20
-26.3952
 30
0.0
 10
-3.0591
 20
-26.3952
 30
0.0
 10
-3.0591
 20
-26.3952
 30
0.0
 10
0.066
 20
-25.9249
 30
0.0
 10
0.066
 20
-25.9249
 30
0.0
 10
0.066
 20
-25.9249
 30
0.0
 10
0.066
 20
-25.9249
 30
0.0
 10
0.066
 20
-26.9342
 30
0.0
 10
0.066
 20
-26.9342
 30
0.0
  0
SPLINE
  5
70
330
1F
100
AcDbEntity
  8
DEFAULT_1
 62
   250
100
AcDbSpline
210
0.0
220
0.0
230
1.0
 70
    11
 71
     3
 72
    40
 73
    36
 74
     0
 42
0.0000000001
 43
0.0000000001
 40
0.0
 40
0.0
 40
0.0
 40
0.0
 40
0.1
 40
0.1
 40
0.1
 40
0.1
 40
0.2
 40
0.2
 40
0.2
 40
0.2
 40
0.3
 40
0.3
 40
0.3
 40
0.3
 40
0.4
 40
0.4
 40
0.4
 40
0.4
 40
0.5
 40
0.5
 40
0.5
 40
0.5
 40
0.6
 40
0.6
 40
0.6
 40
0.6
 40
0.7
 40
0.7
 40
0.7
 40
0.7
 40
0.8
 40
0.8
 40
0.8
 40
0.8
 40
1.0
 40
1.0
 40
1.0
 40
1.0
 10
-8.1094
 20
-19.4286
 30
0.0
 10
-8.1094
 20
-19.4286
 30
0.0
 10
-8.1094
 20
-19.6765
 30
0.0
 10
-8.1094
 20
-19.6765
 30
0.0
 10
-8.1094
 20
-19.6765
 30
0.0
 10
-8.1094
 20
-19.6765
 30
0.0
 10
-9.6898
 20
-19.6765
 30
0.0
 10
-9.6898
 20
-19.6765
 30
0.0
 10
-9.6898
 20
-19.6765
 30
0.0
 10
-9.6329
 20
-19.7363
 30
0.0
 10
-9.576
 20
-19.8143
 30
0.0
 10
-9.5191
 20
-19.9112
 30
0.0
 10
-9.5191
 20
-19.9112
 30
0.0
 10
-9.4622
 20
-20.0086
 30
0.0
 10
-9.4194
 20
-20.0956
 30
0.0
 10
-9.3911
 20
-20.1728
 30
0.0
 10
-9.3911
 20
-20.1728
 30
0.0
 10
-9.3911
 20
-20.1728
 30
0.0
 10
-9.6306
 20
-20.1728
 30
0.0
 10
-9.6306
 20
-20.1728
 30
0.0
 10
-9.6306
 20
-20.1728
 30
0.0
 10
-9.6959
 20
-20.034
 30
0.0
 10
-9.775
 20
-19.9126
 30
0.0
 10
-9.8676
 20
-19.8087
 30
0.0
 10
-9.8676
 20
-19.8087
 30
0.0
 10
-9.9608
 20
-19.7052
 30
0.0
 10
-10.0506
 20
-19.6314
 30
0.0
 10
-10.1381
 20
-19.5881
 30
0.0
 10
-10.1381
 20
-19.5881
 30
0.0
 10
-10.1381
 20
-19.5881
 30
0.0
 10
-10.1381
 20
-19.4286
 30
0.0
 10
-10.1381
 20
-19.4286
 30
0.0
 10
-10.1381
 20
-19.4286
 30
0.0
 10
-10.1381
 20
-19.4286
 30
0.0
 10
-8.1094
 20
-19.4286
 30
0.0
 10
-8.1094
 20
-19.4286
 30
0.0
  0
SPLINE
  5
71
330
1F
100
AcDbEntity
  8
DEFAULT_1
 62
   250
100
AcDbSpline
210
0.0
220
0.0
230
1.0
 70
    11
 71
     3
 72
    40
 73
    36
 74
     0
 42
0.0000000001
 43
0.0000000001
 40
0.0
 40
0.0
 40
0.0
 40
0.0
 40
0.1
 40
0.1
 40
0.1
 40
0.1
 40
0.2
 40
0.2
 40
0.2
 40
0.2
 40
0.3
 40
0.3
 40
0.3
 40
0.3
 40
0.4
 40
0.4
 40
0.4
 40
0.4
 40
0.5
 40
0.5
 40
0.5
 40
0.5
 40
0.6
 40
0.6
 40
0.6
 40
0.6
 40
0.7
 40
0.7
 40
0.7
 40
0.7
 40
0.8
 40
0.8
 40
0.8
 40
0.8
 40
1.0
 40
1.0
 40
1.0
 40
1.0
 10
-8.1094
 20
-18.0683
 30
0.0
 10
-8.1094
 20
-18.0683
 30
0.0
 10
-8.1094
 20
-18.3162
 30
0.0
 10
-8.1094
 20
-18.3162
 30
0.0
 10
-8.1094
 20
-18.3162
 30
0.0
 10
-8.1094
 20
-18.3162
 30
0.0
 10
-9.6898
 20
-18.3162
 30
0.0
 10
-9.6898
 20
-18.3162
 30
0.0
 10
-9.6898
 20
-18.3162
 30
0.0
 10
-9.6329
 20
-18.376
 30
0.0
 10
-9.576
 20
-18.454
 30
0.0
 10
-9.5191
 20
-18.5509
 30
0.0
 10
-9.5191
 20
-18.5509
 30
0.0
 10
-9.4622
 20
-18.6483
 30
0.0
 10
-9.4194
 20
-18.7353
 30
0.0
 10
-9.3911
 20
-18.8125
 30
0.0
 10
-9.3911
 20
-18.8125
 30
0.0
 10
-9.3911
 20
-18.8125
 30
0.0
 10
-9.6306
 20
-18.8125
 30
0.0
 10
-9.6306
 20
-18.8125
 30
0.0
 10
-9.6306
 20
-18.8125
 30
0.0
 10
-9.6959
 20
-18.6737
 30
0.0
 10
-9.775
 20
-18.5523
 30
0.0
 10
-9.8676
 20
-18.4484
 30
0.0
 10
-9.8676
 20
-18.4484
 30
0.0
 10
-9.9608
 20
-18.3449
 30
0.0
 10
-10.0506
 20
-18.2711
 30
0.0
 10
-10.1381
 20
-18.2278
 30
0.0
 10
-10.1381
 20
-18.2278
 30
0.0
 10
-10.1381
 20
-18.2278
 30
0.0
 10
-10.1381
 20
-18.0683
 30
0.0
 10
-10.1381
 20
-18.0683
 30
0.0
 10
-10.1381
 20
-18.0683
 30
0.0
 10
-10.1381
 20
-18.0683
 30
0.0
 10
-8.1094
 20
-18.0683
 30
0.0
 10
-8.1094
 20
-18.0683
 30
0.0
  0
SPLINE
  5
72
330
1F
100
AcDbEntity
  8
DEFAULT_1
 62
   250
100
AcDbSpline
210
0.0
220
0.0
230
1.0
 70
    11
 71
     3
 72
   116
 73
   112
 74
     0
 42
0.0000000001
 43
0.0000000001
 40
0.0
 40
0.0
 40
0.0
 40
0.0
 40
0.0344827586206897
 40
0.0344827586206897
 40
0.0344827586206897
 40
0.0344827586206897
 40
0.0689655172413793
 40
0.0689655172413793
 40
0.0689655172413793
 40
0.0689655172413793
 40
0.103448275862069
 40
0.103448275862069
 40
0.103448275862069
 40
0.103448275862069
 40
0.1379310344827586
 40
0.1379310344827586
 40
0.1379310344827586
 40
0.1379310344827586
 40
0.1724137931034483
 40
0.1724137931034483
 40
0.1724137931034483
 40
0.1724137931034483
 40
0.2068965517241379
 40
0.2068965517241379
 40
0.2068965517241379
 40
0.2068965517241379
 40
0.2413793103448276
 40
0.2413793103448276
 40
0.2413793103448276
 40
0.2413793103448276
 40
0.2758620689655172
 40
0.2758620689655172
 40
0.2758620689655172
 40
0.2758620689655172
 40
0.3103448275862069
 40
0.3103448275862069
 40
0.3103448275862069
 40
0.3103448275862069
 40
0.3448275862068966
 40
0.3448275862068966
 40
0.3448275862068966
 40
0.3448275862068966
 40
0.3793103448275862
 40
0.3793103448275862
 40
0.3793103448275862
 40
0.3793103448275862
 40
0.4137931034482759
 40
0.4137931034482759
 40
0.4137931034482759
 40
0.4137931034482759
 40
0.4482758620689655
 40
0.4482758620689655
 40
0.4482758620689655
 40
0.4482758620689655
 40
0.4827586206896552
 40
0.4827586206896552
 40
0.4827586206896552
 40
0.4827586206896552
 40
0.5172413793103449
 40
0.5172413793103449
 40
0.5172413793103449
 40
0.5172413793103449
 40
0.5517241379310345
 40
0.5517241379310345
 40
0.5517241379310345
 40
0.5517241379310345
 40
0.5862068965517241
 40
0.5862068965517241
 40
0.5862068965517241
 40
0.5862068965517241
 40
0.6206896551724138
 40
0.6206896551724138
 40
0.6206896551724138
 40
0.6206896551724138
 40
0.6551724137931034
 40
0.6551724137931034
 40
0.6551724137931034
 40
0.6551724137931034
 40
0.6896551724137931
 40
0.6896551724137931
 40
0.6896551724137931
 40
0.6896551724137931
 40
0.7241379310344828
 40
0.7241379310344828
 40
0.7241379310344828
 40
0.7241379310344828
 40
0.7586206896551724
 40
0.7586206896551724
 40
0.7586206896551724
 40
0.7586206896551724
 40
0.7931034482758621
 40
0.7931034482758621
 40
0.7931034482758621
 40
0.7931034482758621
 40
0.8275862068965517
 40
0.8275862068965517
 40
0.8275862068965517
 40
0.8275862068965517
 40
0.8620689655172413
 40
0.8620689655172413
 40
0.8620689655172413
 40
0.8620689655172413
 40
0.896551724137931
 40
0.896551724137931
 40
0.896551724137931
 40
0.896551724137931
 40
0.9310344827586207
 40
0.9310344827586207
 40
0.9310344827586207
 40
0.9310344827586207
 40
1.0
 40
1.0
 40
1.0
 40
1.0
 10
-14.0975
 20
6.1456
 30
0.0
 10
-14.0975
 20
6.1456
 30
0.0
 10
-15.5608
 20
6.1456
 30
0.0
 10
-15.5608
 20
6.1456
 30
0.0
 10
-15.5608
 20
6.1456
 30
0.0
 10
-15.5608
 20
6.1456
 30
0.0
 10
-15.5608
 20
6.3671
 30
0.0
 10
-15.5608
 20
6.3671
 30
0.0
 10
-15.5608
 20
6.3671
 30
0.0
 10
-15.5608
 20
6.3671
 30
0.0
 10
-15.3557
 20
6.3671
 30
0.0
 10
-15.3557
 20
6.3671
 30
0.0
 10
-15.3557
 20
6.3671
 30
0.0
 10
-15.4272
 20
6.4132
 30
0.0
 10
-15.4851
 20
6.4744
 30
0.0
 10
-15.5284
 20
6.5506
 30
0.0
 10
-15.5284
 20
6.5506
 30
0.0
 10
-15.5721
 20
6.6268
 30
0.0
 10
-15.5942
 20
6.7138
 30
0.0
 10
-15.5942
 20
6.8111
 30
0.0
 10
-15.5942
 20
6.8111
 30
0.0
 10
-15.5942
 20
6.9193
 30
0.0
 10
-15.5716
 20
7.0082
 30
0.0
 10
-15.5265
 20
7.0774
 30
0.0
 10
-15.5265
 20
7.0774
 30
0.0
 10
-15.4813
 20
7.147
 30
0.0
 10
-15.4188
 20
7.1959
 30
0.0
 10
-15.3379
 20
7.2241
 30
0.0
 10
-15.3379
 20
7.2241
 30
0.0
 10
-15.5086
 20
7.3403
 30
0.0
 10
-15.5942
 20
7.4908
 30
0.0
 10
-15.5942
 20
7.6761
 30
0.0
 10
-15.5942
 20
7.6761
 30
0.0
 10
-15.5942
 20
7.8215
 30
0.0
 10
-15.5538
 20
7.933
 30
0.0
 10
-15.4733
 20
8.011
 30
0.0
 10
-15.4733
 20
8.011
 30
0.0
 10
-15.3929
 20
8.0891
 30
0.0
 10
-15.2692
 20
8.1282
 30
0.0
 10
-15.1022
 20
8.1282
 30
0.0
 10
-15.1022
 20
8.1282
 30
0.0
 10
-15.1022
 20
8.1282
 30
0.0
 10
-14.0975
 20
8.1282
 30
0.0
 10
-14.0975
 20
8.1282
 30
0.0
 10
-14.0975
 20
8.1282
 30
0.0
 10
-14.0975
 20
8.1282
 30
0.0
 10
-14.0975
 20
7.8817
 30
0.0
 10
-14.0975
 20
7.8817
 30
0.0
 10
-14.0975
 20
7.8817
 30
0.0
 10
-14.0975
 20
7.8817
 30
0.0
 10
-15.0194
 20
7.8817
 30
0.0
 10
-15.0194
 20
7.8817
 30
0.0
 10
-15.0194
 20
7.8817
 30
0.0
 10
-15.1187
 20
7.8817
 30
0.0
 10
-15.1902
 20
7.8737
 30
0.0
 10
-15.2339
 20
7.8577
 30
0.0
 10
-15.2339
 20
7.8577
 30
0.0
 10
-15.2772
 20
7.8412
 30
0.0
 10
-15.3125
 20
7.8121
 30
0.0
 10
-15.3393
 20
7.7702
 30
0.0
 10
-15.3393
 20
7.7702
 30
0.0
 10
-15.3656
 20
7.7279
 30
0.0
 10
-15.3792
 20
7.678
 30
0.0
 10
-15.3792
 20
7.6211
 30
0.0
 10
-15.3792
 20
7.6211
 30
0.0
 10
-15.3792
 20
7.5181
 30
0.0
 10
-15.3449
 20
7.433
 30
0.0
 10
-15.2762
 20
7.3648
 30
0.0
 10
-15.2762
 20
7.3648
 30
0.0
 10
-15.208
 20
7.297
 30
0.0
 10
-15.0984
 20
7.2627
 30
0.0
 10
-14.9479
 20
7.2627
 30
0.0
 10
-14.9479
 20
7.2627
 30
0.0
 10
-14.9479
 20
7.2627
 30
0.0
 10
-14.0975
 20
7.2627
 30
0.0
 10
-14.0975
 20
7.2627
 30
0.0
 10
-14.0975
 20
7.2627
 30
0.0
 10
-14.0975
 20
7.2627
 30
0.0
 10
-14.0975
 20
7.0148
 30
0.0
 10
-14.0975
 20
7.0148
 30
0.0
 10
-14.0975
 20
7.0148
 30
0.0
 10
-14.0975
 20
7.0148
 30
0.0
 10
-15.0481
 20
7.0148
 30
0.0
 10
-15.0481
 20
7.0148
 30
0.0
 10
-15.0481
 20
7.0148
 30
0.0
 10
-15.1586
 20
7.0148
 30
0.0
 10
-15.2414
 20
6.9946
 30
0.0
 10
-15.2965
 20
6.9541
 30
0.0
 10
-15.2965
 20
6.9541
 30
0.0
 10
-15.3515
 20
6.9137
 30
0.0
 10
-15.3792
 20
6.8478
 30
0.0
 10
-15.3792
 20
6.7556
 30
0.0
 10
-15.3792
 20
6.7556
 30
0.0
 10
-15.3792
 20
6.686
 30
0.0
 10
-15.3609
 20
6.6216
 30
0.0
 10
-15.3237
 20
6.5623
 30
0.0
 10
-15.3237
 20
6.5623
 30
0.0
 10
-15.2871
 20
6.503
 30
0.0
 10
-15.2334
 20
6.4598
 30
0.0
 10
-15.1629
 20
6.4334
 30
0.0
 10
-15.1629
 20
6.4334
 30
0.0
 10
-15.0919
 20
6.4066
 30
0.0
 10
-14.9898
 20
6.3934
 30
0.0
 10
-14.8567
 20
6.3934
 30
0.0
 10
-14.8567
 20
6.3934
 30
0.0
 10
-14.8567
 20
6.3934
 30
0.0
 10
-14.0975
 20
6.3934
 30
0.0
 10
-14.0975
 20
6.3934
 30
0.0
 10
-14.0975
 20
6.3934
 30
0.0
 10
-14.0975
 20
6.3934
 30
0.0
 10
-14.0975
 20
6.1456
 30
0.0
 10
-14.0975
 20
6.1456
 30
0.0
  0
SPLINE
  5
73
330
1F
100
AcDbEntity
  8
DEFAULT_1
 62
   250
100
AcDbSpline
210
0.0
220
0.0
230
1.0
 70
    11
 71
     3
 72
   112
 73
   108
 74
     0
 42
0.0000000001
 43
0.0000000001
 40
0.0
 40
0.0
 40
0.0
 40
0.0
 40
0.0357142857142857
 40
0.0357142857142857
 40
0.0357142857142857
 40
0.0357142857142857
 40
0.0714285714285714
 40
0.0714285714285714
 40
0.0714285714285714
 40
0.0714285714285714
 40
0.1071428571428571
 40
0.1071428571428571
 40
0.1071428571428571
 40
0.1071428571428571
 40
0.1428571428571428
 40
0.1428571428571428
 40
0.1428571428571428
 40
0.1428571428571428
 40
0.1785714285714286
 40
0.1785714285714286
 40
0.1785714285714286
 40
0.1785714285714286
 40
0.2142857142857143
 40
0.2142857142857143
 40
0.2142857142857143
 40
0.2142857142857143
 40
0.25
 40
0.25
 40
0.25
 40
0.25
 40
0.2857142857142857
 40
0.2857142857142857
 40
0.2857142857142857
 40
0.2857142857142857
 40
0.3214285714285715
 40
0.3214285714285715
 40
0.3214285714285715
 40
0.3214285714285715
 40
0.3571428571428572
 40
0.3571428571428572
 40
0.3571428571428572
 40
0.3571428571428572
 40
0.3928571428571428
 40
0.3928571428571428
 40
0.3928571428571428
 40
0.3928571428571428
 40
0.4285714285714285
 40
0.4285714285714285
 40
0.4285714285714285
 40
0.4285714285714285
 40
0.4642857142857143
 40
0.4642857142857143
 40
0.4642857142857143
 40
0.4642857142857143
 40
0.5
 40
0.5
 40
0.5
 40
0.5
 40
0.5357142857142857
 40
0.5357142857142857
 40
0.5357142857142857
 40
0.5357142857142857
 40
0.5714285714285714
 40
0.5714285714285714
 40
0.5714285714285714
 40
0.5714285714285714
 40
0.6071428571428571
 40
0.6071428571428571
 40
0.6071428571428571
 40
0.6071428571428571
 40
0.6428571428571429
 40
0.6428571428571429
 40
0.6428571428571429
 40
0.6428571428571429
 40
0.6785714285714286
 40
0.6785714285714286
 40
0.6785714285714286
 40
0.6785714285714286
 40
0.7142857142857143
 40
0.7142857142857143
 40
0.7142857142857143
 40
0.7142857142857143
 40
0.75
 40
0.75
 40
0.75
 40
0.75
 40
0.7857142857142857
 40
0.7857142857142857
 40
0.7857142857142857
 40
0.7857142857142857
 40
0.8214285714285714
 40
0.8214285714285714
 40
0.8214285714285714
 40
0.8214285714285714
 40
0.8571428571428571
 40
0.8571428571428571
 40
0.8571428571428571
 40
0.8571428571428571
 40
0.8928571428571429
 40
0.8928571428571429
 40
0.8928571428571429
 40
0.8928571428571429
 40
0.9285714285714286
 40
0.9285714285714286
 40
0.9285714285714286
 40
0.9285714285714286
 40
1.0
 40
1.0
 40
1.0
 40
1.0
 10
-14.2781
 20
9.4513
 30
0.0
 10
-14.2
 20
9.3591
 30
0.0
 10
-14.145
 20
9.2707
 30
0.0
 10
-14.1126
 20
9.186
 30
0.0
 10
-14.1126
 20
9.186
 30
0.0
 10
-14.0806
 20
9.1009
 30
0.0
 10
-14.0646
 20
9.0096
 30
0.0
 10
-14.0646
 20
8.9123
 30
0.0
 10
-14.0646
 20
8.9123
 30
0.0
 10
-14.0646
 20
8.7514
 30
0.0
 10
-14.1036
 20
8.6282
 30
0.0
 10
-14.1822
 20
8.5416
 30
0.0
 10
-14.1822
 20
8.5416
 30
0.0
 10
-14.2607
 20
8.4555
 30
0.0
 10
-14.3614
 20
8.4123
 30
0.0
 10
-14.4832
 20
8.4123
 30
0.0
 10
-14.4832
 20
8.4123
 30
0.0
 10
-14.5552
 20
8.4123
 30
0.0
 10
-14.6205
 20
8.4283
 30
0.0
 10
-14.6798
 20
8.4612
 30
0.0
 10
-14.6798
 20
8.4612
 30
0.0
 10
-14.7391
 20
8.4936
 30
0.0
 10
-14.7866
 20
8.5364
 30
0.0
 10
-14.8223
 20
8.5891
 30
0.0
 10
-14.8223
 20
8.5891
 30
0.0
 10
-14.8581
 20
8.6423
 30
0.0
 10
-14.8854
 20
8.7015
 30
0.0
 10
-14.9037
 20
8.7679
 30
0.0
 10
-14.9037
 20
8.7679
 30
0.0
 10
-14.9164
 20
8.8163
 30
0.0
 10
-14.9291
 20
8.8897
 30
0.0
 10
-14.9409
 20
8.988
 30
0.0
 10
-14.9409
 20
8.988
 30
0.0
 10
-14.9649
 20
9.1884
 30
0.0
 10
-14.9931
 20
9.3361
 30
0.0
 10
-15.0265
 20
9.4306
 30
0.0
 10
-15.0265
 20
9.4306
 30
0.0
 10
-15.0603
 20
9.4316
 30
0.0
 10
-15.082
 20
9.432
 30
0.0
 10
-15.0909
 20
9.432
 30
0.0
 10
-15.0909
 20
9.432
 30
0.0
 10
-15.192
 20
9.432
 30
0.0
 10
-15.2635
 20
9.4085
 30
0.0
 10
-15.3045
 20
9.3615
 30
0.0
 10
-15.3045
 20
9.3615
 30
0.0
 10
-15.3609
 20
9.2984
 30
0.0
 10
-15.3887
 20
9.2039
 30
0.0
 10
-15.3887
 20
9.0792
 30
0.0
 10
-15.3887
 20
9.0792
 30
0.0
 10
-15.3887
 20
8.9626
 30
0.0
 10
-15.3684
 20
8.8765
 30
0.0
 10
-15.3275
 20
8.8205
 30
0.0
 10
-15.3275
 20
8.8205
 30
0.0
 10
-15.2866
 20
8.765
 30
0.0
 10
-15.2142
 20
8.7241
 30
0.0
 10
-15.1102
 20
8.6973
 30
0.0
 10
-15.1102
 20
8.6973
 30
0.0
 10
-15.1102
 20
8.6973
 30
0.0
 10
-15.1436
 20
8.4551
 30
0.0
 10
-15.1436
 20
8.4551
 30
0.0
 10
-15.1436
 20
8.4551
 30
0.0
 10
-15.2471
 20
8.4772
 30
0.0
 10
-15.3313
 20
8.5134
 30
0.0
 10
-15.3948
 20
8.5637
 30
0.0
 10
-15.3948
 20
8.5637
 30
0.0
 10
-15.4587
 20
8.6141
 30
0.0
 10
-15.5081
 20
8.6874
 30
0.0
 10
-15.5425
 20
8.7829
 30
0.0
 10
-15.5425
 20
8.7829
 30
0.0
 10
-15.5768
 20
8.8784
 30
0.0
 10
-15.5942
 20
8.9889
 30
0.0
 10
-15.5942
 20
9.115
 30
0.0
 10
-15.5942
 20
9.115
 30
0.0
 10
-15.5942
 20
9.2401
 30
0.0
 10
-15.5792
 20
9.3412
 30
0.0
 10
-15.55
 20
9.4193
 30
0.0
 10
-15.55
 20
9.4193
 30
0.0
 10
-15.5204
 20
9.4974
 30
0.0
 10
-15.4837
 20
9.5548
 30
0.0
 10
-15.439
 20
9.5919
 30
0.0
 10
-15.439
 20
9.5919
 30
0.0
 10
-15.3943
 20
9.6286
 30
0.0
 10
-15.3383
 20
9.654
 30
0.0
 10
-15.2701
 20
9.6691
 30
0.0
 10
-15.2701
 20
9.6691
 30
0.0
 10
-15.2278
 20
9.6771
 30
0.0
 10
-15.1516
 20
9.6813
 30
0.0
 10
-15.0415
 20
9.6813
 30
0.0
 10
-15.0415
 20
9.6813
 30
0.0
 10
-15.0415
 20
9.6813
 30
0.0
 10
-14.7109
 20
9.6813
 30
0.0
 10
-14.7109
 20
9.6813
 30
0.0
 10
-14.7109
 20
9.6813
 30
0.0
 10
-14.4799
 20
9.6813
 30
0.0
 10
-14.3341
 20
9.6865
 30
0.0
 10
-14.2734
 20
9.6973
 30
0.0
 10
-14.2734
 20
9.6973
 30
0.0
 10
-14.2123
 20
9.7077
 30
0.0
 10
-14.1535
 20
9.7288
 30
0.0
 10
-14.0975
 20
9.7599
 30
0.0
 10
-14.0975
 20
9.7599
 30
0.0
 10
-14.0975
 20
9.7599
 30
0.0
 10
-14.0975
 20
9.5007
 30
0.0
 10
-14.0975
 20
9.5007
 30
0.0
 10
-14.0975
 20
9.5007
 30
0.0
 10
-14.1488
 20
9.4753
 30
0.0
 10
-14.209
 20
9.4584
 30
0.0
 10
-14.2781
 20
9.4513
 30
0.0
  0
SPLINE
  5
74
330
1F
100
AcDbEntity
  8
DEFAULT_1
 62
   250
100
AcDbSpline
210
0.0
220
0.0
230
1.0
 70
    11
 71
     3
 72
    44
 73
    40
 74
     0
 42
0.0000000001
 43
0.0000000001
 40
0.0
 40
0.0
 40
0.0
 40
0.0
 40
0.0909090909090909
 40
0.0909090909090909
 40
0.0909090909090909
 40
0.0909090909090909
 40
0.1818181818181818
 40
0.1818181818181818
 40
0.1818181818181818
 40
0.1818181818181818
 40
0.2727272727272727
 40
0.2727272727272727
 40
0.2727272727272727
 40
0.2727272727272727
 40
0.3636363636363636
 40
0.3636363636363636
 40
0.3636363636363636
 40
0.3636363636363636
 40
0.4545454545454545
 40
0.4545454545454545
 40
0.4545454545454545
 40
0.4545454545454545
 40
0.5454545454545454
 40
0.5454545454545454
 40
0.5454545454545454
 40
0.5454545454545454
 40
0.6363636363636364
 40
0.6363636363636364
 40
0.6363636363636364
 40
0.6363636363636364
 40
0.7272727272727273
 40
0.7272727272727273
 40
0.7272727272727273
 40
0.7272727272727273
 40
0.8181818181818182
 40
0.8181818181818182
 40
0.8181818181818182
 40
0.8181818181818182
 40
1.0
 40
1.0
 40
1.0
 40
1.0
 10
-14.8322
 20
9.4306
 30
0.0
 10
-14.7951
 20
9.3403
 30
0.0
 10
-14.764
 20
9.2053
 30
0.0
 10
-14.7381
 20
9.0256
 30
0.0
 10
-14.7381
 20
9.0256
 30
0.0
 10
-14.7236
 20
8.9236
 30
0.0
 10
-14.7071
 20
8.8511
 30
0.0
 10
-14.6888
 20
8.8093
 30
0.0
 10
-14.6888
 20
8.8093
 30
0.0
 10
-14.6704
 20
8.7669
 30
0.0
 10
-14.6436
 20
8.734
 30
0.0
 10
-14.6078
 20
8.7114
 30
0.0
 10
-14.6078
 20
8.7114
 30
0.0
 10
-14.5726
 20
8.6884
 30
0.0
 10
-14.5335
 20
8.6766
 30
0.0
 10
-14.4903
 20
8.6766
 30
0.0
 10
-14.4903
 20
8.6766
 30
0.0
 10
-14.4239
 20
8.6766
 30
0.0
 10
-14.3689
 20
8.702
 30
0.0
 10
-14.3247
 20
8.7519
 30
0.0
 10
-14.3247
 20
8.7519
 30
0.0
 10
-14.2809
 20
8.8017
 30
0.0
 10
-14.2588
 20
8.8751
 30
0.0
 10
-14.2588
 20
8.9715
 30
0.0
 10
-14.2588
 20
8.9715
 30
0.0
 10
-14.2588
 20
9.067
 30
0.0
 10
-14.2795
 20
9.1522
 30
0.0
 10
-14.3214
 20
9.2265
 30
0.0
 10
-14.3214
 20
9.2265
 30
0.0
 10
-14.3633
 20
9.3008
 30
0.0
 10
-14.4206
 20
9.3558
 30
0.0
 10
-14.4931
 20
9.3906
 30
0.0
 10
-14.4931
 20
9.3906
 30
0.0
 10
-14.5491
 20
9.4174
 30
0.0
 10
-14.6318
 20
9.4306
 30
0.0
 10
-14.741
 20
9.4306
 30
0.0
 10
-14.741
 20
9.4306
 30
0.0
 10
-14.741
 20
9.4306
 30
0.0
 10
-14.8322
 20
9.4306
 30
0.0
 10
-14.8322
 20
9.4306
 30
0.0
  0
SPLINE
  5
75
330
1F
100
AcDbEntity
  8
DEFAULT_1
 62
   250
100
AcDbSpline
210
0.0
220
0.0
230
1.0
 70
    11
 71
     3
 72
    64
 73
    60
 74
     0
 42
0.0000000001
 43
0.0000000001
 40
0.0
 40
0.0
 40
0.0
 40
0.0
 40
0.0625
 40
0.0625
 40
0.0625
 40
0.0625
 40
0.125
 40
0.125
 40
0.125
 40
0.125
 40
0.1875
 40
0.1875
 40
0.1875
 40
0.1875
 40
0.25
 40
0.25
 40
0.25
 40
0.25
 40
0.3125
 40
0.3125
 40
0.3125
 40
0.3125
 40
0.375
 40
0.375
 40
0.375
 40
0.375
 40
0.4375
 40
0.4375
 40
0.4375
 40
0.4375
 40
0.5
 40
0.5
 40
0.5
 40
0.5
 40
0.5625
 40
0.5625
 40
0.5625
 40
0.5625
 40
0.625
 40
0.625
 40
0.625
 40
0.625
 40
0.6875
 40
0.6875
 40
0.6875
 40
0.6875
 40
0.75
 40
0.75
 40
0.75
 40
0.75
 40
0.8125
 40
0.8125
 40
0.8125
 40
0.8125
 40
0.875
 40
0.875
 40
0.875
 40
0.875
 40
1.0
 40
1.0
 40
1.0
 40
1.0
 10
-14.0975
 20
9.9005
 30
0.0
 10
-14.0975
 20
9.9005
 30
0.0
 10
-14.8581
 20
10.4353
 30
0.0
 10
-14.8581
 20
10.4353
 30
0.0
 10
-14.8581
 20
10.4353
 30
0.0
 10
-14.8581
 20
10.4353
 30
0.0
 10
-15.5608
 20
9.9405
 30
0.0
 10
-15.5608
 20
9.9405
 30
0.0
 10
-15.5608
 20
9.9405
 30
0.0
 10
-15.5608
 20
9.9405
 30
0.0
 10
-15.5608
 20
10.2504
 30
0.0
 10
-15.5608
 20
10.2504
 30
0.0
 10
-15.5608
 20
10.2504
 30
0.0
 10
-15.5608
 20
10.2504
 30
0.0
 10
-15.2179
 20
10.4753
 30
0.0
 10
-15.2179
 20
10.4753
 30
0.0
 10
-15.2179
 20
10.4753
 30
0.0
 10
-15.1525
 20
10.5171
 30
0.0
 10
-15.098
 20
10.5515
 30
0.0
 10
-15.0538
 20
10.5769
 30
0.0
 10
-15.0538
 20
10.5769
 30
0.0
 10
-15.1144
 20
10.6173
 30
0.0
 10
-15.1681
 20
10.6545
 30
0.0
 10
-15.2151
 20
10.6888
 30
0.0
 10
-15.2151
 20
10.6888
 30
0.0
 10
-15.2151
 20
10.6888
 30
0.0
 10
-15.5608
 20
10.9353
 30
0.0
 10
-15.5608
 20
10.9353
 30
0.0
 10
-15.5608
 20
10.9353
 30
0.0
 10
-15.5608
 20
10.9353
 30
0.0
 10
-15.5608
 20
11.2316
 30
0.0
 10
-15.5608
 20
11.2316
 30
0.0
 10
-15.5608
 20
11.2316
 30
0.0
 10
-15.5608
 20
11.2316
 30
0.0
 10
-14.8717
 20
10.726
 30
0.0
 10
-14.8717
 20
10.726
 30
0.0
 10
-14.8717
 20
10.726
 30
0.0
 10
-14.8717
 20
10.726
 30
0.0
 10
-14.0975
 20
11.2702
 30
0.0
 10
-14.0975
 20
11.2702
 30
0.0
 10
-14.0975
 20
11.2702
 30
0.0
 10
-14.0975
 20
11.2702
 30
0.0
 10
-14.0975
 20
10.9659
 30
0.0
 10
-14.0975
 20
10.9659
 30
0.0
 10
-14.0975
 20
10.9659
 30
0.0
 10
-14.0975
 20
10.9659
 30
0.0
 10
-14.5523
 20
10.6653
 30
0.0
 10
-14.5523
 20
10.6653
 30
0.0
 10
-14.5523
 20
10.6653
 30
0.0
 10
-14.5523
 20
10.6653
 30
0.0
 10
-14.6751
 20
10.5854
 30
0.0
 10
-14.6751
 20
10.5854
 30
0.0
 10
-14.6751
 20
10.5854
 30
0.0
 10
-14.6751
 20
10.5854
 30
0.0
 10
-14.0975
 20
10.2011
 30
0.0
 10
-14.0975
 20
10.2011
 30
0.0
 10
-14.0975
 20
10.2011
 30
0.0
 10
-14.0975
 20
10.2011
 30
0.0
 10
-14.0975
 20
9.9005
 30
0.0
 10
-14.0975
 20
9.9005
 30
0.0
  0
SPLINE
  5
76
330
1F
100
AcDbEntity
  8
DEFAULT_1
 62
   250
100
AcDbSpline
210
0.0
220
0.0
230
1.0
 70
    11
 71
     3
 72
    92
 73
    88
 74
     0
 42
0.0000000001
 43
0.0000000001
 40
0.0
 40
0.0
 40
0.0
 40
0.0
 40
0.0434782608695652
 40
0.0434782608695652
 40
0.0434782608695652
 40
0.0434782608695652
 40
0.0869565217391304
 40
0.0869565217391304
 40
0.0869565217391304
 40
0.0869565217391304
 40
0.1304347826086956
 40
0.1304347826086956
 40
0.1304347826086956
 40
0.1304347826086956
 40
0.1739130434782609
 40
0.1739130434782609
 40
0.1739130434782609
 40
0.1739130434782609
 40
0.2173913043478261
 40
0.2173913043478261
 40
0.2173913043478261
 40
0.2173913043478261
 40
0.2608695652173913
 40
0.2608695652173913
 40
0.2608695652173913
 40
0.2608695652173913
 40
0.3043478260869565
 40
0.3043478260869565
 40
0.3043478260869565
 40
0.3043478260869565
 40
0.3478260869565217
 40
0.3478260869565217
 40
0.3478260869565217
 40
0.3478260869565217
 40
0.391304347826087
 40
0.391304347826087
 40
0.391304347826087
 40
0.391304347826087
 40
0.4347826086956522
 40
0.4347826086956522
 40
0.4347826086956522
 40
0.4347826086956522
 40
0.4782608695652174
 40
0.4782608695652174
 40
0.4782608695652174
 40
0.4782608695652174
 40
0.5217391304347826
 40
0.5217391304347826
 40
0.5217391304347826
 40
0.5217391304347826
 40
0.5652173913043478
 40
0.5652173913043478
 40
0.5652173913043478
 40
0.5652173913043478
 40
0.6086956521739131
 40
0.6086956521739131
 40
0.6086956521739131
 40
0.6086956521739131
 40
0.6521739130434783
 40
0.6521739130434783
 40
0.6521739130434783
 40
0.6521739130434783
 40
0.6956521739130435
 40
0.6956521739130435
 40
0.6956521739130435
 40
0.6956521739130435
 40
0.7391304347826086
 40
0.7391304347826086
 40
0.7391304347826086
 40
0.7391304347826086
 40
0.782608695652174
 40
0.782608695652174
 40
0.782608695652174
 40
0.782608695652174
 40
0.8260869565217391
 40
0.8260869565217391
 40
0.8260869565217391
 40
0.8260869565217391
 40
0.8695652173913043
 40
0.8695652173913043
 40
0.8695652173913043
 40
0.8695652173913043
 40
0.9130434782608695
 40
0.9130434782608695
 40
0.9130434782608695
 40
0.9130434782608695
 40
1.0
 40
1.0
 40
1.0
 40
1.0
 10
-14.6267
 20
12.1921
 30
0.0
 10
-14.6267
 20
12.1921
 30
0.0
 10
-14.6488
 20
12.4527
 30
0.0
 10
-14.6488
 20
12.4527
 30
0.0
 10
-14.6488
 20
12.4527
 30
0.0
 10
-14.5218
 20
12.472
 30
0.0
 10
-14.4268
 20
12.5167
 30
0.0
 10
-14.3628
 20
12.5868
 30
0.0
 10
-14.3628
 20
12.5868
 30
0.0
 10
-14.2988
 20
12.6573
 30
0.0
 10
-14.2668
 20
12.742
 30
0.0
 10
-14.2668
 20
12.8412
 30
0.0
 10
-14.2668
 20
12.8412
 30
0.0
 10
-14.2668
 20
12.9607
 30
0.0
 10
-14.312
 20
13.0618
 30
0.0
 10
-14.4018
 20
13.1441
 30
0.0
 10
-14.4018
 20
13.1441
 30
0.0
 10
-14.4921
 20
13.2269
 30
0.0
 10
-14.6116
 20
13.2683
 30
0.0
 10
-14.7602
 20
13.2683
 30
0.0
 10
-14.7602
 20
13.2683
 30
0.0
 10
-14.9018
 20
13.2683
 30
0.0
 10
-15.0133
 20
13.2288
 30
0.0
 10
-15.0951
 20
13.1493
 30
0.0
 10
-15.0951
 20
13.1493
 30
0.0
 10
-15.177
 20
13.0698
 30
0.0
 10
-15.2179
 20
12.9659
 30
0.0
 10
-15.2179
 20
12.837
 30
0.0
 10
-15.2179
 20
12.837
 30
0.0
 10
-15.2179
 20
12.757
 30
0.0
 10
-15.1996
 20
12.6851
 30
0.0
 10
-15.1634
 20
12.6206
 30
0.0
 10
-15.1634
 20
12.6206
 30
0.0
 10
-15.1271
 20
12.5562
 30
0.0
 10
-15.0801
 20
12.5059
 30
0.0
 10
-15.0222
 20
12.4692
 30
0.0
 10
-15.0222
 20
12.4692
 30
0.0
 10
-15.0222
 20
12.4692
 30
0.0
 10
-15.0523
 20
12.2363
 30
0.0
 10
-15.0523
 20
12.2363
 30
0.0
 10
-15.0523
 20
12.2363
 30
0.0
 10
-15.0523
 20
12.2363
 30
0.0
 10
-16.09
 20
12.432
 30
0.0
 10
-16.09
 20
12.432
 30
0.0
 10
-16.09
 20
12.432
 30
0.0
 10
-16.09
 20
12.432
 30
0.0
 10
-16.09
 20
13.4367
 30
0.0
 10
-16.09
 20
13.4367
 30
0.0
 10
-16.09
 20
13.4367
 30
0.0
 10
-16.09
 20
13.4367
 30
0.0
 10
-15.8529
 20
13.4367
 30
0.0
 10
-15.8529
 20
13.4367
 30
0.0
 10
-15.8529
 20
13.4367
 30
0.0
 10
-15.8529
 20
13.4367
 30
0.0
 10
-15.8529
 20
12.6305
 30
0.0
 10
-15.8529
 20
12.6305
 30
0.0
 10
-15.8529
 20
12.6305
 30
0.0
 10
-15.8529
 20
12.6305
 30
0.0
 10
-15.3101
 20
12.5214
 30
0.0
 10
-15.3101
 20
12.5214
 30
0.0
 10
-15.3101
 20
12.5214
 30
0.0
 10
-15.3948
 20
12.6427
 30
0.0
 10
-15.4371
 20
12.7702
 30
0.0
 10
-15.4371
 20
12.9033
 30
0.0
 10
-15.4371
 20
12.9033
 30
0.0
 10
-15.4371
 20
13.0797
 30
0.0
 10
-15.376
 20
13.2283
 30
0.0
 10
-15.2537
 20
13.3497
 30
0.0
 10
-15.2537
 20
13.3497
 30
0.0
 10
-15.1314
 20
13.471
 30
0.0
 10
-14.9743
 20
13.5317
 30
0.0
 10
-14.7824
 20
13.5317
 30
0.0
 10
-14.7824
 20
13.5317
 30
0.0
 10
-14.5994
 20
13.5317
 30
0.0
 10
-14.4413
 20
13.4781
 30
0.0
 10
-14.3082
 20
13.3718
 30
0.0
 10
-14.3082
 20
13.3718
 30
0.0
 10
-14.145
 20
13.242
 30
0.0
 10
-14.0632
 20
13.0651
 30
0.0
 10
-14.0632
 20
12.8412
 30
0.0
 10
-14.0632
 20
12.8412
 30
0.0
 10
-14.0632
 20
12.6573
 30
0.0
 10
-14.1144
 20
12.5073
 30
0.0
 10
-14.2174
 20
12.3911
 30
0.0
 10
-14.2174
 20
12.3911
 30
0.0
 10
-14.3205
 20
12.2749
 30
0.0
 10
-14.4569
 20
12.2086
 30
0.0
 10
-14.6267
 20
12.1921
 30
0.0
  0
SPLINE
  5
77
330
1F
100
AcDbEntity
  8
DEFAULT_1
 62
   250
100
AcDbSpline
210
0.0
220
0.0
230
1.0
 70
    11
 71
     3
 72
    52
 73
    48
 74
     0
 42
0.0000000001
 43
0.0000000001
 40
0.0
 40
0.0
 40
0.0
 40
0.0
 40
0.0769230769230769
 40
0.0769230769230769
 40
0.0769230769230769
 40
0.0769230769230769
 40
0.1538461538461539
 40
0.1538461538461539
 40
0.1538461538461539
 40
0.1538461538461539
 40
0.2307692307692308
 40
0.2307692307692308
 40
0.2307692307692308
 40
0.2307692307692308
 40
0.3076923076923077
 40
0.3076923076923077
 40
0.3076923076923077
 40
0.3076923076923077
 40
0.3846153846153846
 40
0.3846153846153846
 40
0.3846153846153846
 40
0.3846153846153846
 40
0.4615384615384616
 40
0.4615384615384616
 40
0.4615384615384616
 40
0.4615384615384616
 40
0.5384615384615384
 40
0.5384615384615384
 40
0.5384615384615384
 40
0.5384615384615384
 40
0.6153846153846154
 40
0.6153846153846154
 40
0.6153846153846154
 40
0.6153846153846154
 40
0.6923076923076923
 40
0.6923076923076923
 40
0.6923076923076923
 40
0.6923076923076923
 40
0.7692307692307693
 40
0.7692307692307693
 40
0.7692307692307693
 40
0.7692307692307693
 40
0.8461538461538461
 40
0.8461538461538461
 40
0.8461538461538461
 40
0.8461538461538461
 40
1.0
 40
1.0
 40
1.0
 40
1.0
 10
-15.0937
 20
13.7617
 30
0.0
 10
-15.3327
 20
13.7617
 30
0.0
 10
-15.5251
 20
13.7862
 30
0.0
 10
-15.6704
 20
13.8356
 30
0.0
 10
-15.6704
 20
13.8356
 30
0.0
 10
-15.8162
 20
13.8845
 30
0.0
 10
-15.9286
 20
13.9579
 30
0.0
 10
-16.0077
 20
14.0548
 30
0.0
 10
-16.0077
 20
14.0548
 30
0.0
 10
-16.0867
 20
14.1517
 30
0.0
 10
-16.1262
 20
14.2735
 30
0.0
 10
-16.1262
 20
14.4202
 30
0.0
 10
-16.1262
 20
14.4202
 30
0.0
 10
-16.1262
 20
14.5289
 30
0.0
 10
-16.1041
 20
14.6239
 30
0.0
 10
-16.0603
 20
14.7057
 30
0.0
 10
-16.0603
 20
14.7057
 30
0.0
 10
-16.0171
 20
14.7876
 30
0.0
 10
-15.954
 20
14.8549
 30
0.0
 10
-15.8717
 20
14.9085
 30
0.0
 10
-15.8717
 20
14.9085
 30
0.0
 10
-15.7894
 20
14.9616
 30
0.0
 10
-15.6892
 20
15.0035
 30
0.0
 10
-15.5712
 20
15.0336
 30
0.0
 10
-15.5712
 20
15.0336
 30
0.0
 10
-15.4531
 20
15.0642
 30
0.0
 10
-15.2941
 20
15.0792
 30
0.0
 10
-15.0937
 20
15.0792
 30
0.0
 10
-15.0937
 20
15.0792
 30
0.0
 10
-14.8567
 20
15.0792
 30
0.0
 10
-14.6657
 20
15.0548
 30
0.0
 10
-14.5199
 20
15.0063
 30
0.0
 10
-14.5199
 20
15.0063
 30
0.0
 10
-14.3741
 20
14.9574
 30
0.0
 10
-14.2617
 20
14.8845
 30
0.0
 10
-14.1822
 20
14.7876
 30
0.0
 10
-14.1822
 20
14.7876
 30
0.0
 10
-14.1027
 20
14.6907
 30
0.0
 10
-14.0632
 20
14.5684
 30
0.0
 10
-14.0632
 20
14.4202
 30
0.0
 10
-14.0632
 20
14.4202
 30
0.0
 10
-14.0632
 20
14.2255
 30
0.0
 10
-14.1328
 20
14.0726
 30
0.0
 10
-14.2725
 20
13.9616
 30
0.0
 10
-14.2725
 20
13.9616
 30
0.0
 10
-14.4404
 20
13.8285
 30
0.0
 10
-14.7146
 20
13.7617
 30
0.0
 10
-15.0937
 20
13.7617
 30
0.0
  0
SPLINE
  5
78
330
1F
100
AcDbEntity
  8
DEFAULT_1
 62
   250
100
AcDbSpline
210
0.0
220
0.0
230
1.0
 70
    11
 71
     3
 72
    36
 73
    32
 74
     0
 42
0.0000000001
 43
0.0000000001
 40
0.0
 40
0.0
 40
0.0
 40
0.0
 40
0.1111111111111111
 40
0.1111111111111111
 40
0.1111111111111111
 40
0.1111111111111111
 40
0.2222222222222222
 40
0.2222222222222222
 40
0.2222222222222222
 40
0.2222222222222222
 40
0.3333333333333333
 40
0.3333333333333333
 40
0.3333333333333333
 40
0.3333333333333333
 40
0.4444444444444444
 40
0.4444444444444444
 40
0.4444444444444444
 40
0.4444444444444444
 40
0.5555555555555556
 40
0.5555555555555556
 40
0.5555555555555556
 40
0.5555555555555556
 40
0.6666666666666666
 40
0.6666666666666666
 40
0.6666666666666666
 40
0.6666666666666666
 40
0.7777777777777778
 40
0.7777777777777778
 40
0.7777777777777778
 40
0.7777777777777778
 40
1.0
 40
1.0
 40
1.0
 40
1.0
 10
-15.0937
 20
14.0167
 30
0.0
 10
-14.7621
 20
14.0167
 30
0.0
 10
-14.5415
 20
14.0557
 30
0.0
 10
-14.4315
 20
14.1333
 30
0.0
 10
-14.4315
 20
14.1333
 30
0.0
 10
-14.3219
 20
14.2109
 30
0.0
 10
-14.2668
 20
14.3064
 30
0.0
 10
-14.2668
 20
14.4202
 30
0.0
 10
-14.2668
 20
14.4202
 30
0.0
 10
-14.2668
 20
14.5345
 30
0.0
 10
-14.3223
 20
14.63
 30
0.0
 10
-14.4324
 20
14.7076
 30
0.0
 10
-14.4324
 20
14.7076
 30
0.0
 10
-14.5425
 20
14.7852
 30
0.0
 10
-14.7631
 20
14.8243
 30
0.0
 10
-15.0937
 20
14.8243
 30
0.0
 10
-15.0937
 20
14.8243
 30
0.0
 10
-15.4263
 20
14.8243
 30
0.0
 10
-15.6474
 20
14.7852
 30
0.0
 10
-15.7565
 20
14.7076
 30
0.0
 10
-15.7565
 20
14.7076
 30
0.0
 10
-15.8661
 20
14.63
 30
0.0
 10
-15.9206
 20
14.5336
 30
0.0
 10
-15.9206
 20
14.4179
 30
0.0
 10
-15.9206
 20
14.4179
 30
0.0
 10
-15.9206
 20
14.3036
 30
0.0
 10
-15.8722
 20
14.2128
 30
0.0
 10
-15.7758
 20
14.1446
 30
0.0
 10
-15.7758
 20
14.1446
 30
0.0
 10
-15.653
 20
14.0595
 30
0.0
 10
-15.4253
 20
14.0167
 30
0.0
 10
-15.0937
 20
14.0167
 30
0.0
  0
SPLINE
  5
79
330
1F
100
AcDbEntity
  8
DEFAULT_1
 62
   250
100
AcDbSpline
210
0.0
220
0.0
230
1.0
 70
    11
 71
     3
 72
    20
 73
    16
 74
     0
 42
0.0000000001
 43
0.0000000001
 40
0.0
 40
0.0
 40
0.0
 40
0.0
 40
0.2
 40
0.2
 40
0.2
 40
0.2
 40
0.4
 40
0.4
 40
0.4
 40
0.4
 40
0.6
 40
0.6
 40
0.6
 40
0.6
 40
1.0
 40
1.0
 40
1.0
 40
1.0
 10
-13.4263
 20
1.5522
 30
0.0
 10
-13.4263
 20
1.5522
 30
0.0
 10
-12.9852
 20
4.6773
 30
0.0
 10
-12.9852
 20
4.6773
 30
0.0
 10
-12.9852
 20
4.6773
 30
0.0
 10
-12.9852
 20
4.6773
 30
0.0
 10
-12.8873
 20
4.6773
 30
0.0
 10
-12.8873
 20
4.6773
 30
0.0
 10
-12.8873
 20
4.6773
 30
0.0
 10
-12.8873
 20
4.6773
 30
0.0
 10
-12.4169
 20
1.5522
 30
0.0
 10
-12.4169
 20
1.5522
 30
0.0
 10
-12.4169
 20
1.5522
 30
0.0
 10
-12.4169
 20
1.5522
 30
0.0
 10
-13.4263
 20
1.5522
 30
0.0
 10
-13.4263
 20
1.5522
 30
0.0
  0
SPLINE
  5
7A
330
1F
100
AcDbEntity
  8
DEFAULT_1
 62
   250
100
AcDbSpline
210
0.0
220
0.0
230
1.0
 70
    11
 71
     3
 72
    20
 73
    16
 74
     0
 42
0.0000000001
 43
0.0000000001
 40
0.0
 40
0.0
 40
0.0
 40
0.0
 40
0.2
 40
0.2
 40
0.2
 40
0.2
 40
0.4
 40
0.4
 40
0.4
 40
0.4
 40
0.6
 40
0.6
 40
0.6
 40
0.6
 40
1.0
 40
1.0
 40
1.0
 40
1.0
 10
-12.4213
 20
-18.1
 30
0.0
 10
-12.4213
 20
-18.1
 30
0.0
 10
-12.8623
 20
-21.2251
 30
0.0
 10
-12.8623
 20
-21.2251
 30
0.0
 10
-12.8623
 20
-21.2251
 30
0.0
 10
-12.8623
 20
-21.2251
 30
0.0
 10
-12.9602
 20
-21.2251
 30
0.0
 10
-12.9602
 20
-21.2251
 30
0.0
 10
-12.9602
 20
-21.2251
 30
0.0
 10
-12.9602
 20
-21.2251
 30
0.0
 10
-13.4306
 20
-18.1
 30
0.0
 10
-13.4306
 20
-18.1
 30
0.0
 10
-13.4306
 20
-18.1
 30
0.0
 10
-13.4306
 20
-18.1
 30
0.0
 10
-12.4213
 20
-18.1
 30
0.0
 10
-12.4213
 20
-18.1
 30
0.0
  0
SPLINE
  5
7B
330
1F
100
AcDbEntity
  8
DEFAULT_1
 62
   250
100
AcDbSpline
210
0.0
220
0.0
230
1.0
 70
    11
 71
     3
 72
    20
 73
    16
 74
     0
 42
0.0000000001
 43
0.0000000001
 40
0.0
 40
0.0
 40
0.0
 40
0.0
 40
0.2
 40
0.2
 40
0.2
 40
0.2
 40
0.4
 40
0.4
 40
0.4
 40
0.4
 40
0.6
 40
0.6
 40
0.6
 40
0.6
 40
1.0
 40
1.0
 40
1.0
 40
1.0
 10
-13.4439
 20
13.581
 30
0.0
 10
-13.4439
 20
13.581
 30
0.0
 10
-13.0029
 20
16.706
 30
0.0
 10
-13.0029
 20
16.706
 30
0.0
 10
-13.0029
 20
16.706
 30
0.0
 10
-13.0029
 20
16.706
 30
0.0
 10
-12.9049
 20
16.706
 30
0.0
 10
-12.9049
 20
16.706
 30
0.0
 10
-12.9049
 20
16.706
 30
0.0
 10
-12.9049
 20
16.706
 30
0.0
 10
-12.4346
 20
13.581
 30
0.0
 10
-12.4346
 20
13.581
 30
0.0
 10
-12.4346
 20
13.581
 30
0.0
 10
-12.4346
 20
13.581
 30
0.0
 10
-13.4439
 20
13.581
 30
0.0
 10
-13.4439
 20
13.581
 30
0.0
  0
SPLINE
  5
7C
330
1F
100
AcDbEntity
  8
DEFAULT_1
 62
   250
100
AcDbSpline
210
0.0
220
0.0
230
1.0
 70
    11
 71
     3
 72
    20
 73
    16
 74
     0
 42
0.0000000001
 43
0.0000000001
 40
0.0
 40
0.0
 40
0.0
 40
0.0
 40
0.2
 40
0.2
 40
0.2
 40
0.2
 40
0.4
 40
0.4
 40
0.4
 40
0.4
 40
0.6
 40
0.6
 40
0.6
 40
0.6
 40
1.0
 40
1.0
 40
1.0
 40
1.0
 10
-12.4538
 20
8.0188
 30
0.0
 10
-12.4538
 20
8.0188
 30
0.0
 10
-12.8948
 20
4.8938
 30
0.0
 10
-12.8948
 20
4.8938
 30
0.0
 10
-12.8948
 20
4.8938
 30
0.0
 10
-12.8948
 20
4.8938
 30
0.0
 10
-12.9928
 20
4.8938
 30
0.0
 10
-12.9928
 20
4.8938
 30
0.0
 10
-12.9928
 20
4.8938
 30
0.0
 10
-12.9928
 20
4.8938
 30
0.0
 10
-13.4631
 20
8.0188
 30
0.0
 10
-13.4631
 20
8.0188
 30
0.0
 10
-13.4631
 20
8.0188
 30
0.0
 10
-13.4631
 20
8.0188
 30
0.0
 10
-12.4538
 20
8.0188
 30
0.0
 10
-12.4538
 20
8.0188
 30
0.0
  0
SPLINE
  5
7D
330
1F
100
AcDbEntity
  8
DEFAULT_1
 62
   250
100
AcDbSpline
210
0.0
220
0.0
230
1.0
 70
    11
 71
     3
 72
    20
 73
    16
 74
     0
 42
0.0000000001
 43
0.0000000001
 40
0.0
 40
0.0
 40
0.0
 40
0.0
 40
0.2
 40
0.2
 40
0.2
 40
0.2
 40
0.4
 40
0.4
 40
0.4
 40
0.4
 40
0.6
 40
0.6
 40
0.6
 40
0.6
 40
1.0
 40
1.0
 40
1.0
 40
1.0
 10
-8.177
 20
-24.5237
 30
0.0
 10
-8.177
 20
-24.5237
 30
0.0
 10
-7.7359
 20
-21.3987
 30
0.0
 10
-7.7359
 20
-21.3987
 30
0.0
 10
-7.7359
 20
-21.3987
 30
0.0
 10
-7.7359
 20
-21.3987
 30
0.0
 10
-7.638
 20
-21.3987
 30
0.0
 10
-7.638
 20
-21.3987
 30
0.0
 10
-7.638
 20
-21.3987
 30
0.0
 10
-7.638
 20
-21.3987
 30
0.0
 10
-7.1676
 20
-24.5237
 30
0.0
 10
-7.1676
 20
-24.5237
 30
0.0
 10
-7.1676
 20
-24.5237
 30
0.0
 10
-7.1676
 20
-24.5237
 30
0.0
 10
-8.177
 20
-24.5237
 30
0.0
 10
-8.177
 20
-24.5237
 30
0.0
  0
SPLINE
  5
7E
330
1F
100
AcDbEntity
  8
DEFAULT_1
 62
   250
100
AcDbSpline
210
0.0
220
0.0
230
1.0
 70
    11
 71
     3
 72
    20
 73
    16
 74
     0
 42
0.0000000001
 43
0.0000000001
 40
0.0
 40
0.0
 40
0.0
 40
0.0
 40
0.2
 40
0.2
 40
0.2
 40
0.2
 40
0.4
 40
0.4
 40
0.4
 40
0.4
 40
0.6
 40
0.6
 40
0.6
 40
0.6
 40
1.0
 40
1.0
 40
1.0
 40
1.0
 10
-7.1677
 20
-13.9903
 30
0.0
 10
-7.1677
 20
-13.9903
 30
0.0
 10
-7.6087
 20
-17.1153
 30
0.0
 10
-7.6087
 20
-17.1153
 30
0.0
 10
-7.6087
 20
-17.1153
 30
0.0
 10
-7.6087
 20
-17.1153
 30
0.0
 10
-7.7066
 20
-17.1153
 30
0.0
 10
-7.7066
 20
-17.1153
 30
0.0
 10
-7.7066
 20
-17.1153
 30
0.0
 10
-7.7066
 20
-17.1153
 30
0.0
 10
-8.177
 20
-13.9903
 30
0.0
 10
-8.177
 20
-13.9903
 30
0.0
 10
-8.177
 20
-13.9903
 30
0.0
 10
-8.177
 20
-13.9903
 30
0.0
 10
-7.1677
 20
-13.9903
 30
0.0
 10
-7.1677
 20
-13.9903
 30
0.0
  0
SPLINE
  5
7F
330
1F
100
AcDbEntity
  8
DEFAULT_1
 62
   250
100
AcDbSpline
210
0.0
220
0.0
230
1.0
 70
    11
 71
     3
 72
    84
 73
    80
 74
     0
 42
0.0000000001
 43
0.0000000001
 40
0.0
 40
0.0
 40
0.0
 40
0.0
 40
0.0476190476190476
 40
0.0476190476190476
 40
0.0476190476190476
 40
0.0476190476190476
 40
0.0952380952380952
 40
0.0952380952380952
 40
0.0952380952380952
 40
0.0952380952380952
 40
0.1428571428571428
 40
0.1428571428571428
 40
0.1428571428571428
 40
0.1428571428571428
 40
0.1904761904761905
 40
0.1904761904761905
 40
0.1904761904761905
 40
0.1904761904761905
 40
0.2380952380952381
 40
0.2380952380952381
 40
0.2380952380952381
 40
0.2380952380952381
 40
0.2857142857142857
 40
0.2857142857142857
 40
0.2857142857142857
 40
0.2857142857142857
 40
0.3333333333333333
 40
0.3333333333333333
 40
0.3333333333333333
 40
0.3333333333333333
 40
0.3809523809523809
 40
0.3809523809523809
 40
0.3809523809523809
 40
0.3809523809523809
 40
0.4285714285714285
 40
0.4285714285714285
 40
0.4285714285714285
 40
0.4285714285714285
 40
0.4761904761904762
 40
0.4761904761904762
 40
0.4761904761904762
 40
0.4761904761904762
 40
0.5238095238095238
 40
0.5238095238095238
 40
0.5238095238095238
 40
0.5238095238095238
 40
0.5714285714285714
 40
0.5714285714285714
 40
0.5714285714285714
 40
0.5714285714285714
 40
0.6190476190476191
 40
0.6190476190476191
 40
0.6190476190476191
 40
0.6190476190476191
 40
0.6666666666666666
 40
0.6666666666666666
 40
0.6666666666666666
 40
0.6666666666666666
 40
0.7142857142857143
 40
0.7142857142857143
 40
0.7142857142857143
 40
0.7142857142857143
 40
0.7619047619047619
 40
0.7619047619047619
 40
0.7619047619047619
 40
0.7619047619047619
 40
0.8095238095238095
 40
0.8095238095238095
 40
0.8095238095238095
 40
0.8095238095238095
 40
0.8571428571428571
 40
0.8571428571428571
 40
0.8571428571428571
 40
0.8571428571428571
 40
0.9047619047619048
 40
0.9047619047619048
 40
0.9047619047619048
 40
0.9047619047619048
 40
1.0
 40
1.0
 40
1.0
 40
1.0
 10
3.9893
 20
27.1231
 30
0.0
 10
3.9893
 20
27.1231
 30
0.0
 10
4.2207
 20
27.3822
 30
0.0
 10
4.2207
 20
27.3822
 30
0.0
 10
4.2207
 20
27.3822
 30
0.0
 10
4.2207
 20
27.3822
 30
0.0
 10
4.3571
 20
27.2665
 30
0.0
 10
4.3571
 20
27.2665
 30
0.0
 10
4.3571
 20
27.2665
 30
0.0
 10
4.3571
 20
27.2665
 30
0.0
 10
4.1149
 20
26.9937
 30
0.0
 10
4.1149
 20
26.9937
 30
0.0
 10
4.1149
 20
26.9937
 30
0.0
 10
4.1939
 20
26.8761
 30
0.0
 10
4.247
 20
26.7731
 30
0.0
 10
4.2748
 20
26.6852
 30
0.0
 10
4.2748
 20
26.6852
 30
0.0
 10
4.3115
 20
26.5694
 30
0.0
 10
4.3298
 20
26.4396
 30
0.0
 10
4.3298
 20
26.2966
 30
0.0
 10
4.3298
 20
26.2966
 30
0.0
 10
4.3298
 20
26.0897
 30
0.0
 10
4.288
 20
25.9053
 30
0.0
 10
4.2042
 20
25.744
 30
0.0
 10
4.2042
 20
25.744
 30
0.0
 10
4.1205
 20
25.5821
 30
0.0
 10
4.0034
 20
25.4599
 30
0.0
 10
3.8524
 20
25.3771
 30
0.0
 10
3.8524
 20
25.3771
 30
0.0
 10
3.7009
 20
25.2948
 30
0.0
 10
3.5406
 20
25.2534
 30
0.0
 10
3.3708
 20
25.2534
 30
0.0
 10
3.3708
 20
25.2534
 30
0.0
 10
3.2438
 20
25.2534
 30
0.0
 10
3.129
 20
25.2712
 30
0.0
 10
3.026
 20
25.307
 30
0.0
 10
3.026
 20
25.307
 30
0.0
 10
2.947
 20
25.3347
 30
0.0
 10
2.8548
 20
25.3874
 30
0.0
 10
2.7489
 20
25.4655
 30
0.0
 10
2.7489
 20
25.4655
 30
0.0
 10
2.7489
 20
25.4655
 30
0.0
 10
2.5175
 20
25.2063
 30
0.0
 10
2.5175
 20
25.2063
 30
0.0
 10
2.5175
 20
25.2063
 30
0.0
 10
2.5175
 20
25.2063
 30
0.0
 10
2.3811
 20
25.322
 30
0.0
 10
2.3811
 20
25.322
 30
0.0
 10
2.3811
 20
25.322
 30
0.0
 10
2.3811
 20
25.322
 30
0.0
 10
2.6238
 20
25.5934
 30
0.0
 10
2.6238
 20
25.5934
 30
0.0
 10
2.6238
 20
25.5934
 30
0.0
 10
2.5335
 20
25.7303
 30
0.0
 10
2.4733
 20
25.8474
 30
0.0
 10
2.4432
 20
25.9443
 30
0.0
 10
2.4432
 20
25.9443
 30
0.0
 10
2.4131
 20
26.0412
 30
0.0
 10
2.3976
 20
26.1579
 30
0.0
 10
2.3976
 20
26.2938
 30
0.0
 10
2.3976
 20
26.2938
 30
0.0
 10
2.3976
 20
26.5012
 30
0.0
 10
2.439
 20
26.6861
 30
0.0
 10
2.5217
 20
26.8484
 30
0.0
 10
2.5217
 20
26.8484
 30
0.0
 10
2.6045
 20
27.0107
 30
0.0
 10
2.7202
 20
27.1334
 30
0.0
 10
2.8698
 20
27.2171
 30
0.0
 10
2.8698
 20
27.2171
 30
0.0
 10
3.0189
 20
27.3004
 30
0.0
 10
3.185
 20
27.3423
 30
0.0
 10
3.3679
 20
27.3423
 30
0.0
 10
3.3679
 20
27.3423
 30
0.0
 10
3.4912
 20
27.3423
 30
0.0
 10
3.5989
 20
27.3263
 30
0.0
 10
3.6911
 20
27.2933
 30
0.0
 10
3.6911
 20
27.2933
 30
0.0
 10
3.7833
 20
27.2609
 30
0.0
 10
3.883
 20
27.204
 30
0.0
 10
3.9893
 20
27.1231
 30
0.0
  0
SPLINE
  5
80
330
1F
100
AcDbEntity
  8
DEFAULT_1
 62
   250
100
AcDbSpline
210
0.0
220
0.0
230
1.0
 70
    11
 71
     3
 72
    32
 73
    28
 74
     0
 42
0.0000000001
 43
0.0000000001
 40
0.0
 40
0.0
 40
0.0
 40
0.0
 40
0.125
 40
0.125
 40
0.125
 40
0.125
 40
0.25
 40
0.25
 40
0.25
 40
0.25
 40
0.375
 40
0.375
 40
0.375
 40
0.375
 40
0.5
 40
0.5
 40
0.5
 40
0.5
 40
0.625
 40
0.625
 40
0.625
 40
0.625
 40
0.75
 40
0.75
 40
0.75
 40
0.75
 40
1.0
 40
1.0
 40
1.0
 40
1.0
 10
3.8242
 20
26.9373
 30
0.0
 10
3.7376
 20
27.005
 30
0.0
 10
3.6619
 20
27.0516
 30
0.0
 10
3.5975
 20
27.0765
 30
0.0
 10
3.5975
 20
27.0765
 30
0.0
 10
3.5326
 20
27.101
 30
0.0
 10
3.4564
 20
27.1137
 30
0.0
 10
3.3693
 20
27.1137
 30
0.0
 10
3.3693
 20
27.1137
 30
0.0
 10
3.168
 20
27.1137
 30
0.0
 10
3.002
 20
27.0455
 30
0.0
 10
2.8703
 20
26.9091
 30
0.0
 10
2.8703
 20
26.9091
 30
0.0
 10
2.739
 20
26.7726
 30
0.0
 10
2.6732
 20
26.569
 30
0.0
 10
2.6732
 20
26.2976
 30
0.0
 10
2.6732
 20
26.2976
 30
0.0
 10
2.6732
 20
26.1913
 30
0.0
 10
2.6835
 20
26.0967
 30
0.0
 10
2.7038
 20
26.0139
 30
0.0
 10
2.7038
 20
26.0139
 30
0.0
 10
2.7184
 20
25.9523
 30
0.0
 10
2.7489
 20
25.8766
 30
0.0
 10
2.796
 20
25.7868
 30
0.0
 10
2.796
 20
25.7868
 30
0.0
 10
2.796
 20
25.7868
 30
0.0
 10
3.8242
 20
26.9373
 30
0.0
 10
3.8242
 20
26.9373
 30
0.0
  0
SPLINE
  5
81
330
1F
100
AcDbEntity
  8
DEFAULT_1
 62
   250
100
AcDbSpline
210
0.0
220
0.0
230
1.0
 70
    11
 71
     3
 72
    28
 73
    24
 74
     0
 42
0.0000000001
 43
0.0000000001
 40
0.0
 40
0.0
 40
0.0
 40
0.0
 40
0.1428571428571428
 40
0.1428571428571428
 40
0.1428571428571428
 40
0.1428571428571428
 40
0.2857142857142857
 40
0.2857142857142857
 40
0.2857142857142857
 40
0.2857142857142857
 40
0.4285714285714285
 40
0.4285714285714285
 40
0.4285714285714285
 40
0.4285714285714285
 40
0.5714285714285714
 40
0.5714285714285714
 40
0.5714285714285714
 40
0.5714285714285714
 40
0.7142857142857143
 40
0.7142857142857143
 40
0.7142857142857143
 40
0.7142857142857143
 40
1.0
 40
1.0
 40
1.0
 40
1.0
 10
3.9371
 20
26.7952
 30
0.0
 10
3.9371
 20
26.7952
 30
0.0
 10
2.9131
 20
25.6489
 30
0.0
 10
2.9131
 20
25.6489
 30
0.0
 10
2.9131
 20
25.6489
 30
0.0
 10
2.9836
 20
25.5911
 30
0.0
 10
3.049
 20
25.5506
 30
0.0
 10
3.1088
 20
25.5276
 30
0.0
 10
3.1088
 20
25.5276
 30
0.0
 10
3.1868
 20
25.497
 30
0.0
 10
3.2715
 20
25.482
 30
0.0
 10
3.3623
 20
25.482
 30
0.0
 10
3.3623
 20
25.482
 30
0.0
 10
3.5627
 20
25.482
 30
0.0
 10
3.7278
 20
25.5525
 30
0.0
 10
3.8585
 20
25.6941
 30
0.0
 10
3.8585
 20
25.6941
 30
0.0
 10
3.9888
 20
25.8357
 30
0.0
 10
4.0542
 20
26.0342
 30
0.0
 10
4.0542
 20
26.2896
 30
0.0
 10
4.0542
 20
26.2896
 30
0.0
 10
4.0542
 20
26.4805
 30
0.0
 10
4.0152
 20
26.6494
 30
0.0
 10
3.9371
 20
26.7952
 30
0.0
  0
SPLINE
  5
82
330
1F
100
AcDbEntity
  8
DEFAULT_1
 62
   250
100
AcDbSpline
210
0.0
220
0.0
230
1.0
 70
    11
 71
     3
 72
   124
 73
   120
 74
     0
 42
0.0000000001
 43
0.0000000001
 40
0.0
 40
0.0
 40
0.0
 40
0.0
 40
0.032258064516129
 40
0.032258064516129
 40
0.032258064516129
 40
0.032258064516129
 40
0.0645161290322581
 40
0.0645161290322581
 40
0.0645161290322581
 40
0.0645161290322581
 40
0.0967741935483871
 40
0.0967741935483871
 40
0.0967741935483871
 40
0.0967741935483871
 40
0.1290322580645161
 40
0.1290322580645161
 40
0.1290322580645161
 40
0.1290322580645161
 40
0.1612903225806452
 40
0.1612903225806452
 40
0.1612903225806452
 40
0.1612903225806452
 40
0.1935483870967742
 40
0.1935483870967742
 40
0.1935483870967742
 40
0.1935483870967742
 40
0.2258064516129032
 40
0.2258064516129032
 40
0.2258064516129032
 40
0.2258064516129032
 40
0.2580645161290323
 40
0.2580645161290323
 40
0.2580645161290323
 40
0.2580645161290323
 40
0.2903225806451613
 40
0.2903225806451613
 40
0.2903225806451613
 40
0.2903225806451613
 40
0.3225806451612903
 40
0.3225806451612903
 40
0.3225806451612903
 40
0.3225806451612903
 40
0.3548387096774194
 40
0.3548387096774194
 40
0.3548387096774194
 40
0.3548387096774194
 40
0.3870967741935484
 40
0.3870967741935484
 40
0.3870967741935484
 40
0.3870967741935484
 40
0.4193548387096774
 40
0.4193548387096774
 40
0.4193548387096774
 40
0.4193548387096774
 40
0.4516129032258064
 40
0.4516129032258064
 40
0.4516129032258064
 40
0.4516129032258064
 40
0.4838709677419355
 40
0.4838709677419355
 40
0.4838709677419355
 40
0.4838709677419355
 40
0.5161290322580645
 40
0.5161290322580645
 40
0.5161290322580645
 40
0.5161290322580645
 40
0.5483870967741935
 40
0.5483870967741935
 40
0.5483870967741935
 40
0.5483870967741935
 40
0.5806451612903226
 40
0.5806451612903226
 40
0.5806451612903226
 40
0.5806451612903226
 40
0.6129032258064516
 40
0.6129032258064516
 40
0.6129032258064516
 40
0.6129032258064516
 40
0.6451612903225806
 40
0.6451612903225806
 40
0.6451612903225806
 40
0.6451612903225806
 40
0.6774193548387096
 40
0.6774193548387096
 40
0.6774193548387096
 40
0.6774193548387096
 40
0.7096774193548387
 40
0.7096774193548387
 40
0.7096774193548387
 40
0.7096774193548387
 40
0.7419354838709677
 40
0.7419354838709677
 40
0.7419354838709677
 40
0.7419354838709677
 40
0.7741935483870968
 40
0.7741935483870968
 40
0.7741935483870968
 40
0.7741935483870968
 40
0.8064516129032258
 40
0.8064516129032258
 40
0.8064516129032258
 40
0.8064516129032258
 40
0.8387096774193549
 40
0.8387096774193549
 40
0.8387096774193549
 40
0.8387096774193549
 40
0.8709677419354839
 40
0.8709677419354839
 40
0.8709677419354839
 40
0.8709677419354839
 40
0.9032258064516129
 40
0.9032258064516129
 40
0.9032258064516129
 40
0.9032258064516129
 40
0.9354838709677419
 40
0.9354838709677419
 40
0.9354838709677419
 40
0.9354838709677419
 40
1.0
 40
1.0
 40
1.0
 40
1.0
 10
4.5805
 20
25.8211
 30
0.0
 10
4.5805
 20
25.8211
 30
0.0
 10
4.8284
 20
25.854
 30
0.0
 10
4.8284
 20
25.854
 30
0.0
 10
4.8284
 20
25.854
 30
0.0
 10
4.8571
 20
25.7134
 30
0.0
 10
4.9056
 20
25.6123
 30
0.0
 10
4.9738
 20
25.5502
 30
0.0
 10
4.9738
 20
25.5502
 30
0.0
 10
5.0424
 20
25.4881
 30
0.0
 10
5.1257
 20
25.457
 30
0.0
 10
5.224
 20
25.457
 30
0.0
 10
5.224
 20
25.457
 30
0.0
 10
5.3406
 20
25.457
 30
0.0
 10
5.4394
 20
25.4975
 30
0.0
 10
5.5199
 20
25.5784
 30
0.0
 10
5.5199
 20
25.5784
 30
0.0
 10
5.5998
 20
25.6593
 30
0.0
 10
5.6403
 20
25.7595
 30
0.0
 10
5.6403
 20
25.879
 30
0.0
 10
5.6403
 20
25.879
 30
0.0
 10
5.6403
 20
25.9928
 30
0.0
 10
5.6031
 20
26.0869
 30
0.0
 10
5.5288
 20
26.1607
 30
0.0
 10
5.5288
 20
26.1607
 30
0.0
 10
5.454
 20
26.2345
 30
0.0
 10
5.3595
 20
26.2717
 30
0.0
 10
5.2447
 20
26.2717
 30
0.0
 10
5.2447
 20
26.2717
 30
0.0
 10
5.1977
 20
26.2717
 30
0.0
 10
5.1393
 20
26.2623
 30
0.0
 10
5.0697
 20
26.244
 30
0.0
 10
5.0697
 20
26.244
 30
0.0
 10
5.0697
 20
26.244
 30
0.0
 10
5.0975
 20
26.4617
 30
0.0
 10
5.0975
 20
26.4617
 30
0.0
 10
5.0975
 20
26.4617
 30
0.0
 10
5.1139
 20
26.4599
 30
0.0
 10
5.1271
 20
26.4589
 30
0.0
 10
5.1374
 20
26.4589
 30
0.0
 10
5.1374
 20
26.4589
 30
0.0
 10
5.2428
 20
26.4589
 30
0.0
 10
5.3378
 20
26.4867
 30
0.0
 10
5.4225
 20
26.5417
 30
0.0
 10
5.4225
 20
26.5417
 30
0.0
 10
5.5072
 20
26.5967
 30
0.0
 10
5.5495
 20
26.6819
 30
0.0
 10
5.5495
 20
26.7966
 30
0.0
 10
5.5495
 20
26.7966
 30
0.0
 10
5.5495
 20
26.8874
 30
0.0
 10
5.5184
 20
26.9631
 30
0.0
 10
5.4568
 20
27.0224
 30
0.0
 10
5.4568
 20
27.0224
 30
0.0
 10
5.3952
 20
27.0821
 30
0.0
 10
5.3157
 20
27.1123
 30
0.0
 10
5.2183
 20
27.1123
 30
0.0
 10
5.2183
 20
27.1123
 30
0.0
 10
5.1219
 20
27.1123
 30
0.0
 10
5.0415
 20
27.0817
 30
0.0
 10
4.9775
 20
27.0215
 30
0.0
 10
4.9775
 20
27.0215
 30
0.0
 10
4.9131
 20
26.9608
 30
0.0
 10
4.8717
 20
26.8695
 30
0.0
 10
4.8533
 20
26.7482
 30
0.0
 10
4.8533
 20
26.7482
 30
0.0
 10
4.8533
 20
26.7482
 30
0.0
 10
4.6055
 20
26.7924
 30
0.0
 10
4.6055
 20
26.7924
 30
0.0
 10
4.6055
 20
26.7924
 30
0.0
 10
4.6356
 20
26.9589
 30
0.0
 10
4.7047
 20
27.0878
 30
0.0
 10
4.812
 20
27.179
 30
0.0
 10
4.812
 20
27.179
 30
0.0
 10
4.9197
 20
27.2703
 30
0.0
 10
5.0533
 20
27.3164
 30
0.0
 10
5.2132
 20
27.3164
 30
0.0
 10
5.2132
 20
27.3164
 30
0.0
 10
5.3232
 20
27.3164
 30
0.0
 10
5.4248
 20
27.2924
 30
0.0
 10
5.5175
 20
27.2454
 30
0.0
 10
5.5175
 20
27.2454
 30
0.0
 10
5.6102
 20
27.1979
 30
0.0
 10
5.6812
 20
27.1334
 30
0.0
 10
5.7306
 20
27.0516
 30
0.0
 10
5.7306
 20
27.0516
 30
0.0
 10
5.7795
 20
26.9697
 30
0.0
 10
5.8044
 20
26.8832
 30
0.0
 10
5.8044
 20
26.791
 30
0.0
 10
5.8044
 20
26.791
 30
0.0
 10
5.8044
 20
26.704
 30
0.0
 10
5.7809
 20
26.6245
 30
0.0
 10
5.7339
 20
26.5525
 30
0.0
 10
5.7339
 20
26.5525
 30
0.0
 10
5.6868
 20
26.481
 30
0.0
 10
5.6177
 20
26.4241
 30
0.0
 10
5.526
 20
26.3818
 30
0.0
 10
5.526
 20
26.3818
 30
0.0
 10
5.6454
 20
26.3545
 30
0.0
 10
5.7381
 20
26.2971
 30
0.0
 10
5.8044
 20
26.2101
 30
0.0
 10
5.8044
 20
26.2101
 30
0.0
 10
5.8703
 20
26.1235
 30
0.0
 10
5.9032
 20
26.0149
 30
0.0
 10
5.9032
 20
25.8846
 30
0.0
 10
5.9032
 20
25.8846
 30
0.0
 10
5.9032
 20
25.7082
 30
0.0
 10
5.8392
 20
25.5586
 30
0.0
 10
5.7104
 20
25.4359
 30
0.0
 10
5.7104
 20
25.4359
 30
0.0
 10
5.5819
 20
25.3131
 30
0.0
 10
5.4192
 20
25.252
 30
0.0
 10
5.2226
 20
25.252
 30
0.0
 10
5.2226
 20
25.252
 30
0.0
 10
5.0453
 20
25.252
 30
0.0
 10
4.898
 20
25.3046
 30
0.0
 10
4.7809
 20
25.4105
 30
0.0
 10
4.7809
 20
25.4105
 30
0.0
 10
4.6638
 20
25.5158
 30
0.0
 10
4.597
 20
25.6527
 30
0.0
 10
4.5805
 20
25.8211
 30
0.0
  0
SPLINE
  5
83
330
1F
100
AcDbEntity
  8
DEFAULT_1
 62
   250
100
AcDbSpline
210
0.0
220
0.0
230
1.0
 70
    11
 71
     3
 72
    48
 73
    44
 74
     0
 42
0.0000000001
 43
0.0000000001
 40
0.0
 40
0.0
 40
0.0
 40
0.0
 40
0.0833333333333333
 40
0.0833333333333333
 40
0.0833333333333333
 40
0.0833333333333333
 40
0.1666666666666667
 40
0.1666666666666667
 40
0.1666666666666667
 40
0.1666666666666667
 40
0.25
 40
0.25
 40
0.25
 40
0.25
 40
0.3333333333333333
 40
0.3333333333333333
 40
0.3333333333333333
 40
0.3333333333333333
 40
0.4166666666666667
 40
0.4166666666666667
 40
0.4166666666666667
 40
0.4166666666666667
 40
0.5
 40
0.5
 40
0.5
 40
0.5
 40
0.5833333333333334
 40
0.5833333333333334
 40
0.5833333333333334
 40
0.5833333333333334
 40
0.6666666666666666
 40
0.6666666666666666
 40
0.6666666666666666
 40
0.6666666666666666
 40
0.75
 40
0.75
 40
0.75
 40
0.75
 40
0.8333333333333334
 40
0.8333333333333334
 40
0.8333333333333334
 40
0.8333333333333334
 40
1.0
 40
1.0
 40
1.0
 40
1.0
 10
6.1652
 20
27.0431
 30
0.0
 10
6.1652
 20
27.0431
 30
0.0
 10
6.1652
 20
27.2816
 30
0.0
 10
6.1652
 20
27.2816
 30
0.0
 10
6.1652
 20
27.2816
 30
0.0
 10
6.1652
 20
27.2816
 30
0.0
 10
7.4728
 20
27.2816
 30
0.0
 10
7.4728
 20
27.2816
 30
0.0
 10
7.4728
 20
27.2816
 30
0.0
 10
7.4728
 20
27.2816
 30
0.0
 10
7.4728
 20
27.0887
 30
0.0
 10
7.4728
 20
27.0887
 30
0.0
 10
7.4728
 20
27.0887
 30
0.0
 10
7.3444
 20
26.9519
 30
0.0
 10
7.2169
 20
26.7698
 30
0.0
 10
7.0904
 20
26.5431
 30
0.0
 10
7.0904
 20
26.5431
 30
0.0
 10
6.9643
 20
26.3164
 30
0.0
 10
6.8665
 20
26.0826
 30
0.0
 10
6.7978
 20
25.8432
 30
0.0
 10
6.7978
 20
25.8432
 30
0.0
 10
6.748
 20
25.6739
 30
0.0
 10
6.7165
 20
25.489
 30
0.0
 10
6.7028
 20
25.2877
 30
0.0
 10
6.7028
 20
25.2877
 30
0.0
 10
6.7028
 20
25.2877
 30
0.0
 10
6.4479
 20
25.2877
 30
0.0
 10
6.4479
 20
25.2877
 30
0.0
 10
6.4479
 20
25.2877
 30
0.0
 10
6.4507
 20
25.4467
 30
0.0
 10
6.4817
 20
25.6386
 30
0.0
 10
6.5415
 20
25.8639
 30
0.0
 10
6.5415
 20
25.8639
 30
0.0
 10
6.6012
 20
26.0887
 30
0.0
 10
6.6868
 20
26.306
 30
0.0
 10
6.7983
 20
26.5149
 30
0.0
 10
6.7983
 20
26.5149
 30
0.0
 10
6.9102
 20
26.7237
 30
0.0
 10
7.0288
 20
26.9001
 30
0.0
 10
7.1548
 20
27.0431
 30
0.0
 10
7.1548
 20
27.0431
 30
0.0
 10
7.1548
 20
27.0431
 30
0.0
 10
6.1652
 20
27.0431
 30
0.0
 10
6.1652
 20
27.0431
 30
0.0
  0
SPLINE
  5
84
330
1F
100
AcDbEntity
  8
DEFAULT_1
 62
   250
100
AcDbSpline
210
0.0
220
0.0
230
1.0
 70
    11
 71
     3
 72
    20
 73
    16
 74
     0
 42
0.0000000001
 43
0.0000000001
 40
0.0
 40
0.0
 40
0.0
 40
0.0
 40
0.2
 40
0.2
 40
0.2
 40
0.2
 40
0.4
 40
0.4
 40
0.4
 40
0.4
 40
0.6
 40
0.6
 40
0.6
 40
0.6
 40
1.0
 40
1.0
 40
1.0
 40
1.0
 10
8.2078
 20
25.2642
 30
0.0
 10
8.2078
 20
25.2642
 30
0.0
 10
11.3329
 20
24.8232
 30
0.0
 10
11.3329
 20
24.8232
 30
0.0
 10
11.3329
 20
24.8232
 30
0.0
 10
11.3329
 20
24.8232
 30
0.0
 10
11.3329
 20
24.7252
 30
0.0
 10
11.3329
 20
24.7252
 30
0.0
 10
11.3329
 20
24.7252
 30
0.0
 10
11.3329
 20
24.7252
 30
0.0
 10
8.2078
 20
24.2549
 30
0.0
 10
8.2078
 20
24.2549
 30
0.0
 10
8.2078
 20
24.2549
 30
0.0
 10
8.2078
 20
24.2549
 30
0.0
 10
8.2078
 20
25.2642
 30
0.0
 10
8.2078
 20
25.2642
 30
0.0
  0
SPLINE
  5
85
330
1F
100
AcDbEntity
  8
DEFAULT_1
 62
   250
100
AcDbSpline
210
0.0
220
0.0
230
1.0
 70
    11
 71
     3
 72
    20
 73
    16
 74
     0
 42
0.0000000001
 43
0.0000000001
 40
0.0
 40
0.0
 40
0.0
 40
0.0
 40
0.2
 40
0.2
 40
0.2
 40
0.2
 40
0.4
 40
0.4
 40
0.4
 40
0.4
 40
0.6
 40
0.6
 40
0.6
 40
0.6
 40
1.0
 40
1.0
 40
1.0
 40
1.0
 10
0.6658
 20
24.2843
 30
0.0
 10
0.6658
 20
24.2843
 30
0.0
 10
-2.4592
 20
24.7253
 30
0.0
 10
-2.4592
 20
24.7253
 30
0.0
 10
-2.4592
 20
24.7253
 30
0.0
 10
-2.4592
 20
24.7253
 30
0.0
 10
-2.4592
 20
24.8233
 30
0.0
 10
-2.4592
 20
24.8233
 30
0.0
 10
-2.4592
 20
24.8233
 30
0.0
 10
-2.4592
 20
24.8233
 30
0.0
 10
0.6658
 20
25.2936
 30
0.0
 10
0.6658
 20
25.2936
 30
0.0
 10
0.6658
 20
25.2936
 30
0.0
 10
0.6658
 20
25.2936
 30
0.0
 10
0.6658
 20
24.2843
 30
0.0
 10
0.6658
 20
24.2843
 30
0.0
  0
SPLINE
  5
86
330
1F
100
AcDbEntity
  8
DEFAULT_1
 62
   250
100
AcDbSpline
210
0.0
220
0.0
230
1.0
 70
    24
 71
     3
 72
     8
 73
     4
 74
     0
 42
0.0000000001
 43
0.0000000001
 40
0.0
 40
0.0
 40
0.0
 40
0.0
 40
1.0
 40
1.0
 40
1.0
 40
1.0
 10
16.111
 20
17.5739
 30
0.0
 10
16.111
 20
17.5739
 30
0.0
 10
16.111
 20
30.3176
 30
0.0
 10
16.111
 20
30.3176
 30
0.0
  0
SPLINE
  5
87
330
1F
100
AcDbEntity
  8
DEFAULT_1
 62
   250
100
AcDbSpline
210
0.0
220
0.0
230
1.0
 70
    24
 71
     3
 72
     8
 73
     4
 74
     0
 42
0.0000000001
 43
0.0000000001
 40
0.0
 40
0.0
 40
0.0
 40
0.0
 40
1.0
 40
1.0
 40
1.0
 40
1.0
 10
-7.2417
 20
17.6148
 30
0.0
 10
-7.2417
 20
17.6148
 30
0.0
 10
-7.2417
 20
30.1301
 30
0.0
 10
-7.2417
 20
30.1301
 30
0.0
  0
SPLINE
  5
88
330
1F
100
AcDbEntity
  8
DEFAULT_1
 62
   250
100
AcDbSpline
210
0.0
220
0.0
230
1.0
 70
    24
 71
     3
 72
     8
 73
     4
 74
     0
 42
0.0000000001
 43
0.0000000001
 40
0.0
 40
0.0
 40
0.0
 40
0.0
 40
1.0
 40
1.0
 40
1.0
 40
1.0
 10
-6.7421
 20
29.4271
 30
0.0
 10
-6.7421
 20
29.4271
 30
0.0
 10
15.829
 20
29.4271
 30
0.0
 10
15.829
 20
29.4271
 30
0.0
  0
SPLINE
  5
89
330
1F
100
AcDbEntity
  8
DEFAULT_1
 62
   250
100
AcDbSpline
210
0.0
220
0.0
230
1.0
 70
    11
 71
     3
 72
    20
 73
    16
 74
     0
 42
0.0000000001
 43
0.0000000001
 40
0.0
 40
0.0
 40
0.0
 40
0.0
 40
0.2
 40
0.2
 40
0.2
 40
0.2
 40
0.4
 40
0.4
 40
0.4
 40
0.4
 40
0.6
 40
0.6
 40
0.6
 40
0.6
 40
1.0
 40
1.0
 40
1.0
 40
1.0
 10
12.7828
 20
29.8487
 30
0.0
 10
12.7828
 20
29.8487
 30
0.0
 10
15.9079
 20
29.4077
 30
0.0
 10
15.9079
 20
29.4077
 30
0.0
 10
15.9079
 20
29.4077
 30
0.0
 10
15.9079
 20
29.4077
 30
0.0
 10
15.9079
 20
29.3097
 30
0.0
 10
15.9079
 20
29.3097
 30
0.0
 10
15.9079
 20
29.3097
 30
0.0
 10
15.9079
 20
29.3097
 30
0.0
 10
12.7828
 20
28.8394
 30
0.0
 10
12.7828
 20
28.8394
 30
0.0
 10
12.7828
 20
28.8394
 30
0.0
 10
12.7828
 20
28.8394
 30
0.0
 10
12.7828
 20
29.8487
 30
0.0
 10
12.7828
 20
29.8487
 30
0.0
  0
SPLINE
  5
8A
330
1F
100
AcDbEntity
  8
DEFAULT_1
 62
   250
100
AcDbSpline
210
0.0
220
0.0
230
1.0
 70
    11
 71
     3
 72
    20
 73
    16
 74
     0
 42
0.0000000001
 43
0.0000000001
 40
0.0
 40
0.0
 40
0.0
 40
0.0
 40
0.2
 40
0.2
 40
0.2
 40
0.2
 40
0.4
 40
0.4
 40
0.4
 40
0.4
 40
0.6
 40
0.6
 40
0.6
 40
0.6
 40
1.0
 40
1.0
 40
1.0
 40
1.0
 10
-4.0776
 20
28.9225
 30
0.0
 10
-4.0776
 20
28.9225
 30
0.0
 10
-7.2026
 20
29.3635
 30
0.0
 10
-7.2026
 20
29.3635
 30
0.0
 10
-7.2026
 20
29.3635
 30
0.0
 10
-7.2026
 20
29.3635
 30
0.0
 10
-7.2026
 20
29.4615
 30
0.0
 10
-7.2026
 20
29.4615
 30
0.0
 10
-7.2026
 20
29.4615
 30
0.0
 10
-7.2026
 20
29.4615
 30
0.0
 10
-4.0776
 20
29.9318
 30
0.0
 10
-4.0776
 20
29.9318
 30
0.0
 10
-4.0776
 20
29.9318
 30
0.0
 10
-4.0776
 20
29.9318
 30
0.0
 10
-4.0776
 20
28.9225
 30
0.0
 10
-4.0776
 20
28.9225
 30
0.0
  0
SPLINE
  5
8B
330
1F
100
AcDbEntity
  8
DEFAULT_1
 62
   250
100
AcDbSpline
210
0.0
220
0.0
230
1.0
 70
    24
 71
     3
 72
     8
 73
     4
 74
     0
 42
0.0000000001
 43
0.0000000001
 40
0.0
 40
0.0
 40
0.0
 40
0.0
 40
1.0
 40
1.0
 40
1.0
 40
1.0
 10
-3.2042
 20
-17.6064
 30
0.0
 10
-3.2042
 20
-17.6064
 30
0.0
 10
12.2185
 20
-17.2232
 30
0.0
 10
12.2185
 20
-17.2232
 30
0.0
  0
SPLINE
  5
8C
330
1F
100
AcDbEntity
  8
DEFAULT_1
 62
   250
100
AcDbSpline
210
0.0
220
0.0
230
1.0
 70
    24
 71
     3
 72
     8
 73
     4
 74
     0
 42
0.0000000001
 43
0.0000000001
 40
0.0
 40
0.0
 40
0.0
 40
0.0
 40
1.0
 40
1.0
 40
1.0
 40
1.0
 10
-3.2042
 20
-20.8194
 30
0.0
 10
-3.2042
 20
-20.8194
 30
0.0
 10
12.2185
 20
-20.4362
 30
0.0
 10
12.2185
 20
-20.4362
 30
0.0
  0
SPLINE
  5
8D
330
1F
100
AcDbEntity
  8
DEFAULT_1
 62
   250
100
AcDbSpline
210
0.0
220
0.0
230
1.0
 70
    24
 71
     3
 72
     8
 73
     4
 74
     0
 42
0.0000000001
 43
0.0000000001
 40
0.0
 40
0.0
 40
0.0
 40
0.0
 40
1.0
 40
1.0
 40
1.0
 40
1.0
 10
-3.2042
 20
-19.6746
 30
0.0
 10
-3.2042
 20
-19.6746
 30
0.0
 10
12.2185
 20
-19.2914
 30
0.0
 10
12.2185
 20
-19.2914
 30
0.0
  0
SPLINE
  5
8E
330
1F
100
AcDbEntity
  8
DEFAULT_1
 62
   250
100
AcDbSpline
210
0.0
220
0.0
230
1.0
 70
    24
 71
     3
 72
     8
 73
     4
 74
     0
 42
0.0000000001
 43
0.0000000001
 40
0.0
 40
0.0
 40
0.0
 40
0.0
 40
1.0
 40
1.0
 40
1.0
 40
1.0
 10
-3.2449
 20
-18.6609
 30
0.0
 10
-3.2449
 20
-18.6609
 30
0.0
 10
12.1778
 20
-18.2777
 30
0.0
 10
12.1778
 20
-18.2777
 30
0.0
  0
SPLINE
  5
8F
330
1F
100
AcDbEntity
  8
DEFAULT_1
 62
   250
100
AcDbSpline
210
0.0
220
0.0
230
1.0
 70
    24
 71
     3
 72
     8
 73
     4
 74
     0
 42
0.0000000001
 43
0.0000000001
 40
0.0
 40
0.0
 40
0.0
 40
0.0
 40
1.0
 40
1.0
 40
1.0
 40
1.0
 10
-3.047
 20
15.0037
 30
0.0
 10
-3.047
 20
15.0037
 30
0.0
 10
10.9676
 20
15.5983
 30
0.0
 10
10.9676
 20
15.5983
 30
0.0
  0
SPLINE
  5
90
330
1F
100
AcDbEntity
  8
DEFAULT_1
 62
   250
100
AcDbSpline
210
0.0
220
0.0
230
1.0
 70
    24
 71
     3
 72
     8
 73
     4
 74
     0
 42
0.0000000001
 43
0.0000000001
 40
0.0
 40
0.0
 40
0.0
 40
0.0
 40
1.0
 40
1.0
 40
1.0
 40
1.0
 10
9.4705
 20
7.3195
 30
0.0
 10
9.4705
 20
7.3195
 30
0.0
 10
11.9594
 20
7.4253
 30
0.0
 10
11.9594
 20
7.4253
 30
0.0
  0
SPLINE
  5
91
330
1F
100
AcDbEntity
  8
DEFAULT_1
 62
   250
100
AcDbSpline
210
0.0
220
0.0
230
1.0
 70
    24
 71
     3
 72
     8
 73
     4
 74
     0
 42
0.0000000001
 43
0.0000000001
 40
0.0
 40
0.0
 40
0.0
 40
0.0
 40
1.0
 40
1.0
 40
1.0
 40
1.0
 10
-3.1205
 20
6.7856
 30
0.0
 10
-3.1205
 20
6.7856
 30
0.0
 10
-0.4573
 20
6.8994
 30
0.0
 10
-0.4573
 20
6.8994
 30
0.0
  0
SPLINE
  5
92
330
1F
100
AcDbEntity
  8
DEFAULT_1
 62
   250
100
AcDbSpline
210
0.0
220
0.0
230
1.0
 70
    24
 71
     3
 72
     8
 73
     4
 74
     0
 42
0.0000000001
 43
0.0000000001
 40
0.0
 40
0.0
 40
0.0
 40
0.0
 40
1.0
 40
1.0
 40
1.0
 40
1.0
 10
-3.0525
 20
7.947
 30
0.0
 10
-3.0525
 20
7.947
 30
0.0
 10
-0.5481
 20
8.053
 30
0.0
 10
-0.5481
 20
8.053
 30
0.0
  0
SPLINE
  5
93
330
1F
100
AcDbEntity
  8
DEFAULT_1
 62
   250
100
AcDbSpline
210
0.0
220
0.0
230
1.0
 70
    24
 71
     3
 72
     8
 73
     4
 74
     0
 42
0.0000000001
 43
0.0000000001
 40
0.0
 40
0.0
 40
0.0
 40
0.0
 40
1.0
 40
1.0
 40
1.0
 40
1.0
 10
9.4963
 20
8.4799
 30
0.0
 10
9.4963
 20
8.4799
 30
0.0
 10
11.9251
 20
8.5824
 30
0.0
 10
11.9251
 20
8.5824
 30
0.0
  0
SPLINE
  5
94
330
1F
100
AcDbEntity
  8
DEFAULT_1
 62
   250
100
AcDbSpline
210
0.0
220
0.0
230
1.0
 70
    24
 71
     3
 72
     8
 73
     4
 74
     0
 42
0.0000000001
 43
0.0000000001
 40
0.0
 40
0.0
 40
0.0
 40
0.0
 40
1.0
 40
1.0
 40
1.0
 40
1.0
 10
9.5229
 20
9.5871
 30
0.0
 10
9.5229
 20
9.5871
 30
0.0
 10
11.9318
 20
9.6903
 30
0.0
 10
11.9318
 20
9.6903
 30
0.0
  0
SPLINE
  5
95
330
1F
100
AcDbEntity
  8
DEFAULT_1
 62
   250
100
AcDbSpline
210
0.0
220
0.0
230
1.0
 70
    24
 71
     3
 72
     8
 73
     4
 74
     0
 42
0.0000000001
 43
0.0000000001
 40
0.0
 40
0.0
 40
0.0
 40
0.0
 40
1.0
 40
1.0
 40
1.0
 40
1.0
 10
-3.0936
 20
9.0529
 30
0.0
 10
-3.0936
 20
9.0529
 30
0.0
 10
-0.5105
 20
9.1626
 30
0.0
 10
-0.5105
 20
9.1626
 30
0.0
  0
SPLINE
  5
96
330
1F
100
AcDbEntity
  8
DEFAULT_1
 62
   250
100
AcDbSpline
210
0.0
220
0.0
230
1.0
 70
    24
 71
     3
 72
     8
 73
     4
 74
     0
 42
0.0000000001
 43
0.0000000001
 40
0.0
 40
0.0
 40
0.0
 40
0.0
 40
1.0
 40
1.0
 40
1.0
 40
1.0
 10
-3.1157
 20
10.1495
 30
0.0
 10
-3.1157
 20
10.1495
 30
0.0
 10
12.0219
 20
10.7917
 30
0.0
 10
12.0219
 20
10.7917
 30
0.0
  0
SPLINE
  5
97
330
1F
100
AcDbEntity
  8
DEFAULT_1
 62
   250
100
AcDbSpline
210
0.0
220
0.0
230
1.0
 70
    24
 71
     3
 72
     8
 73
     4
 74
     0
 42
0.0000000001
 43
0.0000000001
 40
0.0
 40
0.0
 40
0.0
 40
0.0
 40
1.0
 40
1.0
 40
1.0
 40
1.0
 10
-3.1537
 20
11.1348
 30
0.0
 10
-3.1537
 20
11.1348
 30
0.0
 10
11.9839
 20
11.777
 30
0.0
 10
11.9839
 20
11.777
 30
0.0
  0
SPLINE
  5
98
330
1F
100
AcDbEntity
  8
DEFAULT_1
 62
   250
100
AcDbSpline
210
0.0
220
0.0
230
1.0
 70
    24
 71
     3
 72
     8
 73
     4
 74
     0
 42
0.0000000001
 43
0.0000000001
 40
0.0
 40
0.0
 40
0.0
 40
0.0
 40
1.0
 40
1.0
 40
1.0
 40
1.0
 10
-3.1537
 20
13.0351
 30
0.0
 10
-3.1537
 20
13.0351
 30
0.0
 10
11.9839
 20
13.677
 30
0.0
 10
11.9839
 20
13.677
 30
0.0
  0
SPLINE
  5
99
330
1F
100
AcDbEntity
  8
DEFAULT_1
 62
   250
100
AcDbSpline
210
0.0
220
0.0
230
1.0
 70
    24
 71
     3
 72
     8
 73
     4
 74
     0
 42
0.0000000001
 43
0.0000000001
 40
0.0
 40
0.0
 40
0.0
 40
0.0
 40
1.0
 40
1.0
 40
1.0
 40
1.0
 10
-2.9337
 20
14.1149
 30
0.0
 10
-2.9337
 20
14.1149
 30
0.0
 10
12.0235
 20
14.7495
 30
0.0
 10
12.0235
 20
14.7495
 30
0.0
  0
SPLINE
  5
9A
330
1F
100
AcDbEntity
  8
DEFAULT_1
 62
   250
100
AcDbSpline
210
0.0
220
0.0
230
1.0
 70
    24
 71
     3
 72
     8
 73
     4
 74
     0
 42
0.0000000001
 43
0.0000000001
 40
0.0
 40
0.0
 40
0.0
 40
0.0
 40
1.0
 40
1.0
 40
1.0
 40
1.0
 10
9.5618
 20
6.4419
 30
0.0
 10
9.5618
 20
6.4419
 30
0.0
 10
12.0518
 20
6.5475
 30
0.0
 10
12.0518
 20
6.5475
 30
0.0
  0
SPLINE
  5
9B
330
1F
100
AcDbEntity
  8
DEFAULT_1
 62
   250
100
AcDbSpline
210
0.0
220
0.0
230
1.0
 70
     8
 71
     3
 72
    40
 73
    36
 74
     0
 42
0.0000000001
 43
0.0000000001
 40
0.0
 40
0.0
 40
0.0
 40
0.0
 40
0.1
 40
0.1
 40
0.1
 40
0.1
 40
0.2
 40
0.2
 40
0.2
 40
0.2
 40
0.3
 40
0.3
 40
0.3
 40
0.3
 40
0.4
 40
0.4
 40
0.4
 40
0.4
 40
0.5
 40
0.5
 40
0.5
 40
0.5
 40
0.6
 40
0.6
 40
0.6
 40
0.6
 40
0.7
 40
0.7
 40
0.7
 40
0.7
 40
0.8
 40
0.8
 40
0.8
 40
0.8
 40
1.0
 40
1.0
 40
1.0
 40
1.0
 10
-4.0668
 20
1.0772
 30
0.0
 10
-4.0668
 20
1.0772
 30
0.0
 10
-4.043
 20
-16.7652
 30
0.0
 10
-4.043
 20
-16.7652
 30
0.0
 10
-4.043
 20
-16.7652
 30
0.0
 10
-4.043
 20
-16.7652
 30
0.0
 10
-3.2794
 20
-17.1636
 30
0.0
 10
-3.2794
 20
-17.1636
 30
0.0
 10
-3.2794
 20
-17.1636
 30
0.0
 10
-3.2794
 20
-17.1636
 30
0.0
 10
-3.2794
 20
-20.8488
 30
0.0
 10
-3.2794
 20
-20.8488
 30
0.0
 10
-3.2794
 20
-20.8488
 30
0.0
 10
-3.2794
 20
-20.8488
 30
0.0
 10
-2.9236
 20
-21.2712
 30
0.0
 10
-2.9236
 20
-21.2712
 30
0.0
 10
-2.9236
 20
-21.2712
 30
0.0
 10
-2.9236
 20
-21.2712
 30
0.0
 10
11.8674
 20
-21.2712
 30
0.0
 10
11.8674
 20
-21.2712
 30
0.0
 10
11.8674
 20
-21.2712
 30
0.0
 10
11.8674
 20
-21.2712
 30
0.0
 10
12.2995
 20
-20.9539
 30
0.0
 10
12.2995
 20
-20.9539
 30
0.0
 10
12.2995
 20
-20.9539
 30
0.0
 10
12.2995
 20
-20.9539
 30
0.0
 10
12.2995
 20
-17.1502
 30
0.0
 10
12.2995
 20
-17.1502
 30
0.0
 10
12.2995
 20
-17.1502
 30
0.0
 10
12.2995
 20
-17.1502
 30
0.0
 10
13.1175
 20
-16.823
 30
0.0
 10
13.1175
 20
-16.823
 30
0.0
 10
13.1175
 20
-16.823
 30
0.0
 10
13.1175
 20
-16.823
 30
0.0
 10
13.0357
 20
1.1321
 30
0.0
 10
13.0357
 20
1.1321
 30
0.0
  0
SPLINE
  5
9C
330
1F
100
AcDbEntity
  8
DEFAULT_1
 62
   250
100
AcDbSpline
210
0.0
220
0.0
230
1.0
 70
    11
 71
     3
 72
   128
 73
   124
 74
     0
 42
0.0000000001
 43
0.0000000001
 40
0.0
 40
0.0
 40
0.0
 40
0.0
 40
0.03125
 40
0.03125
 40
0.03125
 40
0.03125
 40
0.0625
 40
0.0625
 40
0.0625
 40
0.0625
 40
0.09375
 40
0.09375
 40
0.09375
 40
0.09375
 40
0.125
 40
0.125
 40
0.125
 40
0.125
 40
0.15625
 40
0.15625
 40
0.15625
 40
0.15625
 40
0.1875
 40
0.1875
 40
0.1875
 40
0.1875
 40
0.21875
 40
0.21875
 40
0.21875
 40
0.21875
 40
0.25
 40
0.25
 40
0.25
 40
0.25
 40
0.28125
 40
0.28125
 40
0.28125
 40
0.28125
 40
0.3125
 40
0.3125
 40
0.3125
 40
0.3125
 40
0.34375
 40
0.34375
 40
0.34375
 40
0.34375
 40
0.375
 40
0.375
 40
0.375
 40
0.375
 40
0.40625
 40
0.40625
 40
0.40625
 40
0.40625
 40
0.4375
 40
0.4375
 40
0.4375
 40
0.4375
 40
0.46875
 40
0.46875
 40
0.46875
 40
0.46875
 40
0.5
 40
0.5
 40
0.5
 40
0.5
 40
0.53125
 40
0.53125
 40
0.53125
 40
0.53125
 40
0.5625
 40
0.5625
 40
0.5625
 40
0.5625
 40
0.59375
 40
0.59375
 40
0.59375
 40
0.59375
 40
0.625
 40
0.625
 40
0.625
 40
0.625
 40
0.65625
 40
0.65625
 40
0.65625
 40
0.65625
 40
0.6875
 40
0.6875
 40
0.6875
 40
0.6875
 40
0.71875
 40
0.71875
 40
0.71875
 40
0.71875
 40
0.75
 40
0.75
 40
0.75
 40
0.75
 40
0.78125
 40
0.78125
 40
0.78125
 40
0.78125
 40
0.8125
 40
0.8125
 40
0.8125
 40
0.8125
 40
0.84375
 40
0.84375
 40
0.84375
 40
0.84375
 40
0.875
 40
0.875
 40
0.875
 40
0.875
 40
0.90625
 40
0.90625
 40
0.90625
 40
0.90625
 40
0.9375
 40
0.9375
 40
0.9375
 40
0.9375
 40
1.0
 40
1.0
 40
1.0
 40
1.0
 10
-1.0022
 20
3.5993
 30
0.0
 10
-1.0022
 20
3.5993
 30
0.0
 10
-1.551
 20
3.4943
 30
0.0
 10
-1.551
 20
3.4943
 30
0.0
 10
-1.551
 20
3.4943
 30
0.0
 10
-1.551
 20
3.4943
 30
0.0
 10
-2.0967
 20
3.4221
 30
0.0
 10
-2.0967
 20
3.4221
 30
0.0
 10
-2.0967
 20
3.4221
 30
0.0
 10
-2.0967
 20
3.4221
 30
0.0
 10
-2.6439
 20
3.3851
 30
0.0
 10
-2.6439
 20
3.3851
 30
0.0
 10
-2.6439
 20
3.3851
 30
0.0
 10
-2.6439
 20
3.3851
 30
0.0
 10
-3.1923
 20
3.3851
 30
0.0
 10
-3.1923
 20
3.3851
 30
0.0
 10
-3.1923
 20
3.3851
 30
0.0
 10
-3.1923
 20
3.3851
 30
0.0
 10
-3.7395
 20
3.4221
 30
0.0
 10
-3.7395
 20
3.4221
 30
0.0
 10
-3.7395
 20
3.4221
 30
0.0
 10
-3.7395
 20
3.4221
 30
0.0
 10
-4.2852
 20
3.4943
 30
0.0
 10
-4.2852
 20
3.4943
 30
0.0
 10
-4.2852
 20
3.4943
 30
0.0
 10
-4.2852
 20
3.4943
 30
0.0
 10
-4.834
 20
3.5993
 30
0.0
 10
-4.834
 20
3.5993
 30
0.0
 10
-4.834
 20
3.5993
 30
0.0
 10
-4.834
 20
3.5993
 30
0.0
 10
-6.6186
 20
4.0234
 30
0.0
 10
-6.6186
 20
4.0234
 30
0.0
 10
-6.6186
 20
4.0234
 30
0.0
 10
-6.6186
 20
4.0234
 30
0.0
 10
-6.7783
 20
4.1568
 30
0.0
 10
-6.7783
 20
4.1568
 30
0.0
 10
-6.7783
 20
4.1568
 30
0.0
 10
-6.7783
 20
4.1568
 30
0.0
 10
-6.8582
 20
4.4236
 30
0.0
 10
-6.8582
 20
4.4236
 30
0.0
 10
-6.8582
 20
4.4236
 30
0.0
 10
-6.8582
 20
4.4236
 30
0.0
 10
-6.8849
 20
4.6104
 30
0.0
 10
-6.8849
 20
4.6104
 30
0.0
 10
-6.8849
 20
4.6104
 30
0.0
 10
-6.8849
 20
4.6104
 30
0.0
 10
-6.7517
 20
4.7971
 30
0.0
 10
-6.7517
 20
4.7971
 30
0.0
 10
-6.7517
 20
4.7971
 30
0.0
 10
-6.7517
 20
4.7971
 30
0.0
 10
-6.5387
 20
4.9305
 30
0.0
 10
-6.5387
 20
4.9305
 30
0.0
 10
-6.5387
 20
4.9305
 30
0.0
 10
-6.5387
 20
4.9305
 30
0.0
 10
15.5886
 20
4.9038
 30
0.0
 10
15.5886
 20
4.9038
 30
0.0
 10
15.5886
 20
4.9038
 30
0.0
 10
15.5886
 20
4.9038
 30
0.0
 10
15.8016
 20
4.7704
 30
0.0
 10
15.8016
 20
4.7704
 30
0.0
 10
15.8016
 20
4.7704
 30
0.0
 10
15.8016
 20
4.7704
 30
0.0
 10
15.8549
 20
4.5036
 30
0.0
 10
15.8549
 20
4.5036
 30
0.0
 10
15.8549
 20
4.5036
 30
0.0
 10
15.8549
 20
4.5036
 30
0.0
 10
15.7484
 20
4.1568
 30
0.0
 10
15.7484
 20
4.1568
 30
0.0
 10
15.7484
 20
4.1568
 30
0.0
 10
15.7484
 20
4.1568
 30
0.0
 10
15.4288
 20
3.9967
 30
0.0
 10
15.4288
 20
3.9967
 30
0.0
 10
15.4288
 20
3.9967
 30
0.0
 10
15.4288
 20
3.9967
 30
0.0
 10
12.7128
 20
3.4097
 30
0.0
 10
12.7128
 20
3.4097
 30
0.0
 10
12.7128
 20
3.4097
 30
0.0
 10
12.7128
 20
3.4097
 30
0.0
 10
12.0738
 20
3.3296
 30
0.0
 10
12.0738
 20
3.3296
 30
0.0
 10
12.0738
 20
3.3296
 30
0.0
 10
12.0738
 20
3.3296
 30
0.0
 10
11.1685
 20
3.3563
 30
0.0
 10
11.1685
 20
3.3563
 30
0.0
 10
11.1685
 20
3.3563
 30
0.0
 10
11.1685
 20
3.3563
 30
0.0
 10
10.1832
 20
3.5698
 30
0.0
 10
10.1832
 20
3.5698
 30
0.0
 10
10.1832
 20
3.5698
 30
0.0
 10
10.1832
 20
3.5698
 30
0.0
 10
9.5176
 20
3.6498
 30
0.0
 10
9.5176
 20
3.6498
 30
0.0
 10
9.5176
 20
3.6498
 30
0.0
 10
9.5176
 20
3.6498
 30
0.0
 10
8.6921
 20
3.6765
 30
0.0
 10
8.6921
 20
3.6765
 30
0.0
 10
8.6921
 20
3.6765
 30
0.0
 10
8.6921
 20
3.6765
 30
0.0
 10
7.7335
 20
3.5698
 30
0.0
 10
7.7335
 20
3.5698
 30
0.0
 10
7.7335
 20
3.5698
 30
0.0
 10
7.7335
 20
3.5698
 30
0.0
 10
5.6566
 20
3.383
 30
0.0
 10
5.6566
 20
3.383
 30
0.0
 10
5.6566
 20
3.383
 30
0.0
 10
5.6566
 20
3.383
 30
0.0
 10
4.1122
 20
3.3563
 30
0.0
 10
4.1122
 20
3.3563
 30
0.0
 10
4.1122
 20
3.3563
 30
0.0
 10
4.1122
 20
3.3563
 30
0.0
 10
1.7956
 20
3.4897
 30
0.0
 10
1.7956
 20
3.4897
 30
0.0
 10
1.7956
 20
3.4897
 30
0.0
 10
1.7956
 20
3.4897
 30
0.0
 10
0.5175
 20
3.6765
 30
0.0
 10
0.5175
 20
3.6765
 30
0.0
 10
0.5175
 20
3.6765
 30
0.0
 10
0.5175
 20
3.6765
 30
0.0
 10
-0.4943
 20
3.7032
 30
0.0
 10
-0.4943
 20
3.7032
 30
0.0
 10
-0.4943
 20
3.7032
 30
0.0
 10
-0.4943
 20
3.7032
 30
0.0
 10
-1.0022
 20
3.5993
 30
0.0
 10
-1.0022
 20
3.5993
 30
0.0
  0
SPLINE
  5
9D
330
1F
100
AcDbEntity
  8
DEFAULT_1
 62
   250
100
AcDbSpline
210
0.0
220
0.0
230
1.0
 70
     8
 71
     3
 72
    32
 73
    28
 74
     0
 42
0.0000000001
 43
0.0000000001
 40
0.0
 40
0.0
 40
0.0
 40
0.0
 40
0.125
 40
0.125
 40
0.125
 40
0.125
 40
0.25
 40
0.25
 40
0.25
 40
0.25
 40
0.375
 40
0.375
 40
0.375
 40
0.375
 40
0.5
 40
0.5
 40
0.5
 40
0.5
 40
0.625
 40
0.625
 40
0.625
 40
0.625
 40
0.75
 40
0.75
 40
0.75
 40
0.75
 40
1.0
 40
1.0
 40
1.0
 40
1.0
 10
-5.0722
 20
3.6196
 30
0.0
 10
-5.0722
 20
3.6196
 30
0.0
 10
-5.088
 20
1.1049
 30
0.0
 10
-5.088
 20
1.1049
 30
0.0
 10
-5.088
 20
1.1049
 30
0.0
 10
-5.088
 20
1.1049
 30
0.0
 10
-1.0022
 20
1.1049
 30
0.0
 10
-1.0022
 20
1.1049
 30
0.0
 10
-1.0022
 20
1.1049
 30
0.0
 10
-1.0022
 20
1.1049
 30
0.0
 10
0.64
 20
1.1049
 30
0.0
 10
0.64
 20
1.1049
 30
0.0
 10
0.64
 20
1.1049
 30
0.0
 10
0.64
 20
1.1049
 30
0.0
 10
8.3037
 20
1.1049
 30
0.0
 10
8.3037
 20
1.1049
 30
0.0
 10
8.3037
 20
1.1049
 30
0.0
 10
8.3037
 20
1.1049
 30
0.0
 10
9.946
 20
1.1049
 30
0.0
 10
9.946
 20
1.1049
 30
0.0
 10
9.946
 20
1.1049
 30
0.0
 10
9.946
 20
1.1049
 30
0.0
 10
14.0318
 20
1.1049
 30
0.0
 10
14.0318
 20
1.1049
 30
0.0
 10
14.0318
 20
1.1049
 30
0.0
 10
14.0318
 20
1.1049
 30
0.0
 10
14.0178
 20
3.6196
 30
0.0
 10
14.0178
 20
3.6196
 30
0.0
  0
SPLINE
  5
9E
330
1F
100
AcDbEntity
  8
DEFAULT_1
 62
   250
100
AcDbSpline
210
0.0
220
0.0
230
1.0
 70
    27
 71
     3
 72
    12
 73
     8
 74
     0
 42
0.0000000001
 43
0.0000000001
 40
0.0
 40
0.0
 40
0.0
 40
0.0
 40
0.3333333333333333
 40
0.3333333333333333
 40
0.3333333333333333
 40
0.3333333333333333
 40
1.0
 40
1.0
 40
1.0
 40
1.0
 10
-3.3028
 20
-17.0994
 30
0.0
 10
-3.3028
 20
-17.0994
 30
0.0
 10
12.2466
 20
-17.0994
 30
0.0
 10
12.2466
 20
-17.0994
 30
0.0
 10
12.2466
 20
-17.0994
 30
0.0
 10
12.2466
 20
-17.0994
 30
0.0
 10
-3.3028
 20
-17.0994
 30
0.0
 10
-3.3028
 20
-17.0994
 30
0.0
  0
SPLINE
  5
9F
330
1F
100
AcDbEntity
  8
DEFAULT_1
 62
   250
100
AcDbSpline
210
0.0
220
0.0
230
1.0
 70
    27
 71
     3
 72
    12
 73
     8
 74
     0
 42
0.0000000001
 43
0.0000000001
 40
0.0
 40
0.0
 40
0.0
 40
0.0
 40
0.3333333333333333
 40
0.3333333333333333
 40
0.3333333333333333
 40
0.3333333333333333
 40
1.0
 40
1.0
 40
1.0
 40
1.0
 10
-1.0022
 20
3.5993
 30
0.0
 10
-1.0022
 20
3.5993
 30
0.0
 10
-1.0022
 20
1.1049
 30
0.0
 10
-1.0022
 20
1.1049
 30
0.0
 10
-1.0022
 20
1.1049
 30
0.0
 10
-1.0022
 20
1.1049
 30
0.0
 10
-1.0022
 20
3.5993
 30
0.0
 10
-1.0022
 20
3.5993
 30
0.0
  0
SPLINE
  5
A0
330
1F
100
AcDbEntity
  8
DEFAULT_1
 62
   250
100
AcDbSpline
210
0.0
220
0.0
230
1.0
 70
    27
 71
     3
 72
    20
 73
    16
 74
     0
 42
0.0000000001
 43
0.0000000001
 40
0.0
 40
0.0
 40
0.0
 40
0.0
 40
0.2
 40
0.2
 40
0.2
 40
0.2
 40
0.4
 40
0.4
 40
0.4
 40
0.4
 40
0.6
 40
0.6
 40
0.6
 40
0.6
 40
1.0
 40
1.0
 40
1.0
 40
1.0
 10
8.3037
 20
3.5993
 30
0.0
 10
8.3037
 20
3.5993
 30
0.0
 10
8.3037
 20
1.1168
 30
0.0
 10
8.3037
 20
1.1168
 30
0.0
 10
8.3037
 20
1.1168
 30
0.0
 10
8.3037
 20
1.1168
 30
0.0
 10
8.3037
 20
1.1049
 30
0.0
 10
8.3037
 20
1.1049
 30
0.0
 10
8.3037
 20
1.1049
 30
0.0
 10
8.3037
 20
1.1049
 30
0.0
 10
8.3037
 20
1.1168
 30
0.0
 10
8.3037
 20
1.1168
 30
0.0
 10
8.3037
 20
1.1168
 30
0.0
 10
8.3037
 20
1.1168
 30
0.0
 10
8.3037
 20
3.5993
 30
0.0
 10
8.3037
 20
3.5993
 30
0.0
  0
SPLINE
  5
A1
330
1F
100
AcDbEntity
  8
DEFAULT_1
 62
   250
100
AcDbSpline
210
0.0
220
0.0
230
1.0
 70
    27
 71
     3
 72
    12
 73
     8
 74
     0
 42
0.0000000001
 43
0.0000000001
 40
0.0
 40
0.0
 40
0.0
 40
0.0
 40
0.3333333333333333
 40
0.3333333333333333
 40
0.3333333333333333
 40
0.3333333333333333
 40
1.0
 40
1.0
 40
1.0
 40
1.0
 10
0.64
 20
3.5993
 30
0.0
 10
0.64
 20
3.5993
 30
0.0
 10
0.64
 20
1.1049
 30
0.0
 10
0.64
 20
1.1049
 30
0.0
 10
0.64
 20
1.1049
 30
0.0
 10
0.64
 20
1.1049
 30
0.0
 10
0.64
 20
3.5993
 30
0.0
 10
0.64
 20
3.5993
 30
0.0
  0
SPLINE
  5
A2
330
1F
100
AcDbEntity
  8
DEFAULT_1
 62
   250
100
AcDbSpline
210
0.0
220
0.0
230
1.0
 70
    27
 71
     3
 72
    20
 73
    16
 74
     0
 42
0.0000000001
 43
0.0000000001
 40
0.0
 40
0.0
 40
0.0
 40
0.0
 40
0.2
 40
0.2
 40
0.2
 40
0.2
 40
0.4
 40
0.4
 40
0.4
 40
0.4
 40
0.6
 40
0.6
 40
0.6
 40
0.6
 40
1.0
 40
1.0
 40
1.0
 40
1.0
 10
9.946
 20
3.5993
 30
0.0
 10
9.946
 20
3.5993
 30
0.0
 10
9.946
 20
1.1221
 30
0.0
 10
9.946
 20
1.1221
 30
0.0
 10
9.946
 20
1.1221
 30
0.0
 10
9.946
 20
1.1221
 30
0.0
 10
9.946
 20
1.1049
 30
0.0
 10
9.946
 20
1.1049
 30
0.0
 10
9.946
 20
1.1049
 30
0.0
 10
9.946
 20
1.1049
 30
0.0
 10
9.946
 20
1.1221
 30
0.0
 10
9.946
 20
1.1221
 30
0.0
 10
9.946
 20
1.1221
 30
0.0
 10
9.946
 20
1.1221
 30
0.0
 10
9.946
 20
3.5993
 30
0.0
 10
9.946
 20
3.5993
 30
0.0
  0
SPLINE
  5
A3
330
1F
100
AcDbEntity
  8
DEFAULT_1
 62
   250
100
AcDbSpline
210
0.0
220
0.0
230
1.0
 70
    11
 71
     3
 72
    20
 73
    16
 74
     0
 42
0.0000000001
 43
0.0000000001
 40
0.0
 40
0.0
 40
0.0
 40
0.0
 40
0.2
 40
0.2
 40
0.2
 40
0.2
 40
0.4
 40
0.4
 40
0.4
 40
0.4
 40
0.6
 40
0.6
 40
0.6
 40
0.6
 40
1.0
 40
1.0
 40
1.0
 40
1.0
 10
-6.865
 20
6.1972
 30
0.0
 10
-6.865
 20
6.1972
 30
0.0
 10
15.8438
 20
6.1972
 30
0.0
 10
15.8438
 20
6.1972
 30
0.0
 10
15.8438
 20
6.1972
 30
0.0
 10
15.8438
 20
6.1972
 30
0.0
 10
15.8438
 20
5.512
 30
0.0
 10
15.8438
 20
5.512
 30
0.0
 10
15.8438
 20
5.512
 30
0.0
 10
15.8438
 20
5.512
 30
0.0
 10
-6.865
 20
5.512
 30
0.0
 10
-6.865
 20
5.512
 30
0.0
 10
-6.865
 20
5.512
 30
0.0
 10
-6.865
 20
5.512
 30
0.0
 10
-6.865
 20
6.1972
 30
0.0
 10
-6.865
 20
6.1972
 30
0.0
  0
SPLINE
  5
A4
330
1F
100
AcDbEntity
  8
DEFAULT_1
 62
   250
100
AcDbSpline
210
0.0
220
0.0
230
1.0
 70
    11
 71
     3
 72
    20
 73
    16
 74
     0
 42
0.0000000001
 43
0.0000000001
 40
0.0
 40
0.0
 40
0.0
 40
0.0
 40
0.2
 40
0.2
 40
0.2
 40
0.2
 40
0.4
 40
0.4
 40
0.4
 40
0.4
 40
0.6
 40
0.6
 40
0.6
 40
0.6
 40
1.0
 40
1.0
 40
1.0
 40
1.0
 10
-6.8945
 20
12.5692
 30
0.0
 10
-6.8945
 20
12.5692
 30
0.0
 10
15.8143
 20
12.5692
 30
0.0
 10
15.8143
 20
12.5692
 30
0.0
 10
15.8143
 20
12.5692
 30
0.0
 10
15.8143
 20
12.5692
 30
0.0
 10
15.8143
 20
11.884
 30
0.0
 10
15.8143
 20
11.884
 30
0.0
 10
15.8143
 20
11.884
 30
0.0
 10
15.8143
 20
11.884
 30
0.0
 10
-6.8945
 20
11.884
 30
0.0
 10
-6.8945
 20
11.884
 30
0.0
 10
-6.8945
 20
11.884
 30
0.0
 10
-6.8945
 20
11.884
 30
0.0
 10
-6.8945
 20
12.5692
 30
0.0
 10
-6.8945
 20
12.5692
 30
0.0
  0
SPLINE
  5
A5
330
1F
100
AcDbEntity
  8
DEFAULT_1
 62
   250
100
AcDbSpline
210
0.0
220
0.0
230
1.0
 70
     8
 71
     3
 72
    32
 73
    28
 74
     0
 42
0.0000000001
 43
0.0000000001
 40
0.0
 40
0.0
 40
0.0
 40
0.0
 40
0.125
 40
0.125
 40
0.125
 40
0.125
 40
0.25
 40
0.25
 40
0.25
 40
0.25
 40
0.375
 40
0.375
 40
0.375
 40
0.375
 40
0.5
 40
0.5
 40
0.5
 40
0.5
 40
0.625
 40
0.625
 40
0.625
 40
0.625
 40
0.75
 40
0.75
 40
0.75
 40
0.75
 40
1.0
 40
1.0
 40
1.0
 40
1.0
 10
-0.504
 20
6.2598
 30
0.0
 10
-0.504
 20
6.2598
 30
0.0
 10
-0.504
 20
10.0198
 30
0.0
 10
-0.504
 20
10.0198
 30
0.0
 10
-0.504
 20
10.0198
 30
0.0
 10
-0.504
 20
10.0198
 30
0.0
 10
0.3986
 20
10.0195
 30
0.0
 10
0.3986
 20
10.0195
 30
0.0
 10
0.3986
 20
10.0195
 30
0.0
 10
0.3986
 20
10.0195
 30
0.0
 10
2.966
 20
10.0188
 30
0.0
 10
2.966
 20
10.0188
 30
0.0
 10
2.966
 20
10.0188
 30
0.0
 10
2.966
 20
10.0188
 30
0.0
 10
5.974
 20
10.0179
 30
0.0
 10
5.974
 20
10.0179
 30
0.0
 10
5.974
 20
10.0179
 30
0.0
 10
5.974
 20
10.0179
 30
0.0
 10
8.5414
 20
10.0172
 30
0.0
 10
8.5414
 20
10.0172
 30
0.0
 10
8.5414
 20
10.0172
 30
0.0
 10
8.5414
 20
10.0172
 30
0.0
 10
9.4909
 20
10.0169
 30
0.0
 10
9.4909
 20
10.0169
 30
0.0
 10
9.4909
 20
10.0169
 30
0.0
 10
9.4909
 20
10.0169
 30
0.0
 10
9.4909
 20
6.1972
 30
0.0
 10
9.4909
 20
6.1972
 30
0.0
  0
SPLINE
  5
A6
330
1F
100
AcDbEntity
  8
DEFAULT_1
 62
   250
100
AcDbSpline
210
0.0
220
0.0
230
1.0
 70
    11
 71
     3
 72
    36
 73
    32
 74
     0
 42
0.0000000001
 43
0.0000000001
 40
0.0
 40
0.0
 40
0.0
 40
0.0
 40
0.1111111111111111
 40
0.1111111111111111
 40
0.1111111111111111
 40
0.1111111111111111
 40
0.2222222222222222
 40
0.2222222222222222
 40
0.2222222222222222
 40
0.2222222222222222
 40
0.3333333333333333
 40
0.3333333333333333
 40
0.3333333333333333
 40
0.3333333333333333
 40
0.4444444444444444
 40
0.4444444444444444
 40
0.4444444444444444
 40
0.4444444444444444
 40
0.5555555555555556
 40
0.5555555555555556
 40
0.5555555555555556
 40
0.5555555555555556
 40
0.6666666666666666
 40
0.6666666666666666
 40
0.6666666666666666
 40
0.6666666666666666
 40
0.7777777777777778
 40
0.7777777777777778
 40
0.7777777777777778
 40
0.7777777777777778
 40
1.0
 40
1.0
 40
1.0
 40
1.0
 10
16.1261
 20
16.7879
 30
0.0
 10
16.1261
 20
16.7879
 30
0.0
 10
-7.1861
 20
16.7879
 30
0.0
 10
-7.1861
 20
16.7879
 30
0.0
 10
-7.1861
 20
16.7879
 30
0.0
 10
-7.1861
 20
16.7879
 30
0.0
 10
-7.1778
 20
16.5105
 30
0.0
 10
-7.1778
 20
16.5105
 30
0.0
 10
-7.1778
 20
16.5105
 30
0.0
 10
-7.1778
 20
16.5105
 30
0.0
 10
-6.5653
 20
15.8701
 30
0.0
 10
-6.5653
 20
15.8701
 30
0.0
 10
-6.5653
 20
15.8701
 30
0.0
 10
-6.5653
 20
15.8701
 30
0.0
 10
-2.9706
 20
15.6033
 30
0.0
 10
-2.9706
 20
15.6033
 30
0.0
 10
-2.9706
 20
15.6033
 30
0.0
 10
-2.9706
 20
15.6033
 30
0.0
 10
11.9673
 20
15.6033
 30
0.0
 10
11.9673
 20
15.6033
 30
0.0
 10
11.9673
 20
15.6033
 30
0.0
 10
11.9673
 20
15.6033
 30
0.0
 10
15.5353
 20
15.8968
 30
0.0
 10
15.5353
 20
15.8968
 30
0.0
 10
15.5353
 20
15.8968
 30
0.0
 10
15.5353
 20
15.8968
 30
0.0
 10
16.1211
 20
16.4571
 30
0.0
 10
16.1211
 20
16.4571
 30
0.0
 10
16.1211
 20
16.4571
 30
0.0
 10
16.1211
 20
16.4571
 30
0.0
 10
16.1261
 20
16.7879
 30
0.0
 10
16.1261
 20
16.7879
 30
0.0
  0
SPLINE
  5
A7
330
1F
100
AcDbEntity
  8
DEFAULT_1
 62
   250
100
AcDbSpline
210
0.0
220
0.0
230
1.0
 70
    27
 71
     3
 72
    12
 73
     8
 74
     0
 42
0.0000000001
 43
0.0000000001
 40
0.0
 40
0.0
 40
0.0
 40
0.0
 40
0.3333333333333333
 40
0.3333333333333333
 40
0.3333333333333333
 40
0.3333333333333333
 40
1.0
 40
1.0
 40
1.0
 40
1.0
 10
-3.0501
 20
5.583
 30
0.0
 10
-3.0501
 20
5.583
 30
0.0
 10
-3.0501
 20
4.831
 30
0.0
 10
-3.0501
 20
4.831
 30
0.0
 10
-3.0501
 20
4.831
 30
0.0
 10
-3.0501
 20
4.831
 30
0.0
 10
-3.0501
 20
5.583
 30
0.0
 10
-3.0501
 20
5.583
 30
0.0
  0
SPLINE
  5
A8
330
1F
100
AcDbEntity
  8
DEFAULT_1
 62
   250
100
AcDbSpline
210
0.0
220
0.0
230
1.0
 70
    27
 71
     3
 72
    16
 73
    12
 74
     0
 42
0.0000000001
 43
0.0000000001
 40
0.0
 40
0.0
 40
0.0
 40
0.0
 40
0.25
 40
0.25
 40
0.25
 40
0.25
 40
0.5
 40
0.5
 40
0.5
 40
0.5
 40
1.0
 40
1.0
 40
1.0
 40
1.0
 10
8.5414
 20
10.0198
 30
0.0
 10
8.5414
 20
10.0198
 30
0.0
 10
8.5414
 20
10.0172
 30
0.0
 10
8.5414
 20
10.0172
 30
0.0
 10
8.5414
 20
10.0172
 30
0.0
 10
8.5414
 20
10.0172
 30
0.0
 10
8.5414
 20
6.2598
 30
0.0
 10
8.5414
 20
6.2598
 30
0.0
 10
8.5414
 20
6.2598
 30
0.0
 10
8.5414
 20
6.2598
 30
0.0
 10
8.5414
 20
10.0198
 30
0.0
 10
8.5414
 20
10.0198
 30
0.0
  0
SPLINE
  5
A9
330
1F
100
AcDbEntity
  8
DEFAULT_1
 62
   250
100
AcDbSpline
210
0.0
220
0.0
230
1.0
 70
    27
 71
     3
 72
    20
 73
    16
 74
     0
 42
0.0000000001
 43
0.0000000001
 40
0.0
 40
0.0
 40
0.0
 40
0.0
 40
0.2
 40
0.2
 40
0.2
 40
0.2
 40
0.4
 40
0.4
 40
0.4
 40
0.4
 40
0.6
 40
0.6
 40
0.6
 40
0.6
 40
1.0
 40
1.0
 40
1.0
 40
1.0
 10
5.974
 20
10.0198
 30
0.0
 10
5.974
 20
10.0198
 30
0.0
 10
5.974
 20
10.0179
 30
0.0
 10
5.974
 20
10.0179
 30
0.0
 10
5.974
 20
10.0179
 30
0.0
 10
5.974
 20
10.0179
 30
0.0
 10
5.974
 20
6.2598
 30
0.0
 10
5.974
 20
6.2598
 30
0.0
 10
5.974
 20
6.2598
 30
0.0
 10
5.974
 20
6.2598
 30
0.0
 10
5.974
 20
10.0179
 30
0.0
 10
5.974
 20
10.0179
 30
0.0
 10
5.974
 20
10.0179
 30
0.0
 10
5.974
 20
10.0179
 30
0.0
 10
5.974
 20
10.0198
 30
0.0
 10
5.974
 20
10.0198
 30
0.0
  0
SPLINE
  5
AA
330
1F
100
AcDbEntity
  8
DEFAULT_1
 62
   250
100
AcDbSpline
210
0.0
220
0.0
230
1.0
 70
    27
 71
     3
 72
    20
 73
    16
 74
     0
 42
0.0000000001
 43
0.0000000001
 40
0.0
 40
0.0
 40
0.0
 40
0.0
 40
0.2
 40
0.2
 40
0.2
 40
0.2
 40
0.4
 40
0.4
 40
0.4
 40
0.4
 40
0.6
 40
0.6
 40
0.6
 40
0.6
 40
1.0
 40
1.0
 40
1.0
 40
1.0
 10
2.966
 20
10.0198
 30
0.0
 10
2.966
 20
10.0198
 30
0.0
 10
2.966
 20
10.0188
 30
0.0
 10
2.966
 20
10.0188
 30
0.0
 10
2.966
 20
10.0188
 30
0.0
 10
2.966
 20
10.0188
 30
0.0
 10
2.966
 20
6.2598
 30
0.0
 10
2.966
 20
6.2598
 30
0.0
 10
2.966
 20
6.2598
 30
0.0
 10
2.966
 20
6.2598
 30
0.0
 10
2.966
 20
10.0188
 30
0.0
 10
2.966
 20
10.0188
 30
0.0
 10
2.966
 20
10.0188
 30
0.0
 10
2.966
 20
10.0188
 30
0.0
 10
2.966
 20
10.0198
 30
0.0
 10
2.966
 20
10.0198
 30
0.0
  0
SPLINE
  5
AB
330
1F
100
AcDbEntity
  8
DEFAULT_1
 62
   250
100
AcDbSpline
210
0.0
220
0.0
230
1.0
 70
    27
 71
     3
 72
    20
 73
    16
 74
     0
 42
0.0000000001
 43
0.0000000001
 40
0.0
 40
0.0
 40
0.0
 40
0.0
 40
0.2
 40
0.2
 40
0.2
 40
0.2
 40
0.4
 40
0.4
 40
0.4
 40
0.4
 40
0.6
 40
0.6
 40
0.6
 40
0.6
 40
1.0
 40
1.0
 40
1.0
 40
1.0
 10
0.3986
 20
10.0198
 30
0.0
 10
0.3986
 20
10.0198
 30
0.0
 10
0.3986
 20
10.0195
 30
0.0
 10
0.3986
 20
10.0195
 30
0.0
 10
0.3986
 20
10.0195
 30
0.0
 10
0.3986
 20
10.0195
 30
0.0
 10
0.3986
 20
6.2598
 30
0.0
 10
0.3986
 20
6.2598
 30
0.0
 10
0.3986
 20
6.2598
 30
0.0
 10
0.3986
 20
6.2598
 30
0.0
 10
0.3986
 20
10.0195
 30
0.0
 10
0.3986
 20
10.0195
 30
0.0
 10
0.3986
 20
10.0195
 30
0.0
 10
0.3986
 20
10.0195
 30
0.0
 10
0.3986
 20
10.0198
 30
0.0
 10
0.3986
 20
10.0198
 30
0.0
  0
SPLINE
  5
AC
330
1F
100
AcDbEntity
  8
DEFAULT_1
 62
   250
100
AcDbSpline
210
0.0
220
0.0
230
1.0
 70
    27
 71
     3
 72
    12
 73
     8
 74
     0
 42
0.0000000001
 43
0.0000000001
 40
0.0
 40
0.0
 40
0.0
 40
0.0
 40
0.3333333333333333
 40
0.3333333333333333
 40
0.3333333333333333
 40
0.3333333333333333
 40
1.0
 40
1.0
 40
1.0
 40
1.0
 10
11.9901
 20
5.583
 30
0.0
 10
11.9901
 20
5.583
 30
0.0
 10
11.9901
 20
4.831
 30
0.0
 10
11.9901
 20
4.831
 30
0.0
 10
11.9901
 20
4.831
 30
0.0
 10
11.9901
 20
4.831
 30
0.0
 10
11.9901
 20
5.583
 30
0.0
 10
11.9901
 20
5.583
 30
0.0
  0
SPLINE
  5
AD
330
1F
100
AcDbEntity
  8
DEFAULT_1
 62
   250
100
AcDbSpline
210
0.0
220
0.0
230
1.0
 70
    27
 71
     3
 72
    12
 73
     8
 74
     0
 42
0.0000000001
 43
0.0000000001
 40
0.0
 40
0.0
 40
0.0
 40
0.0
 40
0.3333333333333333
 40
0.3333333333333333
 40
0.3333333333333333
 40
0.3333333333333333
 40
1.0
 40
1.0
 40
1.0
 40
1.0
 10
-3.0501
 20
15.6599
 30
0.0
 10
-3.0501
 20
15.6599
 30
0.0
 10
-3.0501
 20
12.5767
 30
0.0
 10
-3.0501
 20
12.5767
 30
0.0
 10
-3.0501
 20
12.5767
 30
0.0
 10
-3.0501
 20
12.5767
 30
0.0
 10
-3.0501
 20
15.6599
 30
0.0
 10
-3.0501
 20
15.6599
 30
0.0
  0
SPLINE
  5
AE
330
1F
100
AcDbEntity
  8
DEFAULT_1
 62
   250
100
AcDbSpline
210
0.0
220
0.0
230
1.0
 70
    27
 71
     3
 72
    12
 73
     8
 74
     0
 42
0.0000000001
 43
0.0000000001
 40
0.0
 40
0.0
 40
0.0
 40
0.0
 40
0.3333333333333333
 40
0.3333333333333333
 40
0.3333333333333333
 40
0.3333333333333333
 40
1.0
 40
1.0
 40
1.0
 40
1.0
 10
-3.0501
 20
11.8999
 30
0.0
 10
-3.0501
 20
11.8999
 30
0.0
 10
-3.0501
 20
6.2598
 30
0.0
 10
-3.0501
 20
6.2598
 30
0.0
 10
-3.0501
 20
6.2598
 30
0.0
 10
-3.0501
 20
6.2598
 30
0.0
 10
-3.0501
 20
11.8999
 30
0.0
 10
-3.0501
 20
11.8999
 30
0.0
  0
SPLINE
  5
AF
330
1F
100
AcDbEntity
  8
DEFAULT_1
 62
   250
100
AcDbSpline
210
0.0
220
0.0
230
1.0
 70
    27
 71
     3
 72
    12
 73
     8
 74
     0
 42
0.0000000001
 43
0.0000000001
 40
0.0
 40
0.0
 40
0.0
 40
0.0
 40
0.3333333333333333
 40
0.3333333333333333
 40
0.3333333333333333
 40
0.3333333333333333
 40
1.0
 40
1.0
 40
1.0
 40
1.0
 10
11.9901
 20
11.8999
 30
0.0
 10
11.9901
 20
11.8999
 30
0.0
 10
11.9901
 20
6.2598
 30
0.0
 10
11.9901
 20
6.2598
 30
0.0
 10
11.9901
 20
6.2598
 30
0.0
 10
11.9901
 20
6.2598
 30
0.0
 10
11.9901
 20
11.8999
 30
0.0
 10
11.9901
 20
11.8999
 30
0.0
  0
SPLINE
  5
B0
330
1F
100
AcDbEntity
  8
DEFAULT_1
 62
   250
100
AcDbSpline
210
0.0
220
0.0
230
1.0
 70
    27
 71
     3
 72
    12
 73
     8
 74
     0
 42
0.0000000001
 43
0.0000000001
 40
0.0
 40
0.0
 40
0.0
 40
0.0
 40
0.3333333333333333
 40
0.3333333333333333
 40
0.3333333333333333
 40
0.3333333333333333
 40
1.0
 40
1.0
 40
1.0
 40
1.0
 10
11.9901
 20
15.6599
 30
0.0
 10
11.9901
 20
15.6599
 30
0.0
 10
11.9901
 20
12.5767
 30
0.0
 10
11.9901
 20
12.5767
 30
0.0
 10
11.9901
 20
12.5767
 30
0.0
 10
11.9901
 20
12.5767
 30
0.0
 10
11.9901
 20
15.6599
 30
0.0
 10
11.9901
 20
15.6599
 30
0.0
  0
SPLINE
  5
B1
330
1F
100
AcDbEntity
  8
DEFAULT_1
 62
   250
100
AcDbSpline
210
0.0
220
0.0
230
1.0
 70
    11
 71
     3
 72
    68
 73
    64
 74
     0
 42
0.0000000001
 43
0.0000000001
 40
0.0
 40
0.0
 40
0.0
 40
0.0
 40
0.0588235294117647
 40
0.0588235294117647
 40
0.0588235294117647
 40
0.0588235294117647
 40
0.1176470588235294
 40
0.1176470588235294
 40
0.1176470588235294
 40
0.1176470588235294
 40
0.1764705882352941
 40
0.1764705882352941
 40
0.1764705882352941
 40
0.1764705882352941
 40
0.2352941176470588
 40
0.2352941176470588
 40
0.2352941176470588
 40
0.2352941176470588
 40
0.2941176470588235
 40
0.2941176470588235
 40
0.2941176470588235
 40
0.2941176470588235
 40
0.3529411764705883
 40
0.3529411764705883
 40
0.3529411764705883
 40
0.3529411764705883
 40
0.4117647058823529
 40
0.4117647058823529
 40
0.4117647058823529
 40
0.4117647058823529
 40
0.4705882352941176
 40
0.4705882352941176
 40
0.4705882352941176
 40
0.4705882352941176
 40
0.5294117647058824
 40
0.5294117647058824
 40
0.5294117647058824
 40
0.5294117647058824
 40
0.5882352941176471
 40
0.5882352941176471
 40
0.5882352941176471
 40
0.5882352941176471
 40
0.6470588235294118
 40
0.6470588235294118
 40
0.6470588235294118
 40
0.6470588235294118
 40
0.7058823529411765
 40
0.7058823529411765
 40
0.7058823529411765
 40
0.7058823529411765
 40
0.7647058823529411
 40
0.7647058823529411
 40
0.7647058823529411
 40
0.7647058823529411
 40
0.8235294117647058
 40
0.8235294117647058
 40
0.8235294117647058
 40
0.8235294117647058
 40
0.8823529411764706
 40
0.8823529411764706
 40
0.8823529411764706
 40
0.8823529411764706
 40
1.0
 40
1.0
 40
1.0
 40
1.0
 10
11.3853
 20
20.0016
 30
0.0
 10
11.3853
 20
20.0016
 30
0.0
 10
10.7462
 20
20.0016
 30
0.0
 10
10.7462
 20
20.0016
 30
0.0
 10
10.7462
 20
20.0016
 30
0.0
 10
10.7462
 20
20.0016
 30
0.0
 10
-1.8875
 20
20.0016
 30
0.0
 10
-1.8875
 20
20.0016
 30
0.0
 10
-1.8875
 20
20.0016
 30
0.0
 10
-1.8875
 20
20.0016
 30
0.0
 10
-2.5266
 20
20.0016
 30
0.0
 10
-2.5266
 20
20.0016
 30
0.0
 10
-2.5266
 20
20.0016
 30
0.0
 10
-2.5266
 20
20.0016
 30
0.0
 10
-2.5353
 20
20.3445
 30
0.0
 10
-2.5353
 20
20.3445
 30
0.0
 10
-2.5353
 20
20.3445
 30
0.0
 10
-2.5353
 20
20.3445
 30
0.0
 10
-1.9881
 20
20.4642
 30
0.0
 10
-1.9881
 20
20.4642
 30
0.0
 10
-1.9881
 20
20.4642
 30
0.0
 10
-1.9881
 20
20.4642
 30
0.0
 10
-0.7227
 20
20.7549
 30
0.0
 10
-0.7227
 20
20.7549
 30
0.0
 10
-0.7227
 20
20.7549
 30
0.0
 10
-0.7227
 20
20.7549
 30
0.0
 10
0.9702
 20
20.9943
 30
0.0
 10
0.9702
 20
20.9943
 30
0.0
 10
0.9702
 20
20.9943
 30
0.0
 10
0.9702
 20
20.9943
 30
0.0
 10
2.5092
 20
21.1482
 30
0.0
 10
2.5092
 20
21.1482
 30
0.0
 10
2.5092
 20
21.1482
 30
0.0
 10
2.5092
 20
21.1482
 30
0.0
 10
3.8088
 20
21.1824
 30
0.0
 10
3.8088
 20
21.1824
 30
0.0
 10
3.8088
 20
21.1824
 30
0.0
 10
3.8088
 20
21.1824
 30
0.0
 10
5.1426
 20
21.2166
 30
0.0
 10
5.1426
 20
21.2166
 30
0.0
 10
5.1426
 20
21.2166
 30
0.0
 10
5.1426
 20
21.2166
 30
0.0
 10
6.5619
 20
21.1482
 30
0.0
 10
6.5619
 20
21.1482
 30
0.0
 10
6.5619
 20
21.1482
 30
0.0
 10
6.5619
 20
21.1482
 30
0.0
 10
8.2719
 20
20.9601
 30
0.0
 10
8.2719
 20
20.9601
 30
0.0
 10
8.2719
 20
20.9601
 30
0.0
 10
8.2719
 20
20.9601
 30
0.0
 10
9.6228
 20
20.7378
 30
0.0
 10
9.6228
 20
20.7378
 30
0.0
 10
9.6228
 20
20.7378
 30
0.0
 10
9.6228
 20
20.7378
 30
0.0
 10
10.5975
 20
20.5497
 30
0.0
 10
10.5975
 20
20.5497
 30
0.0
 10
10.5975
 20
20.5497
 30
0.0
 10
10.5975
 20
20.5497
 30
0.0
 10
11.4183
 20
20.3445
 30
0.0
 10
11.4183
 20
20.3445
 30
0.0
 10
11.4183
 20
20.3445
 30
0.0
 10
11.4183
 20
20.3445
 30
0.0
 10
11.3853
 20
20.0016
 30
0.0
 10
11.3853
 20
20.0016
 30
0.0
  0
SPLINE
  5
B2
330
1F
100
AcDbEntity
  8
DEFAULT_1
 62
   250
100
AcDbSpline
210
0.0
220
0.0
230
1.0
 70
    11
 71
     3
 72
    68
 73
    64
 74
     0
 42
0.0000000001
 43
0.0000000001
 40
0.0
 40
0.0
 40
0.0
 40
0.0
 40
0.0588235294117647
 40
0.0588235294117647
 40
0.0588235294117647
 40
0.0588235294117647
 40
0.1176470588235294
 40
0.1176470588235294
 40
0.1176470588235294
 40
0.1176470588235294
 40
0.1764705882352941
 40
0.1764705882352941
 40
0.1764705882352941
 40
0.1764705882352941
 40
0.2352941176470588
 40
0.2352941176470588
 40
0.2352941176470588
 40
0.2352941176470588
 40
0.2941176470588235
 40
0.2941176470588235
 40
0.2941176470588235
 40
0.2941176470588235
 40
0.3529411764705883
 40
0.3529411764705883
 40
0.3529411764705883
 40
0.3529411764705883
 40
0.4117647058823529
 40
0.4117647058823529
 40
0.4117647058823529
 40
0.4117647058823529
 40
0.4705882352941176
 40
0.4705882352941176
 40
0.4705882352941176
 40
0.4705882352941176
 40
0.5294117647058824
 40
0.5294117647058824
 40
0.5294117647058824
 40
0.5294117647058824
 40
0.5882352941176471
 40
0.5882352941176471
 40
0.5882352941176471
 40
0.5882352941176471
 40
0.6470588235294118
 40
0.6470588235294118
 40
0.6470588235294118
 40
0.6470588235294118
 40
0.7058823529411765
 40
0.7058823529411765
 40
0.7058823529411765
 40
0.7058823529411765
 40
0.7647058823529411
 40
0.7647058823529411
 40
0.7647058823529411
 40
0.7647058823529411
 40
0.8235294117647058
 40
0.8235294117647058
 40
0.8235294117647058
 40
0.8235294117647058
 40
0.8823529411764706
 40
0.8823529411764706
 40
0.8823529411764706
 40
0.8823529411764706
 40
1.0
 40
1.0
 40
1.0
 40
1.0
 10
2.9253
 20
18.076
 30
0.0
 10
2.9253
 20
18.076
 30
0.0
 10
2.9253
 20
16.7679
 30
0.0
 10
2.9253
 20
16.7679
 30
0.0
 10
2.9253
 20
16.7679
 30
0.0
 10
2.9253
 20
16.7679
 30
0.0
 10
2.9253
 20
18.076
 30
0.0
 10
2.9253
 20
18.076
 30
0.0
 10
2.9253
 20
18.076
 30
0.0
 10
2.9253
 20
18.076
 30
0.0
 10
-2.0831
 20
18.076
 30
0.0
 10
-2.0831
 20
18.076
 30
0.0
 10
-2.0831
 20
18.076
 30
0.0
 10
-2.0831
 20
18.076
 30
0.0
 10
-2.0831
 20
18.5029
 30
0.0
 10
-2.0831
 20
18.5029
 30
0.0
 10
-2.0831
 20
18.5029
 30
0.0
 10
-2.0831
 20
18.5029
 30
0.0
 10
-1.8875
 20
18.5029
 30
0.0
 10
-1.8875
 20
18.5029
 30
0.0
 10
-1.8875
 20
18.5029
 30
0.0
 10
-1.8875
 20
18.5029
 30
0.0
 10
-1.8875
 20
18.9889
 30
0.0
 10
-1.8875
 20
18.9889
 30
0.0
 10
-1.8875
 20
18.9889
 30
0.0
 10
-1.8875
 20
18.9889
 30
0.0
 10
-1.8875
 20
18.5029
 30
0.0
 10
-1.8875
 20
18.5029
 30
0.0
 10
-1.8875
 20
18.5029
 30
0.0
 10
-1.8875
 20
18.5029
 30
0.0
 10
10.7462
 20
18.5029
 30
0.0
 10
10.7462
 20
18.5029
 30
0.0
 10
10.7462
 20
18.5029
 30
0.0
 10
10.7462
 20
18.5029
 30
0.0
 10
10.7462
 20
18.9889
 30
0.0
 10
10.7462
 20
18.9889
 30
0.0
 10
10.7462
 20
18.9889
 30
0.0
 10
10.7462
 20
18.9889
 30
0.0
 10
10.7462
 20
18.5029
 30
0.0
 10
10.7462
 20
18.5029
 30
0.0
 10
10.7462
 20
18.5029
 30
0.0
 10
10.7462
 20
18.5029
 30
0.0
 10
10.9467
 20
18.5029
 30
0.0
 10
10.9467
 20
18.5029
 30
0.0
 10
10.9467
 20
18.5029
 30
0.0
 10
10.9467
 20
18.5029
 30
0.0
 10
10.9467
 20
18.076
 30
0.0
 10
10.9467
 20
18.076
 30
0.0
 10
10.9467
 20
18.076
 30
0.0
 10
10.9467
 20
18.076
 30
0.0
 10
5.9334
 20
18.076
 30
0.0
 10
5.9334
 20
18.076
 30
0.0
 10
5.9334
 20
18.076
 30
0.0
 10
5.9334
 20
18.076
 30
0.0
 10
5.9334
 20
16.7679
 30
0.0
 10
5.9334
 20
16.7679
 30
0.0
 10
5.9334
 20
16.7679
 30
0.0
 10
5.9334
 20
16.7679
 30
0.0
 10
5.9334
 20
18.076
 30
0.0
 10
5.9334
 20
18.076
 30
0.0
 10
5.9334
 20
18.076
 30
0.0
 10
5.9334
 20
18.076
 30
0.0
 10
2.9253
 20
18.076
 30
0.0
 10
2.9253
 20
18.076
 30
0.0
  0
SPLINE
  5
B3
330
1F
100
AcDbEntity
  8
DEFAULT_1
 62
   250
100
AcDbSpline
210
0.0
220
0.0
230
1.0
 70
    27
 71
     3
 72
    12
 73
     8
 74
     0
 42
0.0000000001
 43
0.0000000001
 40
0.0
 40
0.0
 40
0.0
 40
0.0
 40
0.3333333333333333
 40
0.3333333333333333
 40
0.3333333333333333
 40
0.3333333333333333
 40
1.0
 40
1.0
 40
1.0
 40
1.0
 10
10.7462
 20
19.5102
 30
0.0
 10
10.7462
 20
19.5102
 30
0.0
 10
10.7462
 20
20.0016
 30
0.0
 10
10.7462
 20
20.0016
 30
0.0
 10
10.7462
 20
20.0016
 30
0.0
 10
10.7462
 20
20.0016
 30
0.0
 10
10.7462
 20
19.5102
 30
0.0
 10
10.7462
 20
19.5102
 30
0.0
  0
SPLINE
  5
B4
330
1F
100
AcDbEntity
  8
DEFAULT_1
 62
   250
100
AcDbSpline
210
0.0
220
0.0
230
1.0
 70
    27
 71
     3
 72
    12
 73
     8
 74
     0
 42
0.0000000001
 43
0.0000000001
 40
0.0
 40
0.0
 40
0.0
 40
0.0
 40
0.3333333333333333
 40
0.3333333333333333
 40
0.3333333333333333
 40
0.3333333333333333
 40
1.0
 40
1.0
 40
1.0
 40
1.0
 10
-1.8875
 20
19.5102
 30
0.0
 10
-1.8875
 20
19.5102
 30
0.0
 10
-1.8875
 20
20.0016
 30
0.0
 10
-1.8875
 20
20.0016
 30
0.0
 10
-1.8875
 20
20.0016
 30
0.0
 10
-1.8875
 20
20.0016
 30
0.0
 10
-1.8875
 20
19.5102
 30
0.0
 10
-1.8875
 20
19.5102
 30
0.0
  0
ENDSEC
  0
SECTION
  2
OBJECTS
  0
DICTIONARY
  5
C
330
0
100
AcDbDictionary
  3
ACAD_GROUP
350
D
  3
ACAD_LAYOUT
350
1A
  3
ACAD_MATERIAL
350
3B
  3
ACAD_MLEADERSTYLE
350
D7
  3
ACAD_MLINESTYLE
350
17
  3
ACAD_PLOTSETTINGS
350
19
  3
ACAD_VISUALSTYLE
350
2A
  3
ACDBHEADERROUNDTRIPXREC
350
B5
  3
ACDBVARIABLEDICTIONARY
350
D5
  0
DICTIONARY
  5
D
102
{ACAD_REACTORS
330
C
102
}
330
C
100
AcDbDictionary
  0
DICTIONARY
  5
1A
102
{ACAD_REACTORS
330
C
102
}
330
C
100
AcDbDictionary
  0
DICTIONARY
  5
3B
102
{ACAD_REACTORS
330
C
102
}
330
C
100
AcDbDictionary
  3
BYBLOCK
350
3D
  3
BYLAYER
350
3C
  3
GLOBAL
350
3E
  0
DICTIONARY
  5
D7
102
{ACAD_REACTORS
330
C
102
}
330
C
100
AcDbDictionary
  0
DICTIONARY
  5
17
102
{ACAD_REACTORS
330
C
102
}
330
C
100
AcDbDictionary
  3
STANDARD
350
18
  0
DICTIONARY
  5
19
102
{ACAD_REACTORS
330
C
102
}
330
C
100
AcDbDictionary
  0
DICTIONARY
  5
2A
102
{ACAD_REACTORS
330
C
102
}
330
C
100
AcDbDictionary
  3
2DWIREFRAME
350
2F
  3
3D_HIDDEN
350
31
  3
3DWIREFRAME
350
30
  3
BASIC
350
32
  3
BRIGHTEN
350
36
  3
COLORCHANGE
350
3A
  3
CONCEPTUAL
350
34
  3
DIM
350
35
  3
FACEPATTERN
350
39
  3
FLAT
350
2B
  3
FLATWITHEDGES
350
2C
  3
GOURAUD
350
2D
  3
GOURAUDWITHEDGES
350
2E
  3
LINEPATTERN
350
38
  3
REALISTIC
350
33
  3
THICKEN
350
37
  0
DICTIONARY
  5
B5
102
{ACAD_REACTORS
330
C
102
}
330
C
100
AcDbDictionary
  3
CEPSNTYPE
350
BE
  3
DIMSTYLEDATA
350
D4
  3
FINGERPRINTGUID
350
BF
  3
HYPERLINKBASE
350
B8
  3
INSUNITS
350
BD
  3
LAYOUTDICT
350
BA
  3
LWETCUNION
350
BC
  3
PLOTSETDICT
350
BB
  3
PSVPSCALE
350
C1
  3
PUCSBASE
350
C4
  3
PUCSORGBACK
350
CA
  3
PUCSORGBOTTOM
350
C6
  3
PUCSORGFRONT
350
C9
  3
PUCSORGLEFT
350
C7
  3
PUCSORGRIGHT
350
C8
  3
PUCSORGTOP
350
C5
  3
PUCSORTHOREF
350
C2
  3
PUCSORTHOVIEW
350
C3
  3
STYLESHEET
350
B9
  3
TSTACKALIGN
350
B6
  3
TSTACKSIZE
350
B7
  3
UCSBASE
350
CD
  3
UCSORGBACK
350
D3
  3
UCSORGBOTTOM
350
CF
  3
UCSORGFRONT
350
D2
  3
UCSORGLEFT
350
D0
  3
UCSORGRIGHT
350
D1
  3
UCSORGTOP
350
CE
  3
UCSORTHOREF
350
CB
  3
UCSORTHOVIEW
350
CC
  3
VERSIONGUID
350
C0
  0
DICTIONARY
  5
D5
102
{ACAD_REACTORS
330
C
102
}
330
C
100
AcDbDictionary
  3
DIMASSOC
350
D8
  3
HIDETEXT
350
D9
  0
MATERIAL
  5
3D
102
{ACAD_REACTORS
330
3B
102
}
102
{ACAD_XDICTIONARY
360
DC
102
}
330
3B
100
AcDbMaterial
  1
ByBlock
  0
MATERIAL
  5
3C
102
{ACAD_REACTORS
330
3B
102
}
102
{ACAD_XDICTIONARY
360
DA
102
}
330
3B
100
AcDbMaterial
  1
ByLayer
  0
MATERIAL
  5
3E
102
{ACAD_REACTORS
330
3B
102
}
102
{ACAD_XDICTIONARY
360
DE
102
}
330
3B
100
AcDbMaterial
  1
Global
  0
MLINESTYLE
  5
18
102
{ACAD_REACTORS
330
17
102
}
330
17
100
AcDbMlineStyle
  2
Standard
 70
     0
  3

 62
   256
 51
90.0
 52
90.0
 71
     2
 49
0.5
 62
   256
  6
BYLAYER
 49
-0.5
 62
   256
  6
BYLAYER
  0
ACAD_PROXY_OBJECT
  5
2F
102
{ACAD_REACTORS
330
2A
102
}
330
2A
100
AcDbProxyObject
 90
      499
 91
      501
 93
      436
310
42CC9915DA5C99599C985B595049028333333333333E3BF0000000000000FB0107901411070040501600405405064090741402480A0340
1001
ACAD
1000
AcDbSavedByObjectVersion
1070
     0
  0
ACAD_PROXY_OBJECT
  5
31
102
{ACAD_REACTORS
330
2A
102
}
330
2A
100
AcDbProxyObject
 90
      499
 91
      501
 93
      500
310
424CD108121A5919195B90640502408333333333333E3BF0000000000000FB01079024090700405020000000000001110200405405064090740C02480A0340
1001
ACAD
1000
AcDbSavedByObjectVersion
1070
     0
  0
ACAD_PROXY_OBJECT
  5
30
102
{ACAD_REACTORS
330
2A
102
}
330
2A
100
AcDbProxyObject
 90
      499
 91
      501
 93
      436
310
42CCD915DA5C99599C985B595059028333333333333E3BF0000000000000FB0107901411070040501600405405064090741402480A0340
1001
ACAD
1000
AcDbSavedByObjectVersion
1070
     0
  0
ACAD_PROXY_OBJECT
  5
32
102
{ACAD_REACTORS
330
2A
102
}
330
2A
100
AcDbProxyObject
 90
      499
 91
      501
 93
      388
310
4150985CDA58D07406404333333333333E3BF0000000000000FB0107A41107004050150841D405064090741402480A0350
1001
ACAD
1000
AcDbSavedByObjectVersion
1070
     0
  0
ACAD_PROXY_OBJECT
  5
36
102
{ACAD_REACTORS
330
2A
102
}
330
2A
100
AcDbProxyObject
 90
      499
 91
      501
 93
      428
310
42109C9A59DA1D195B90C409028333333333333E3BF0000000000000FB010790141107004050150841D405064090741402480A029950
1001
ACAD
1000
AcDbSavedByObjectVersion
1070
     0
  0
ACAD_PROXY_OBJECT
  5
3A
102
{ACAD_REACTORS
330
2A
102
}
330
2A
100
AcDbProxyObject
 90
      499
 91
      501
 93
      452
310
42D0DBDB1BDC90DA185B99D95104090240C333333333333E3BF0000000000000FB0108901411070040501508421405064090741402480A0350
1001
ACAD
1000
AcDbSavedByObjectVersion
1070
     0
  0
ACAD_PROXY_OBJECT
  5
34
102
{ACAD_REACTORS
330
2A
102
}
330
2A
100
AcDbProxyObject
 90
      499
 91
      501
 93
      500
310
4290DBDB98D95C1D1D585B10940D028333333333333E3BF0000000000000FB0107902409070040501000000000000111010841D405064090740C02480A0340
1001
ACAD
1000
AcDbSavedByObjectVersion
1070
     0
  0
ACAD_PROXY_OBJECT
  5
35
102
{ACAD_REACTORS
330
2A
102
}
330
2A
100
AcDbProxyObject
 90
      499
 91
      501
 93
      412
310
40D11A5B50B409028333333333333E3BF0000000000000FB010790141107004050150841D405064090741402480A02677FFFFFD0
1001
ACAD
1000
AcDbSavedByObjectVersion
1070
     0
  0
ACAD_PROXY_OBJECT
  5
39
102
{ACAD_REACTORS
330
2A
102
}
330
2A
100
AcDbProxyObject
 90
      499
 91
      501
 93
      444
310
42D19858D95C185D1D195C9B90F409028333333333333E3BF0000000000000FB010790141107004050150841D405064090741402480A0350
1001
ACAD
1000
AcDbSavedByObjectVersion
1070
     0
  0
ACAD_PROXY_OBJECT
  5
2B
102
{ACAD_REACTORS
330
2A
102
}
330
2A
100
AcDbProxyObject
 90
      499
 91
      501
 93
      388
310
41119B185D240901404333333333333E3BF0000000000000F9010740A41107004050150841D405064090741402480A1B50
1001
ACAD
1000
AcDbSavedByObjectVersion
1070
     0
  0
ACAD_PROXY_OBJECT
  5
2C
102
{ACAD_REACTORS
330
2A
102
}
330
2A
100
AcDbProxyObject
 90
      499
 91
      501
 93
      476
310
43519B185D15DA5D1A115919D95CD0140901404333333333333E3BF0000000000000F9010740901411070040501600405405064090741402480A1B50
1001
ACAD
1000
AcDbSavedByObjectVersion
1070
     0
  0
ACAD_PROXY_OBJECT
  5
2D
102
{ACAD_REACTORS
330
2A
102
}
330
2A
100
AcDbProxyObject
 90
      499
 91
      501
 93
      412
310
41D1DBDD5C985D5910240902404333333333333E3BF0000000000000F9010740A411070040501641D405064090741402480A1B50
1001
ACAD
1000
AcDbSavedByObjectVersion
1070
     0
  0
ACAD_PROXY_OBJECT
  5
2E
102
{ACAD_REACTORS
330
2A
102
}
330
2A
100
AcDbProxyObject
 90
      499
 91
      501
 93
      500
310
4411DBDD5C985D5915DA5D1A115919D95CD0340902404333333333333E3BF0000000000000F9010740901411070040501600405405064090741402480A1B50
1001
ACAD
1000
AcDbSavedByObjectVersion
1070
     0
  0
ACAD_PROXY_OBJECT
  5
38
102
{ACAD_REACTORS
330
2A
102
}
330
2A
100
AcDbProxyObject
 90
      499
 91
      501
 93
      444
310
42D31A5B995C185D1D195C9B90E409028333333333333E3BF0000000000000FB010790141107004050750841D405064090741402483A0350
1001
ACAD
1000
AcDbSavedByObjectVersion
1070
     0
  0
ACAD_PROXY_OBJECT
  5
33
102
{ACAD_REACTORS
330
2A
102
}
330
2A
100
AcDbProxyObject
 90
      499
 91
      501
 93
      420
310
425499585B1A5CDD1A58D08409028333333333333E3BF0000000000000FB01079019070040501508421405064090741402480A1B40
1001
ACAD
1000
AcDbSavedByObjectVersion
1070
     0
  0
ACAD_PROXY_OBJECT
  5
37
102
{ACAD_REACTORS
330
2A
102
}
330
2A
100
AcDbProxyObject
 90
      499
 91
      501
 93
      412
310
41D51A1A58DAD95B90D409028333333333333E3BF0000000000000FB010790141107004050150C41D405064090741402480A0350
1001
ACAD
1000
AcDbSavedByObjectVersion
1070
     0
  0
XRECORD
  5
BE
102
{ACAD_REACTORS
330
B5
102
}
330
B5
100
AcDbXrecord
 90
        0
  0
XRECORD
  5
D4
102
{ACAD_REACTORS
330
B5
102
}
330
B5
100
AcDbXrecord
1000
DSTYLE
1002
{
1070
   340
340
11
1002
}
  0
XRECORD
  5
BF
102
{ACAD_REACTORS
330
B5
102
}
330
B5
100
AcDbXrecord
  1
{BFA491EC-C448-4F90-9975-835E227F022B}
  0
XRECORD
  5
B8
102
{ACAD_REACTORS
330
B5
102
}
330
B5
100
AcDbXrecord
  1

  0
XRECORD
  5
BD
102
{ACAD_REACTORS
330
B5
102
}
330
B5
100
AcDbXrecord
 90
        4
  0
XRECORD
  5
BA
102
{ACAD_REACTORS
330
B5
102
}
330
B5
100
AcDbXrecord
340
1A
  0
XRECORD
  5
BC
102
{ACAD_REACTORS
330
B5
102
}
330
B5
100
AcDbXrecord
 90
    10781
  0
XRECORD
  5
BB
102
{ACAD_REACTORS
330
B5
102
}
330
B5
100
AcDbXrecord
340
19
  0
XRECORD
  5
C1
102
{ACAD_REACTORS
330
B5
102
}
330
B5
100
AcDbXrecord
 40
0.0
  0
XRECORD
  5
C4
102
{ACAD_REACTORS
330
B5
102
}
330
B5
100
AcDbXrecord
340
0
  0
XRECORD
  5
CA
102
{ACAD_REACTORS
330
B5
102
}
330
B5
100
AcDbXrecord
 10
0.0
 20
0.0
 30
0.0
  0
XRECORD
  5
C6
102
{ACAD_REACTORS
330
B5
102
}
330
B5
100
AcDbXrecord
 10
0.0
 20
0.0
 30
0.0
  0
XRECORD
  5
C9
102
{ACAD_REACTORS
330
B5
102
}
330
B5
100
AcDbXrecord
 10
0.0
 20
0.0
 30
0.0
  0
XRECORD
  5
C7
102
{ACAD_REACTORS
330
B5
102
}
330
B5
100
AcDbXrecord
 10
0.0
 20
0.0
 30
0.0
  0
XRECORD
  5
C8
102
{ACAD_REACTORS
330
B5
102
}
330
B5
100
AcDbXrecord
 10
0.0
 20
0.0
 30
0.0
  0
XRECORD
  5
C5
102
{ACAD_REACTORS
330
B5
102
}
330
B5
100
AcDbXrecord
 10
0.0
 20
0.0
 30
0.0
  0
XRECORD
  5
C2
102
{ACAD_REACTORS
330
B5
102
}
330
B5
100
AcDbXrecord
340
0
  0
XRECORD
  5
C3
102
{ACAD_REACTORS
330
B5
102
}
330
B5
100
AcDbXrecord
 70
     0
  0
XRECORD
  5
B9
102
{ACAD_REACTORS
330
B5
102
}
330
B5
100
AcDbXrecord
  1

  0
XRECORD
  5
B6
102
{ACAD_REACTORS
330
B5
102
}
330
B5
100
AcDbXrecord
 90
        1
  0
XRECORD
  5
B7
102
{ACAD_REACTORS
330
B5
102
}
330
B5
100
AcDbXrecord
 90
       70
  0
XRECORD
  5
CD
102
{ACAD_REACTORS
330
B5
102
}
330
B5
100
AcDbXrecord
340
0
  0
XRECORD
  5
D3
102
{ACAD_REACTORS
330
B5
102
}
330
B5
100
AcDbXrecord
 10
0.0
 20
0.0
 30
0.0
  0
XRECORD
  5
CF
102
{ACAD_REACTORS
330
B5
102
}
330
B5
100
AcDbXrecord
 10
0.0
 20
0.0
 30
0.0
  0
XRECORD
  5
D2
102
{ACAD_REACTORS
330
B5
102
}
330
B5
100
AcDbXrecord
 10
0.0
 20
0.0
 30
0.0
  0
XRECORD
  5
D0
102
{ACAD_REACTORS
330
B5
102
}
330
B5
100
AcDbXrecord
 10
0.0
 20
0.0
 30
0.0
  0
XRECORD
  5
D1
102
{ACAD_REACTORS
330
B5
102
}
330
B5
100
AcDbXrecord
 10
0.0
 20
0.0
 30
0.0
  0
XRECORD
  5
CE
102
{ACAD_REACTORS
330
B5
102
}
330
B5
100
AcDbXrecord
 10
0.0
 20
0.0
 30
0.0
  0
XRECORD
  5
CB
102
{ACAD_REACTORS
330
B5
102
}
330
B5
100
AcDbXrecord
340
0
  0
XRECORD
  5
CC
102
{ACAD_REACTORS
330
B5
102
}
330
B5
100
AcDbXrecord
 70
     0
  0
XRECORD
  5
C0
102
{ACAD_REACTORS
330
B5
102
}
330
B5
100
AcDbXrecord
  1
{FAEB1C32-E019-11D5-929B-00C0DF256EC4}
  0
DICTIONARYVAR
  5
D8
102
{ACAD_REACTORS
330
D5
102
}
330
D5
100
DictionaryVariables
280
     0
  1
2
  0
DICTIONARYVAR
  5
D9
102
{ACAD_REACTORS
330
D5
102
}
330
D5
100
DictionaryVariables
280
     0
  1
1
  0
DICTIONARY
  5
DC
330
3D
100
AcDbDictionary
280
     1
  3
ACAD_XREC_ROUNDTRIP
360
DD
  0
DICTIONARY
  5
DA
330
3C
100
AcDbDictionary
280
     1
  3
ACAD_XREC_ROUNDTRIP
360
DB
  0
DICTIONARY
  5
DE
330
3E
100
AcDbDictionary
280
     1
  3
ACAD_XREC_ROUNDTRIP
360
DF
  0
XRECORD
  5
DD
102
{ACAD_REACTORS
330
DC
102
}
330
DC
100
AcDbXrecord
102
MATERIAL
148
0.0
149
0.0
149
0.0
 93
        0
 94
      127
282
     0
 72
     1
 77
     1
171
     1
175
     1
179
     1
273
     0
  0
XRECORD
  5
DB
102
{ACAD_REACTORS
330
DA
102
}
330
DA
100
AcDbXrecord
102
MATERIAL
148
0.0
149
0.0
149
0.0
 93
        0
 94
      127
282
     0
 72
     1
 77
     1
171
     1
175
     1
179
     1
273
     0
  0
XRECORD
  5
DF
102
{ACAD_REACTORS
330
DE
102
}
330
DE
100
AcDbXrecord
102
MATERIAL
148
0.0
149
0.0
149
0.0
 93
        0
 94
      127
282
     0
 72
     1
 77
     1
171
     1
175
     1
179
     1
273
     0
  0
ENDSEC
  0
EOF
