  0
SECTION
  2
HEADER
  9
$ACADVER
  1
AC1014
  9
$ACADMAINTVER
 70
     9
  9
$DWGCODEPAGE
  3
ANSI_1250
  9
$INSBASE
 10
0.0
 20
0.0
 30
0.0
  9
$EXTMIN
 10
-16.4414
 20
-32.1171
 30
0.0
  9
$EXTMAX
 10
16.5823
 20
32.1168
 30
0.0
  9
$LIMMIN
 10
0.0
 20
0.0
  9
$LIMMAX
 10
12.0
 20
9.0
  9
$ORTHOMODE
 70
     0
  9
$REGENMODE
 70
     1
  9
$FILLMODE
 70
     1
  9
$QTEXTMODE
 70
     0
  9
$MIRRTEXT
 70
     1
  9
$DRAGMODE
 70
     2
  9
$LTSCALE
 40
1.0
  9
$OSMODE
 70
    37
  9
$ATTMODE
 70
     1
  9
$TEXTSIZE
 40
0.2
  9
$TRACEWID
 40
0.05
  9
$TEXTSTYLE
  7
STANDARD
  9
$CLAYER
  8
0
  9
$CELTYPE
  6
BYLAYER
  9
$CECOLOR
 62
   256
  9
$CELTSCALE
 40
1.0
  9
$DELOBJ
 70
     1
  9
$DISPSILH
 70
     0
  9
$DIMSCALE
 40
1.0
  9
$DIMASZ
 40
0.18
  9
$DIMEXO
 40
0.0625
  9
$DIMDLI
 40
0.38
  9
$DIMRND
 40
0.0
  9
$DIMDLE
 40
0.0
  9
$DIMEXE
 40
0.18
  9
$DIMTP
 40
0.0
  9
$DIMTM
 40
0.0
  9
$DIMTXT
 40
0.18
  9
$DIMCEN
 40
0.09
  9
$DIMTSZ
 40
0.0
  9
$DIMTOL
 70
     0
  9
$DIMLIM
 70
     0
  9
$DIMTIH
 70
     1
  9
$DIMTOH
 70
     1
  9
$DIMSE1
 70
     0
  9
$DIMSE2
 70
     0
  9
$DIMTAD
 70
     0
  9
$DIMZIN
 70
     0
  9
$DIMBLK
  1

  9
$DIMASO
 70
     1
  9
$DIMSHO
 70
     1
  9
$DIMPOST
  1

  9
$DIMAPOST
  1

  9
$DIMALT
 70
     0
  9
$DIMALTD
 70
     2
  9
$DIMALTF
 40
25.4
  9
$DIMLFAC
 40
1.0
  9
$DIMTOFL
 70
     0
  9
$DIMTVP
 40
0.0
  9
$DIMTIX
 70
     0
  9
$DIMSOXD
 70
     0
  9
$DIMSAH
 70
     0
  9
$DIMBLK1
  1

  9
$DIMBLK2
  1

  9
$DIMSTYLE
  2
STANDARD
  9
$DIMCLRD
 70
     0
  9
$DIMCLRE
 70
     0
  9
$DIMCLRT
 70
     0
  9
$DIMTFAC
 40
1.0
  9
$DIMGAP
 40
0.09
  9
$DIMJUST
 70
     0
  9
$DIMSD1
 70
     0
  9
$DIMSD2
 70
     0
  9
$DIMTOLJ
 70
     1
  9
$DIMTZIN
 70
     0
  9
$DIMALTZ
 70
     0
  9
$DIMALTTZ
 70
     0
  9
$DIMFIT
 70
     3
  9
$DIMUPT
 70
     0
  9
$DIMUNIT
 70
     2
  9
$DIMDEC
 70
     4
  9
$DIMTDEC
 70
     4
  9
$DIMALTU
 70
     2
  9
$DIMALTTD
 70
     2
  9
$DIMTXSTY
  7
STANDARD
  9
$DIMAUNIT
 70
     0
  9
$LUNITS
 70
     2
  9
$LUPREC
 70
     4
  9
$SKETCHINC
 40
0.1
  9
$FILLETRAD
 40
0.5
  9
$AUNITS
 70
     0
  9
$AUPREC
 70
     0
  9
$MENU
  1
.
  9
$ELEVATION
 40
0.0
  9
$PELEVATION
 40
0.0
  9
$THICKNESS
 40
0.0
  9
$LIMCHECK
 70
     0
  9
$CHAMFERA
 40
0.5
  9
$CHAMFERB
 40
0.5
  9
$CHAMFERC
 40
1.0
  9
$CHAMFERD
 40
0.0
  9
$SKPOLY
 70
     0
  9
$TDCREATE
 40
2456247.443853206
  9
$TDUPDATE
 40
2456247.443853218
  9
$TDINDWG
 40
0.0000000116
  9
$TDUSRTIMER
 40
0.0000000116
  9
$USRTIMER
 70
     1
  9
$ANGBASE
 50
0.0
  9
$ANGDIR
 70
     0
  9
$PDMODE
 70
     0
  9
$PDSIZE
 40
0.0
  9
$PLINEWID
 40
0.0
  9
$COORDS
 70
     1
  9
$SPLFRAME
 70
     0
  9
$SPLINETYPE
 70
     6
  9
$SPLINESEGS
 70
     8
  9
$ATTDIA
 70
     0
  9
$ATTREQ
 70
     1
  9
$HANDLING
 70
     1
  9
$HANDSEED
  5
D7
  9
$SURFTAB1
 70
     6
  9
$SURFTAB2
 70
     6
  9
$SURFTYPE
 70
     6
  9
$SURFU
 70
     6
  9
$SURFV
 70
     6
  9
$UCSNAME
  2

  9
$UCSORG
 10
0.0
 20
0.0
 30
0.0
  9
$UCSXDIR
 10
1.0
 20
0.0
 30
0.0
  9
$UCSYDIR
 10
0.0
 20
1.0
 30
0.0
  9
$PUCSNAME
  2

  9
$PUCSORG
 10
0.0
 20
0.0
 30
0.0
  9
$PUCSXDIR
 10
1.0
 20
0.0
 30
0.0
  9
$PUCSYDIR
 10
0.0
 20
1.0
 30
0.0
  9
$USERI1
 70
     0
  9
$USERI2
 70
     0
  9
$USERI3
 70
     0
  9
$USERI4
 70
     0
  9
$USERI5
 70
     0
  9
$USERR1
 40
0.0
  9
$USERR2
 40
0.0
  9
$USERR3
 40
0.0
  9
$USERR4
 40
0.0
  9
$USERR5
 40
0.0
  9
$WORLDVIEW
 70
     1
  9
$SHADEDGE
 70
     3
  9
$SHADEDIF
 70
    70
  9
$TILEMODE
 70
     1
  9
$MAXACTVP
 70
    64
  9
$PINSBASE
 10
0.0
 20
0.0
 30
0.0
  9
$PLIMCHECK
 70
     0
  9
$PEXTMIN
 10
1.000000000000000E+20
 20
1.000000000000000E+20
 30
1.000000000000000E+20
  9
$PEXTMAX
 10
-1.000000000000000E+20
 20
-1.000000000000000E+20
 30
-1.000000000000000E+20
  9
$PLIMMIN
 10
0.0
 20
0.0
  9
$PLIMMAX
 10
12.0
 20
9.0
  9
$UNITMODE
 70
     0
  9
$VISRETAIN
 70
     1
  9
$PLINEGEN
 70
     0
  9
$PSLTSCALE
 70
     1
  9
$TREEDEPTH
 70
  3020
  9
$PICKSTYLE
 70
     1
  9
$CMLSTYLE
  2
STANDARD
  9
$CMLJUST
 70
     0
  9
$CMLSCALE
 40
1.0
  9
$PROXYGRAPHICS
 70
     1
  9
$MEASUREMENT
 70
     0
  0
ENDSEC
  0
SECTION
  2
CLASSES
  0
CLASS
  1
ACDBDICTIONARYWDFLT
  2
AcDbDictionaryWithDefault
  3
ObjectDBX Classes
 90
        0
280
     0
281
     0
  0
CLASS
  1
VISUALSTYLE
  2
AcDbVisualStyle
  3
ObjectDBX Classes
 90
     4095
280
     0
281
     0
  0
CLASS
  1
MATERIAL
  2
AcDbMaterial
  3
ObjectDBX Classes
 90
     1153
280
     0
281
     0
  0
CLASS
  1
DICTIONARYVAR
  2
AcDbDictionaryVar
  3
ObjectDBX Classes
 90
        0
280
     0
281
     0
  0
CLASS
  1
XRECORD
  2
AcDbXrecord
  3
AutoCAD 2000
 90
        0
280
     0
281
     0
  0
CLASS
  1
LWPOLYLINE
  2
AcDbPolyline
  3
AutoCAD 2000
 90
        0
280
     0
281
     1
  0
CLASS
  1
HATCH
  2
AcDbHatch
  3
AutoCAD 2000
 90
        0
280
     0
281
     1
  0
CLASS
  1
ACDBPLACEHOLDER
  2
AcDbPlaceHolder
  3
ObjectDBX Classes
 90
        0
280
     0
281
     0
  0
CLASS
  1
LAYOUT
  2
AcDbLayout
  3
ObjectDBX Classes
 90
        0
280
     0
281
     0
  0
ENDSEC
  0
SECTION
  2
TABLES
  0
TABLE
  2
VPORT
  5
8
330
0
100
AcDbSymbolTable
 70
     1
  0
VPORT
  5
29
330
8
100
AcDbSymbolTableRecord
100
AcDbViewportTableRecord
  2
*ACTIVE
 70
     0
 10
0.0
 20
0.0
 11
1.0
 21
1.0
 12
10.42990654205607
 22
4.5
 13
0.0
 23
0.0
 14
0.5
 24
0.5
 15
0.5
 25
0.5
 16
0.0
 26
0.0
 36
1.0
 17
0.0
 27
0.0
 37
0.0
 40
9.0
 41
1.972972972850329
 42
50.0
 43
0.0
 44
0.0
 50
0.0
 51
0.0
 71
     0
 72
   100
 73
     1
 74
     3
 75
     0
 76
     0
 77
     0
 78
     0
  0
ENDTAB
  0
TABLE
  2
LTYPE
  5
5
330
0
100
AcDbSymbolTable
 70
     2
  0
LTYPE
  5
14
330
5
100
AcDbSymbolTableRecord
100
AcDbLinetypeTableRecord
  2
BYBLOCK
 70
     0
  3

 72
    65
 73
     0
 40
0.0
  0
LTYPE
  5
15
330
5
100
AcDbSymbolTableRecord
100
AcDbLinetypeTableRecord
  2
BYLAYER
 70
     0
  3

 72
    65
 73
     0
 40
0.0
  0
LTYPE
  5
16
330
5
100
AcDbSymbolTableRecord
100
AcDbLinetypeTableRecord
  2
CONTINUOUS
 70
     0
  3
Solid line
 72
    65
 73
     0
 40
0.0
  0
LTYPE
  5
50
330
5
100
AcDbSymbolTableRecord
100
AcDbLinetypeTableRecord
  2
NEW_LINE1
 70
     0
  3

 72
    65
 73
     4
 40
1.2
 49
0.5
 74
     4
 75
     0
340
0
 46
1.0
 50
0.0
 44
0.0
 45
0.0
 49
-0.3
 74
     4
 75
     0
340
0
 46
1.0
 50
0.0
 44
0.0
 45
0.0
 49
0.1
 74
     4
 75
     0
340
0
 46
1.0
 50
0.0
 44
0.0
 45
0.0
 49
-0.3
 74
     4
 75
     0
340
0
 46
1.0
 50
0.0
 44
0.0
 45
0.0
  0
ENDTAB
  0
TABLE
  2
LAYER
  5
2
330
0
100
AcDbSymbolTable
 70
     2
  0
LAYER
  5
10
330
2
100
AcDbSymbolTableRecord
100
AcDbLayerTableRecord
  2
0
 70
     0
 62
     7
  6
CONTINUOUS
  0
LAYER
  5
40
330
2
100
AcDbSymbolTableRecord
100
AcDbLayerTableRecord
  2
DEFAULT_1
 70
     0
 62
     7
  6
CONTINUOUS
  0
ENDTAB
  0
TABLE
  2
STYLE
  5
3
330
0
100
AcDbSymbolTable
 70
     1
  0
STYLE
  5
11
330
3
100
AcDbSymbolTableRecord
100
AcDbTextStyleTableRecord
  2
STANDARD
 70
     0
 40
0.0
 41
1.0
 50
0.0
 71
     0
 42
0.2
  3
txt
  4

  0
ENDTAB
  0
TABLE
  2
VIEW
  5
6
330
0
100
AcDbSymbolTable
 70
     0
  0
ENDTAB
  0
TABLE
  2
UCS
  5
7
330
0
100
AcDbSymbolTable
 70
     0
  0
ENDTAB
  0
TABLE
  2
APPID
  5
9
330
0
100
AcDbSymbolTable
 70
     2
  0
APPID
  5
12
330
9
100
AcDbSymbolTableRecord
100
AcDbRegAppTableRecord
  2
ACAD
 70
     0
  0
APPID
  5
3F
330
9
100
AcDbSymbolTableRecord
100
AcDbRegAppTableRecord
  2
ODA
 70
     0
  0
ENDTAB
  0
TABLE
  2
DIMSTYLE
  5
A
330
0
100
AcDbSymbolTable
 70
     1
  0
DIMSTYLE
105
27
330
A
100
AcDbSymbolTableRecord
100
AcDbDimStyleTableRecord
  2
STANDARD
 70
     0
  3

  4

  5

  6

  7

 40
1.0
 41
0.18
 42
0.0625
 43
0.38
 44
0.18
 45
0.0
 46
0.0
 47
0.0
 48
0.0
140
0.18
141
0.09
142
0.0
143
25.4
144
1.0
145
0.0
146
1.0
147
0.09
 71
     0
 72
     0
 73
     1
 74
     1
 75
     0
 76
     0
 77
     0
 78
     0
170
     0
171
     2
172
     0
173
     0
174
     0
175
     0
176
     0
177
     0
178
     0
270
     2
271
     4
272
     4
273
     2
274
     2
340
11
275
     0
280
     0
281
     0
282
     0
283
     1
284
     0
285
     0
286
     0
287
     3
288
     0
  0
ENDTAB
  0
TABLE
  2
BLOCK_RECORD
  5
1
330
0
100
AcDbSymbolTable
 70
     1
  0
BLOCK_RECORD
  5
1F
330
1
100
AcDbSymbolTableRecord
100
AcDbBlockTableRecord
  2
*MODEL_SPACE
  0
BLOCK_RECORD
  5
1B
330
1
100
AcDbSymbolTableRecord
100
AcDbBlockTableRecord
  2
*PAPER_SPACE
  0
ENDTAB
  0
ENDSEC
  0
SECTION
  2
BLOCKS
  0
BLOCK
  5
20
330
1F
100
AcDbEntity
  8
0
100
AcDbBlockBegin
  2
*MODEL_SPACE
 70
     0
 10
0.0
 20
0.0
 30
0.0
  3
*MODEL_SPACE
  1

  0
ENDBLK
  5
21
330
1F
100
AcDbEntity
  8
0
100
AcDbBlockEnd
  0
BLOCK
  5
1C
330
1B
100
AcDbEntity
 67
     1
  8
0
100
AcDbBlockBegin
  2
*PAPER_SPACE
 70
     0
 10
0.0
 20
0.0
 30
0.0
  3
*PAPER_SPACE
  1

  0
ENDBLK
  5
1D
330
1B
100
AcDbEntity
 67
     1
  8
0
100
AcDbBlockEnd
  0
ENDSEC
  0
SECTION
  2
ENTITIES
  0
SPLINE
  5
41
330
1F
100
AcDbEntity
  8
DEFAULT_1
 62
   250
100
AcDbSpline
210
0.0
220
0.0
230
1.0
 70
    24
 71
     3
 72
     8
 73
     4
 74
     0
 42
0.0000000001
 43
0.0000000001
 40
0.0
 40
0.0
 40
0.0
 40
0.0
 40
1.0
 40
1.0
 40
1.0
 40
1.0
 10
-3.6379
 20
-21.8579
 30
0.0
 10
-3.6379
 20
-21.8579
 30
0.0
 10
-3.6379
 20
-27.2207
 30
0.0
 10
-3.6379
 20
-27.2207
 30
0.0
  0
SPLINE
  5
42
330
1F
100
AcDbEntity
  8
DEFAULT_1
 62
   250
100
AcDbSpline
210
0.0
220
0.0
230
1.0
 70
    24
 71
     3
 72
     8
 73
     4
 74
     0
 42
0.0000000001
 43
0.0000000001
 40
0.0
 40
0.0
 40
0.0
 40
0.0
 40
1.0
 40
1.0
 40
1.0
 40
1.0
 10
11.7776
 20
-21.9984
 30
0.0
 10
11.7776
 20
-21.9984
 30
0.0
 10
11.7776
 20
-27.2207
 30
0.0
 10
11.7776
 20
-27.2207
 30
0.0
  0
SPLINE
  5
43
330
1F
100
AcDbEntity
  8
DEFAULT_1
 62
   250
100
AcDbSpline
210
0.0
220
0.0
230
1.0
 70
    24
 71
     3
 72
     8
 73
     4
 74
     0
 42
0.0000000001
 43
0.0000000001
 40
0.0
 40
0.0
 40
0.0
 40
0.0
 40
1.0
 40
1.0
 40
1.0
 40
1.0
 10
-3.3708
 20
-26.4675
 30
0.0
 10
-3.3708
 20
-26.4675
 30
0.0
 10
11.6009
 20
-26.4675
 30
0.0
 10
11.6009
 20
-26.4675
 30
0.0
  0
SPLINE
  5
44
330
1F
100
AcDbEntity
  8
DEFAULT_1
 62
   250
100
AcDbSpline
210
0.0
220
0.0
230
1.0
 70
    24
 71
     3
 72
     8
 73
     4
 74
     0
 42
0.0000000001
 43
0.0000000001
 40
0.0
 40
0.0
 40
0.0
 40
0.0
 40
1.0
 40
1.0
 40
1.0
 40
1.0
 10
-4.1014
 20
-21.3475
 30
0.0
 10
-4.1014
 20
-21.3475
 30
0.0
 10
-14.2235
 20
-21.3475
 30
0.0
 10
-14.2235
 20
-21.3475
 30
0.0
  0
SPLINE
  5
45
330
1F
100
AcDbEntity
  8
DEFAULT_1
 62
   250
100
AcDbSpline
210
0.0
220
0.0
230
1.0
 70
    24
 71
     3
 72
     8
 73
     4
 74
     0
 42
0.0000000001
 43
0.0000000001
 40
0.0
 40
0.0
 40
0.0
 40
0.0
 40
1.0
 40
1.0
 40
1.0
 40
1.0
 10
-4.7157
 20
-17.1843
 30
0.0
 10
-4.7157
 20
-17.1843
 30
0.0
 10
-8.5772
 20
-17.1843
 30
0.0
 10
-8.5772
 20
-17.1843
 30
0.0
  0
SPLINE
  5
46
330
1F
100
AcDbEntity
  8
DEFAULT_1
 62
   250
100
AcDbSpline
210
0.0
220
0.0
230
1.0
 70
    24
 71
     3
 72
     8
 73
     4
 74
     0
 42
0.0000000001
 43
0.0000000001
 40
0.0
 40
0.0
 40
0.0
 40
0.0
 40
1.0
 40
1.0
 40
1.0
 40
1.0
 10
-8.0764
 20
-25.6469
 30
0.0
 10
-8.0764
 20
-25.6469
 30
0.0
 10
-8.0764
 20
-12.6366
 30
0.0
 10
-8.0764
 20
-12.6366
 30
0.0
  0
SPLINE
  5
47
330
1F
100
AcDbEntity
  8
DEFAULT_1
 62
   250
100
AcDbSpline
210
0.0
220
0.0
230
1.0
 70
    24
 71
     3
 72
     8
 73
     4
 74
     0
 42
0.0000000001
 43
0.0000000001
 40
0.0
 40
0.0
 40
0.0
 40
0.0
 40
1.0
 40
1.0
 40
1.0
 40
1.0
 10
-8.2426
 20
4.7567
 30
0.0
 10
-8.2426
 20
4.7567
 30
0.0
 10
-14.0259
 20
4.7567
 30
0.0
 10
-14.0259
 20
4.7567
 30
0.0
  0
SPLINE
  5
48
330
1F
100
AcDbEntity
  8
DEFAULT_1
 62
   250
100
AcDbSpline
210
0.0
220
0.0
230
1.0
 70
    24
 71
     3
 72
     8
 73
     4
 74
     0
 42
0.0000000001
 43
0.0000000001
 40
0.0
 40
0.0
 40
0.0
 40
0.0
 40
1.0
 40
1.0
 40
1.0
 40
1.0
 10
-13.3592
 20
-21.1305
 30
0.0
 10
-13.3592
 20
-21.1305
 30
0.0
 10
-13.3592
 20
5.1311
 30
0.0
 10
-13.3592
 20
5.1311
 30
0.0
  0
SPLINE
  5
49
330
1F
100
AcDbEntity
  8
DEFAULT_1
 62
   250
100
AcDbSpline
210
0.0
220
0.0
230
1.0
 70
    24
 71
     3
 72
     8
 73
     4
 74
     0
 42
0.0000000001
 43
0.0000000001
 40
0.0
 40
0.0
 40
0.0
 40
0.0
 40
1.0
 40
1.0
 40
1.0
 40
1.0
 10
-13.3591
 20
16.3303
 30
0.0
 10
-13.3591
 20
16.3303
 30
0.0
 10
-13.3591
 20
5.1311
 30
0.0
 10
-13.3591
 20
5.1311
 30
0.0
  0
SPLINE
  5
4A
330
1F
100
AcDbEntity
  8
DEFAULT_1
 62
   250
100
AcDbSpline
210
0.0
220
0.0
230
1.0
 70
    24
 71
     3
 72
     8
 73
     4
 74
     0
 42
0.0000000001
 43
0.0000000001
 40
0.0
 40
0.0
 40
0.0
 40
0.0
 40
1.0
 40
1.0
 40
1.0
 40
1.0
 10
-8.8234
 20
16.7456
 30
0.0
 10
-8.8234
 20
16.7456
 30
0.0
 10
-13.8358
 20
16.7456
 30
0.0
 10
-13.8358
 20
16.7456
 30
0.0
  0
SPLINE
  5
4B
330
1F
100
AcDbEntity
  8
DEFAULT_1
 62
   250
100
AcDbSpline
210
0.0
220
0.0
230
1.0
 70
    24
 71
     3
 72
     8
 73
     4
 74
     0
 42
0.0000000001
 43
0.0000000001
 40
0.0
 40
0.0
 40
0.0
 40
0.0
 40
1.0
 40
1.0
 40
1.0
 40
1.0
 10
-13.3583
 20
15.2993
 30
0.0
 10
-13.3583
 20
15.2993
 30
0.0
 10
-13.3583
 20
16.3138
 30
0.0
 10
-13.3583
 20
16.3138
 30
0.0
  0
SPLINE
  5
4C
330
1F
100
AcDbEntity
  8
DEFAULT_1
 62
   250
100
AcDbSpline
210
0.0
220
0.0
230
1.0
 70
    24
 71
     3
 72
     8
 73
     4
 74
     0
 42
0.0000000001
 43
0.0000000001
 40
0.0
 40
0.0
 40
0.0
 40
0.0
 40
1.0
 40
1.0
 40
1.0
 40
1.0
 10
-4.4923
 20
-18.0948
 30
0.0
 10
-4.4923
 20
-18.0948
 30
0.0
 10
-4.4923
 20
-32.0157
 30
0.0
 10
-4.4923
 20
-32.0157
 30
0.0
  0
SPLINE
  5
4D
330
1F
100
AcDbEntity
  8
DEFAULT_1
 62
   250
100
AcDbSpline
210
0.0
220
0.0
230
1.0
 70
    24
 71
     3
 72
     8
 73
     4
 74
     0
 42
0.0000000001
 43
0.0000000001
 40
0.0
 40
0.0
 40
0.0
 40
0.0
 40
1.0
 40
1.0
 40
1.0
 40
1.0
 10
12.6049
 20
-17.842
 30
0.0
 10
12.6049
 20
-17.842
 30
0.0
 10
12.6049
 20
-32.1171
 30
0.0
 10
12.6049
 20
-32.1171
 30
0.0
  0
SPLINE
  5
4E
330
1F
100
AcDbEntity
  8
DEFAULT_1
 62
   250
100
AcDbSpline
210
0.0
220
0.0
230
1.0
 70
    24
 71
     3
 72
     8
 73
     4
 74
     0
 42
0.0000000001
 43
0.0000000001
 40
0.0
 40
0.0
 40
0.0
 40
0.0
 40
1.0
 40
1.0
 40
1.0
 40
1.0
 10
-3.7433
 20
-31.3993
 30
0.0
 10
-3.7433
 20
-31.3993
 30
0.0
 10
11.728
 20
-31.3993
 30
0.0
 10
11.728
 20
-31.3993
 30
0.0
  0
SPLINE
  5
4F
330
1F
100
AcDbEntity
  8
DEFAULT_1
  6
NEW_LINE1
 62
   250
100
AcDbSpline
210
0.0
220
0.0
230
1.0
 70
    24
 71
     3
 72
     8
 73
     4
 74
     0
 42
0.0000000001
 43
0.0000000001
 40
0.0
 40
0.0
 40
0.0
 40
0.0
 40
1.0
 40
1.0
 40
1.0
 40
1.0
 10
4.0702
 20
-21.9523
 30
0.0
 10
4.0702
 20
-21.9523
 30
0.0
 10
4.0702
 20
26.9162
 30
0.0
 10
4.0702
 20
26.9162
 30
0.0
  0
SPLINE
  5
51
330
1F
100
AcDbEntity
  8
DEFAULT_1
 62
   250
100
AcDbSpline
210
0.0
220
0.0
230
1.0
 70
    11
 71
     3
 72
    84
 73
    80
 74
     0
 42
0.0000000001
 43
0.0000000001
 40
0.0
 40
0.0
 40
0.0
 40
0.0
 40
0.0476190476190476
 40
0.0476190476190476
 40
0.0476190476190476
 40
0.0476190476190476
 40
0.0952380952380952
 40
0.0952380952380952
 40
0.0952380952380952
 40
0.0952380952380952
 40
0.1428571428571428
 40
0.1428571428571428
 40
0.1428571428571428
 40
0.1428571428571428
 40
0.1904761904761905
 40
0.1904761904761905
 40
0.1904761904761905
 40
0.1904761904761905
 40
0.2380952380952381
 40
0.2380952380952381
 40
0.2380952380952381
 40
0.2380952380952381
 40
0.2857142857142857
 40
0.2857142857142857
 40
0.2857142857142857
 40
0.2857142857142857
 40
0.3333333333333333
 40
0.3333333333333333
 40
0.3333333333333333
 40
0.3333333333333333
 40
0.3809523809523809
 40
0.3809523809523809
 40
0.3809523809523809
 40
0.3809523809523809
 40
0.4285714285714285
 40
0.4285714285714285
 40
0.4285714285714285
 40
0.4285714285714285
 40
0.4761904761904762
 40
0.4761904761904762
 40
0.4761904761904762
 40
0.4761904761904762
 40
0.5238095238095238
 40
0.5238095238095238
 40
0.5238095238095238
 40
0.5238095238095238
 40
0.5714285714285714
 40
0.5714285714285714
 40
0.5714285714285714
 40
0.5714285714285714
 40
0.6190476190476191
 40
0.6190476190476191
 40
0.6190476190476191
 40
0.6190476190476191
 40
0.6666666666666666
 40
0.6666666666666666
 40
0.6666666666666666
 40
0.6666666666666666
 40
0.7142857142857143
 40
0.7142857142857143
 40
0.7142857142857143
 40
0.7142857142857143
 40
0.7619047619047619
 40
0.7619047619047619
 40
0.7619047619047619
 40
0.7619047619047619
 40
0.8095238095238095
 40
0.8095238095238095
 40
0.8095238095238095
 40
0.8095238095238095
 40
0.8571428571428571
 40
0.8571428571428571
 40
0.8571428571428571
 40
0.8571428571428571
 40
0.9047619047619048
 40
0.9047619047619048
 40
0.9047619047619048
 40
0.9047619047619048
 40
1.0
 40
1.0
 40
1.0
 40
1.0
 10
3.3724
 20
31.8577
 30
0.0
 10
3.3724
 20
31.8577
 30
0.0
 10
3.6038
 20
32.1168
 30
0.0
 10
3.6038
 20
32.1168
 30
0.0
 10
3.6038
 20
32.1168
 30
0.0
 10
3.6038
 20
32.1168
 30
0.0
 10
3.7402
 20
32.0011
 30
0.0
 10
3.7402
 20
32.0011
 30
0.0
 10
3.7402
 20
32.0011
 30
0.0
 10
3.7402
 20
32.0011
 30
0.0
 10
3.498
 20
31.7283
 30
0.0
 10
3.498
 20
31.7283
 30
0.0
 10
3.498
 20
31.7283
 30
0.0
 10
3.577
 20
31.6107
 30
0.0
 10
3.6301
 20
31.5077
 30
0.0
 10
3.6579
 20
31.4198
 30
0.0
 10
3.6579
 20
31.4198
 30
0.0
 10
3.6946
 20
31.304
 30
0.0
 10
3.7129
 20
31.1742
 30
0.0
 10
3.7129
 20
31.0312
 30
0.0
 10
3.7129
 20
31.0312
 30
0.0
 10
3.7129
 20
30.8243
 30
0.0
 10
3.6711
 20
30.6399
 30
0.0
 10
3.5873
 20
30.4786
 30
0.0
 10
3.5873
 20
30.4786
 30
0.0
 10
3.5036
 20
30.3167
 30
0.0
 10
3.3865
 20
30.1945
 30
0.0
 10
3.2355
 20
30.1117
 30
0.0
 10
3.2355
 20
30.1117
 30
0.0
 10
3.084
 20
30.0294
 30
0.0
 10
2.9237
 20
29.988
 30
0.0
 10
2.7539
 20
29.988
 30
0.0
 10
2.7539
 20
29.988
 30
0.0
 10
2.6269
 20
29.988
 30
0.0
 10
2.5121
 20
30.0058
 30
0.0
 10
2.4091
 20
30.0416
 30
0.0
 10
2.4091
 20
30.0416
 30
0.0
 10
2.3301
 20
30.0693
 30
0.0
 10
2.2379
 20
30.122
 30
0.0
 10
2.132
 20
30.2001
 30
0.0
 10
2.132
 20
30.2001
 30
0.0
 10
2.132
 20
30.2001
 30
0.0
 10
1.9006
 20
29.9409
 30
0.0
 10
1.9006
 20
29.9409
 30
0.0
 10
1.9006
 20
29.9409
 30
0.0
 10
1.9006
 20
29.9409
 30
0.0
 10
1.7642
 20
30.0566
 30
0.0
 10
1.7642
 20
30.0566
 30
0.0
 10
1.7642
 20
30.0566
 30
0.0
 10
1.7642
 20
30.0566
 30
0.0
 10
2.0069
 20
30.328
 30
0.0
 10
2.0069
 20
30.328
 30
0.0
 10
2.0069
 20
30.328
 30
0.0
 10
1.9166
 20
30.4649
 30
0.0
 10
1.8564
 20
30.582
 30
0.0
 10
1.8263
 20
30.6789
 30
0.0
 10
1.8263
 20
30.6789
 30
0.0
 10
1.7962
 20
30.7758
 30
0.0
 10
1.7807
 20
30.8925
 30
0.0
 10
1.7807
 20
31.0284
 30
0.0
 10
1.7807
 20
31.0284
 30
0.0
 10
1.7807
 20
31.2358
 30
0.0
 10
1.8221
 20
31.4207
 30
0.0
 10
1.9048
 20
31.583
 30
0.0
 10
1.9048
 20
31.583
 30
0.0
 10
1.9876
 20
31.7453
 30
0.0
 10
2.1033
 20
31.868
 30
0.0
 10
2.2529
 20
31.9517
 30
0.0
 10
2.2529
 20
31.9517
 30
0.0
 10
2.402
 20
32.035
 30
0.0
 10
2.5681
 20
32.0769
 30
0.0
 10
2.751
 20
32.0769
 30
0.0
 10
2.751
 20
32.0769
 30
0.0
 10
2.8743
 20
32.0769
 30
0.0
 10
2.982
 20
32.0609
 30
0.0
 10
3.0742
 20
32.0279
 30
0.0
 10
3.0742
 20
32.0279
 30
0.0
 10
3.1664
 20
31.9955
 30
0.0
 10
3.2661
 20
31.9386
 30
0.0
 10
3.3724
 20
31.8577
 30
0.0
  0
SPLINE
  5
52
330
1F
100
AcDbEntity
  8
DEFAULT_1
 62
   250
100
AcDbSpline
210
0.0
220
0.0
230
1.0
 70
    11
 71
     3
 72
    32
 73
    28
 74
     0
 42
0.0000000001
 43
0.0000000001
 40
0.0
 40
0.0
 40
0.0
 40
0.0
 40
0.125
 40
0.125
 40
0.125
 40
0.125
 40
0.25
 40
0.25
 40
0.25
 40
0.25
 40
0.375
 40
0.375
 40
0.375
 40
0.375
 40
0.5
 40
0.5
 40
0.5
 40
0.5
 40
0.625
 40
0.625
 40
0.625
 40
0.625
 40
0.75
 40
0.75
 40
0.75
 40
0.75
 40
1.0
 40
1.0
 40
1.0
 40
1.0
 10
3.2073
 20
31.6719
 30
0.0
 10
3.1207
 20
31.7396
 30
0.0
 10
3.045
 20
31.7862
 30
0.0
 10
2.9806
 20
31.8111
 30
0.0
 10
2.9806
 20
31.8111
 30
0.0
 10
2.9157
 20
31.8356
 30
0.0
 10
2.8395
 20
31.8483
 30
0.0
 10
2.7524
 20
31.8483
 30
0.0
 10
2.7524
 20
31.8483
 30
0.0
 10
2.5511
 20
31.8483
 30
0.0
 10
2.3851
 20
31.7801
 30
0.0
 10
2.2534
 20
31.6437
 30
0.0
 10
2.2534
 20
31.6437
 30
0.0
 10
2.1221
 20
31.5072
 30
0.0
 10
2.0563
 20
31.3036
 30
0.0
 10
2.0563
 20
31.0322
 30
0.0
 10
2.0563
 20
31.0322
 30
0.0
 10
2.0563
 20
30.9259
 30
0.0
 10
2.0666
 20
30.8313
 30
0.0
 10
2.0869
 20
30.7485
 30
0.0
 10
2.0869
 20
30.7485
 30
0.0
 10
2.1015
 20
30.6869
 30
0.0
 10
2.132
 20
30.6112
 30
0.0
 10
2.1791
 20
30.5214
 30
0.0
 10
2.1791
 20
30.5214
 30
0.0
 10
2.1791
 20
30.5214
 30
0.0
 10
3.2073
 20
31.6719
 30
0.0
 10
3.2073
 20
31.6719
 30
0.0
  0
SPLINE
  5
53
330
1F
100
AcDbEntity
  8
DEFAULT_1
 62
   250
100
AcDbSpline
210
0.0
220
0.0
230
1.0
 70
    11
 71
     3
 72
    28
 73
    24
 74
     0
 42
0.0000000001
 43
0.0000000001
 40
0.0
 40
0.0
 40
0.0
 40
0.0
 40
0.1428571428571428
 40
0.1428571428571428
 40
0.1428571428571428
 40
0.1428571428571428
 40
0.2857142857142857
 40
0.2857142857142857
 40
0.2857142857142857
 40
0.2857142857142857
 40
0.4285714285714285
 40
0.4285714285714285
 40
0.4285714285714285
 40
0.4285714285714285
 40
0.5714285714285714
 40
0.5714285714285714
 40
0.5714285714285714
 40
0.5714285714285714
 40
0.7142857142857143
 40
0.7142857142857143
 40
0.7142857142857143
 40
0.7142857142857143
 40
1.0
 40
1.0
 40
1.0
 40
1.0
 10
3.3202
 20
31.5298
 30
0.0
 10
3.3202
 20
31.5298
 30
0.0
 10
2.2962
 20
30.3835
 30
0.0
 10
2.2962
 20
30.3835
 30
0.0
 10
2.2962
 20
30.3835
 30
0.0
 10
2.3667
 20
30.3257
 30
0.0
 10
2.4321
 20
30.2852
 30
0.0
 10
2.4919
 20
30.2622
 30
0.0
 10
2.4919
 20
30.2622
 30
0.0
 10
2.5699
 20
30.2316
 30
0.0
 10
2.6546
 20
30.2166
 30
0.0
 10
2.7454
 20
30.2166
 30
0.0
 10
2.7454
 20
30.2166
 30
0.0
 10
2.9458
 20
30.2166
 30
0.0
 10
3.1109
 20
30.2871
 30
0.0
 10
3.2416
 20
30.4287
 30
0.0
 10
3.2416
 20
30.4287
 30
0.0
 10
3.3719
 20
30.5703
 30
0.0
 10
3.4373
 20
30.7688
 30
0.0
 10
3.4373
 20
31.0242
 30
0.0
 10
3.4373
 20
31.0242
 30
0.0
 10
3.4373
 20
31.2151
 30
0.0
 10
3.3983
 20
31.384
 30
0.0
 10
3.3202
 20
31.5298
 30
0.0
  0
SPLINE
  5
54
330
1F
100
AcDbEntity
  8
DEFAULT_1
 62
   250
100
AcDbSpline
210
0.0
220
0.0
230
1.0
 70
    11
 71
     3
 72
    80
 73
    76
 74
     0
 42
0.0000000001
 43
0.0000000001
 40
0.0
 40
0.0
 40
0.0
 40
0.0
 40
0.05
 40
0.05
 40
0.05
 40
0.05
 40
0.1
 40
0.1
 40
0.1
 40
0.1
 40
0.15
 40
0.15
 40
0.15
 40
0.15
 40
0.2
 40
0.2
 40
0.2
 40
0.2
 40
0.25
 40
0.25
 40
0.25
 40
0.25
 40
0.3
 40
0.3
 40
0.3
 40
0.3
 40
0.35
 40
0.35
 40
0.35
 40
0.35
 40
0.4
 40
0.4
 40
0.4
 40
0.4
 40
0.45
 40
0.45
 40
0.45
 40
0.45
 40
0.5
 40
0.5
 40
0.5
 40
0.5
 40
0.55
 40
0.55
 40
0.55
 40
0.55
 40
0.6
 40
0.6
 40
0.6
 40
0.6
 40
0.65
 40
0.65
 40
0.65
 40
0.65
 40
0.7
 40
0.7
 40
0.7
 40
0.7
 40
0.75
 40
0.75
 40
0.75
 40
0.75
 40
0.8
 40
0.8
 40
0.8
 40
0.8
 40
0.85
 40
0.85
 40
0.85
 40
0.85
 40
0.9
 40
0.9
 40
0.9
 40
0.9
 40
1.0
 40
1.0
 40
1.0
 40
1.0
 10
5.2491
 20
31.5477
 30
0.0
 10
5.2491
 20
31.5477
 30
0.0
 10
5.0027
 20
31.5284
 30
0.0
 10
5.0027
 20
31.5284
 30
0.0
 10
5.0027
 20
31.5284
 30
0.0
 10
4.9806
 20
31.6258
 30
0.0
 10
4.9495
 20
31.6968
 30
0.0
 10
4.9091
 20
31.7405
 30
0.0
 10
4.9091
 20
31.7405
 30
0.0
 10
4.8418
 20
31.8116
 30
0.0
 10
4.759
 20
31.8469
 30
0.0
 10
4.6607
 20
31.8469
 30
0.0
 10
4.6607
 20
31.8469
 30
0.0
 10
4.5817
 20
31.8469
 30
0.0
 10
4.5126
 20
31.8247
 30
0.0
 10
4.4528
 20
31.7805
 30
0.0
 10
4.4528
 20
31.7805
 30
0.0
 10
4.3747
 20
31.7236
 30
0.0
 10
4.3131
 20
31.6404
 30
0.0
 10
4.268
 20
31.5312
 30
0.0
 10
4.268
 20
31.5312
 30
0.0
 10
4.2233
 20
31.4221
 30
0.0
 10
4.1998
 20
31.2664
 30
0.0
 10
4.1979
 20
31.0642
 30
0.0
 10
4.1979
 20
31.0642
 30
0.0
 10
4.2576
 20
31.1549
 30
0.0
 10
4.3305
 20
31.2227
 30
0.0
 10
4.4171
 20
31.2669
 30
0.0
 10
4.4171
 20
31.2669
 30
0.0
 10
4.5031
 20
31.3106
 30
0.0
 10
4.5939
 20
31.3327
 30
0.0
 10
4.6885
 20
31.3327
 30
0.0
 10
4.6885
 20
31.3327
 30
0.0
 10
4.854
 20
31.3327
 30
0.0
 10
4.9947
 20
31.2721
 30
0.0
 10
5.1109
 20
31.1502
 30
0.0
 10
5.1109
 20
31.1502
 30
0.0
 10
5.227
 20
31.0284
 30
0.0
 10
5.2854
 20
30.8713
 30
0.0
 10
5.2854
 20
30.6785
 30
0.0
 10
5.2854
 20
30.6785
 30
0.0
 10
5.2854
 20
30.5515
 30
0.0
 10
5.2576
 20
30.4339
 30
0.0
 10
5.203
 20
30.3247
 30
0.0
 10
5.203
 20
30.3247
 30
0.0
 10
5.1485
 20
30.2161
 30
0.0
 10
5.0732
 20
30.1324
 30
0.0
 10
4.9777
 20
30.0745
 30
0.0
 10
4.9777
 20
30.0745
 30
0.0
 10
4.8823
 20
30.0167
 30
0.0
 10
4.7741
 20
29.988
 30
0.0
 10
4.6527
 20
29.988
 30
0.0
 10
4.6527
 20
29.988
 30
0.0
 10
4.4458
 20
29.988
 30
0.0
 10
4.2774
 20
30.0637
 30
0.0
 10
4.1471
 20
30.2161
 30
0.0
 10
4.1471
 20
30.2161
 30
0.0
 10
4.0163
 20
30.368
 30
0.0
 10
3.9514
 20
30.6187
 30
0.0
 10
3.9514
 20
30.9677
 30
0.0
 10
3.9514
 20
30.9677
 30
0.0
 10
3.9514
 20
31.3581
 30
0.0
 10
4.0234
 20
31.6418
 30
0.0
 10
4.1678
 20
31.8191
 30
0.0
 10
4.1678
 20
31.8191
 30
0.0
 10
4.2934
 20
31.9734
 30
0.0
 10
4.4627
 20
32.051
 30
0.0
 10
4.6762
 20
32.051
 30
0.0
 10
4.6762
 20
32.051
 30
0.0
 10
4.8348
 20
32.051
 30
0.0
 10
4.965
 20
32.0063
 30
0.0
 10
5.0666
 20
31.9169
 30
0.0
 10
5.0666
 20
31.9169
 30
0.0
 10
5.1682
 20
31.828
 30
0.0
 10
5.2289
 20
31.7048
 30
0.0
 10
5.2491
 20
31.5477
 30
0.0
  0
SPLINE
  5
55
330
1F
100
AcDbEntity
  8
DEFAULT_1
 62
   250
100
AcDbSpline
210
0.0
220
0.0
230
1.0
 70
    11
 71
     3
 72
    40
 73
    36
 74
     0
 42
0.0000000001
 43
0.0000000001
 40
0.0
 40
0.0
 40
0.0
 40
0.0
 40
0.1
 40
0.1
 40
0.1
 40
0.1
 40
0.2
 40
0.2
 40
0.2
 40
0.2
 40
0.3
 40
0.3
 40
0.3
 40
0.3
 40
0.4
 40
0.4
 40
0.4
 40
0.4
 40
0.5
 40
0.5
 40
0.5
 40
0.5
 40
0.6
 40
0.6
 40
0.6
 40
0.6
 40
0.7
 40
0.7
 40
0.7
 40
0.7
 40
0.8
 40
0.8
 40
0.8
 40
0.8
 40
1.0
 40
1.0
 40
1.0
 40
1.0
 10
4.2364
 20
30.6771
 30
0.0
 10
4.2364
 20
30.5914
 30
0.0
 10
4.2548
 20
30.5096
 30
0.0
 10
4.291
 20
30.4315
 30
0.0
 10
4.291
 20
30.4315
 30
0.0
 10
4.3272
 20
30.3534
 30
0.0
 10
4.378
 20
30.2942
 30
0.0
 10
4.4429
 20
30.2533
 30
0.0
 10
4.4429
 20
30.2533
 30
0.0
 10
4.5083
 20
30.2123
 30
0.0
 10
4.577
 20
30.1916
 30
0.0
 10
4.6485
 20
30.1916
 30
0.0
 10
4.6485
 20
30.1916
 30
0.0
 10
4.7534
 20
30.1916
 30
0.0
 10
4.8432
 20
30.234
 30
0.0
 10
4.9185
 20
30.3186
 30
0.0
 10
4.9185
 20
30.3186
 30
0.0
 10
4.9937
 20
30.4033
 30
0.0
 10
5.0314
 20
30.5181
 30
0.0
 10
5.0314
 20
30.6629
 30
0.0
 10
5.0314
 20
30.6629
 30
0.0
 10
5.0314
 20
30.8026
 30
0.0
 10
4.9942
 20
30.9127
 30
0.0
 10
4.9199
 20
30.9931
 30
0.0
 10
4.9199
 20
30.9931
 30
0.0
 10
4.8456
 20
31.0736
 30
0.0
 10
4.752
 20
31.1136
 30
0.0
 10
4.6391
 20
31.1136
 30
0.0
 10
4.6391
 20
31.1136
 30
0.0
 10
4.5267
 20
31.1136
 30
0.0
 10
4.4316
 20
31.0736
 30
0.0
 10
4.3536
 20
30.9931
 30
0.0
 10
4.3536
 20
30.9931
 30
0.0
 10
4.2755
 20
30.9127
 30
0.0
 10
4.2364
 20
30.8073
 30
0.0
 10
4.2364
 20
30.6771
 30
0.0
  0
SPLINE
  5
56
330
1F
100
AcDbEntity
  8
DEFAULT_1
 62
   250
100
AcDbSpline
210
0.0
220
0.0
230
1.0
 70
    11
 71
     3
 72
    92
 73
    88
 74
     0
 42
0.0000000001
 43
0.0000000001
 40
0.0
 40
0.0
 40
0.0
 40
0.0
 40
0.0434782608695652
 40
0.0434782608695652
 40
0.0434782608695652
 40
0.0434782608695652
 40
0.0869565217391304
 40
0.0869565217391304
 40
0.0869565217391304
 40
0.0869565217391304
 40
0.1304347826086956
 40
0.1304347826086956
 40
0.1304347826086956
 40
0.1304347826086956
 40
0.1739130434782609
 40
0.1739130434782609
 40
0.1739130434782609
 40
0.1739130434782609
 40
0.2173913043478261
 40
0.2173913043478261
 40
0.2173913043478261
 40
0.2173913043478261
 40
0.2608695652173913
 40
0.2608695652173913
 40
0.2608695652173913
 40
0.2608695652173913
 40
0.3043478260869565
 40
0.3043478260869565
 40
0.3043478260869565
 40
0.3043478260869565
 40
0.3478260869565217
 40
0.3478260869565217
 40
0.3478260869565217
 40
0.3478260869565217
 40
0.391304347826087
 40
0.391304347826087
 40
0.391304347826087
 40
0.391304347826087
 40
0.4347826086956522
 40
0.4347826086956522
 40
0.4347826086956522
 40
0.4347826086956522
 40
0.4782608695652174
 40
0.4782608695652174
 40
0.4782608695652174
 40
0.4782608695652174
 40
0.5217391304347826
 40
0.5217391304347826
 40
0.5217391304347826
 40
0.5217391304347826
 40
0.5652173913043478
 40
0.5652173913043478
 40
0.5652173913043478
 40
0.5652173913043478
 40
0.6086956521739131
 40
0.6086956521739131
 40
0.6086956521739131
 40
0.6086956521739131
 40
0.6521739130434783
 40
0.6521739130434783
 40
0.6521739130434783
 40
0.6521739130434783
 40
0.6956521739130435
 40
0.6956521739130435
 40
0.6956521739130435
 40
0.6956521739130435
 40
0.7391304347826086
 40
0.7391304347826086
 40
0.7391304347826086
 40
0.7391304347826086
 40
0.782608695652174
 40
0.782608695652174
 40
0.782608695652174
 40
0.782608695652174
 40
0.8260869565217391
 40
0.8260869565217391
 40
0.8260869565217391
 40
0.8260869565217391
 40
0.8695652173913043
 40
0.8695652173913043
 40
0.8695652173913043
 40
0.8695652173913043
 40
0.9130434782608695
 40
0.9130434782608695
 40
0.9130434782608695
 40
0.9130434782608695
 40
1.0
 40
1.0
 40
1.0
 40
1.0
 10
6.8357
 20
30.2608
 30
0.0
 10
6.8357
 20
30.2608
 30
0.0
 10
6.8357
 20
30.0223
 30
0.0
 10
6.8357
 20
30.0223
 30
0.0
 10
6.8357
 20
30.0223
 30
0.0
 10
6.8357
 20
30.0223
 30
0.0
 10
5.5003
 20
30.0223
 30
0.0
 10
5.5003
 20
30.0223
 30
0.0
 10
5.5003
 20
30.0223
 30
0.0
 10
5.4984
 20
30.082
 30
0.0
 10
5.5078
 20
30.1394
 30
0.0
 10
5.529
 20
30.1945
 30
0.0
 10
5.529
 20
30.1945
 30
0.0
 10
5.5629
 20
30.2857
 30
0.0
 10
5.6174
 20
30.3751
 30
0.0
 10
5.6922
 20
30.4635
 30
0.0
 10
5.6922
 20
30.4635
 30
0.0
 10
5.7675
 20
30.5515
 30
0.0
 10
5.8757
 20
30.6535
 30
0.0
 10
6.0168
 20
30.7692
 30
0.0
 10
6.0168
 20
30.7692
 30
0.0
 10
6.2364
 20
30.9494
 30
0.0
 10
6.3851
 20
31.0919
 30
0.0
 10
6.4622
 20
31.1973
 30
0.0
 10
6.4622
 20
31.1973
 30
0.0
 10
6.5393
 20
31.3022
 30
0.0
 10
6.5779
 20
31.4019
 30
0.0
 10
6.5779
 20
31.4955
 30
0.0
 10
6.5779
 20
31.4955
 30
0.0
 10
6.5779
 20
31.5938
 30
0.0
 10
6.5426
 20
31.6766
 30
0.0
 10
6.4726
 20
31.7443
 30
0.0
 10
6.4726
 20
31.7443
 30
0.0
 10
6.402
 20
31.8116
 30
0.0
 10
6.3103
 20
31.8454
 30
0.0
 10
6.1974
 20
31.8454
 30
0.0
 10
6.1974
 20
31.8454
 30
0.0
 10
6.0779
 20
31.8454
 30
0.0
 10
5.9824
 20
31.8097
 30
0.0
 10
5.9109
 20
31.7377
 30
0.0
 10
5.9109
 20
31.7377
 30
0.0
 10
5.839
 20
31.6662
 30
0.0
 10
5.8028
 20
31.567
 30
0.0
 10
5.8018
 20
31.4405
 30
0.0
 10
5.8018
 20
31.4405
 30
0.0
 10
5.8018
 20
31.4405
 30
0.0
 10
5.5469
 20
31.4663
 30
0.0
 10
5.5469
 20
31.4663
 30
0.0
 10
5.5469
 20
31.4663
 30
0.0
 10
5.5643
 20
31.6568
 30
0.0
 10
5.6301
 20
31.8017
 30
0.0
 10
5.744
 20
31.9014
 30
0.0
 10
5.744
 20
31.9014
 30
0.0
 10
5.8578
 20
32.0011
 30
0.0
 10
6.0111
 20
32.051
 30
0.0
 10
6.203
 20
32.051
 30
0.0
 10
6.203
 20
32.051
 30
0.0
 10
6.3968
 20
32.051
 30
0.0
 10
6.5502
 20
31.9969
 30
0.0
 10
6.6631
 20
31.8897
 30
0.0
 10
6.6631
 20
31.8897
 30
0.0
 10
6.7764
 20
31.7819
 30
0.0
 10
6.8329
 20
31.6488
 30
0.0
 10
6.8329
 20
31.4898
 30
0.0
 10
6.8329
 20
31.4898
 30
0.0
 10
6.8329
 20
31.4089
 30
0.0
 10
6.8164
 20
31.3294
 30
0.0
 10
6.783
 20
31.2514
 30
0.0
 10
6.783
 20
31.2514
 30
0.0
 10
6.7501
 20
31.1733
 30
0.0
 10
6.695
 20
31.091
 30
0.0
 10
6.6184
 20
31.0049
 30
0.0
 10
6.6184
 20
31.0049
 30
0.0
 10
6.5417
 20
30.9183
 30
0.0
 10
6.4142
 20
30.7998
 30
0.0
 10
6.236
 20
30.6493
 30
0.0
 10
6.236
 20
30.6493
 30
0.0
 10
6.0873
 20
30.5242
 30
0.0
 10
5.9918
 20
30.4395
 30
0.0
 10
5.9495
 20
30.3948
 30
0.0
 10
5.9495
 20
30.3948
 30
0.0
 10
5.9072
 20
30.3506
 30
0.0
 10
5.8724
 20
30.3059
 30
0.0
 10
5.8446
 20
30.2608
 30
0.0
 10
5.8446
 20
30.2608
 30
0.0
 10
5.8446
 20
30.2608
 30
0.0
 10
6.8357
 20
30.2608
 30
0.0
 10
6.8357
 20
30.2608
 30
0.0
  0
SPLINE
  5
57
330
1F
100
AcDbEntity
  8
DEFAULT_1
 62
   250
100
AcDbSpline
210
0.0
220
0.0
230
1.0
 70
    11
 71
     3
 72
    80
 73
    76
 74
     0
 42
0.0000000001
 43
0.0000000001
 40
0.0
 40
0.0
 40
0.0
 40
0.0
 40
0.05
 40
0.05
 40
0.05
 40
0.05
 40
0.1
 40
0.1
 40
0.1
 40
0.1
 40
0.15
 40
0.15
 40
0.15
 40
0.15
 40
0.2
 40
0.2
 40
0.2
 40
0.2
 40
0.25
 40
0.25
 40
0.25
 40
0.25
 40
0.3
 40
0.3
 40
0.3
 40
0.3
 40
0.35
 40
0.35
 40
0.35
 40
0.35
 40
0.4
 40
0.4
 40
0.4
 40
0.4
 40
0.45
 40
0.45
 40
0.45
 40
0.45
 40
0.5
 40
0.5
 40
0.5
 40
0.5
 40
0.55
 40
0.55
 40
0.55
 40
0.55
 40
0.6
 40
0.6
 40
0.6
 40
0.6
 40
0.65
 40
0.65
 40
0.65
 40
0.65
 40
0.7
 40
0.7
 40
0.7
 40
0.7
 40
0.75
 40
0.75
 40
0.75
 40
0.75
 40
0.8
 40
0.8
 40
0.8
 40
0.8
 40
0.85
 40
0.85
 40
0.85
 40
0.85
 40
0.9
 40
0.9
 40
0.9
 40
0.9
 40
1.0
 40
1.0
 40
1.0
 40
1.0
 10
-15.4061
 20
-7.9193
 30
0.0
 10
-15.4061
 20
-7.9193
 30
0.0
 10
-15.3868
 20
-8.1657
 30
0.0
 10
-15.3868
 20
-8.1657
 30
0.0
 10
-15.3868
 20
-8.1657
 30
0.0
 10
-15.4842
 20
-8.1878
 30
0.0
 10
-15.5552
 20
-8.2189
 30
0.0
 10
-15.5989
 20
-8.2593
 30
0.0
 10
-15.5989
 20
-8.2593
 30
0.0
 10
-15.67
 20
-8.3266
 30
0.0
 10
-15.7053
 20
-8.4094
 30
0.0
 10
-15.7053
 20
-8.5077
 30
0.0
 10
-15.7053
 20
-8.5077
 30
0.0
 10
-15.7053
 20
-8.5867
 30
0.0
 10
-15.6831
 20
-8.6558
 30
0.0
 10
-15.6389
 20
-8.7156
 30
0.0
 10
-15.6389
 20
-8.7156
 30
0.0
 10
-15.582
 20
-8.7937
 30
0.0
 10
-15.4988
 20
-8.8553
 30
0.0
 10
-15.3896
 20
-8.9004
 30
0.0
 10
-15.3896
 20
-8.9004
 30
0.0
 10
-15.2805
 20
-8.9451
 30
0.0
 10
-15.1248
 20
-8.9686
 30
0.0
 10
-14.9226
 20
-8.9705
 30
0.0
 10
-14.9226
 20
-8.9705
 30
0.0
 10
-15.0133
 20
-8.9108
 30
0.0
 10
-15.0811
 20
-8.8379
 30
0.0
 10
-15.1253
 20
-8.7513
 30
0.0
 10
-15.1253
 20
-8.7513
 30
0.0
 10
-15.169
 20
-8.6653
 30
0.0
 10
-15.1911
 20
-8.5745
 30
0.0
 10
-15.1911
 20
-8.4799
 30
0.0
 10
-15.1911
 20
-8.4799
 30
0.0
 10
-15.1911
 20
-8.3144
 30
0.0
 10
-15.1305
 20
-8.1737
 30
0.0
 10
-15.0086
 20
-8.0575
 30
0.0
 10
-15.0086
 20
-8.0575
 30
0.0
 10
-14.8868
 20
-7.9414
 30
0.0
 10
-14.7297
 20
-7.883
 30
0.0
 10
-14.5369
 20
-7.883
 30
0.0
 10
-14.5369
 20
-7.883
 30
0.0
 10
-14.4099
 20
-7.883
 30
0.0
 10
-14.2923
 20
-7.9108
 30
0.0
 10
-14.1831
 20
-7.9654
 30
0.0
 10
-14.1831
 20
-7.9654
 30
0.0
 10
-14.0745
 20
-8.0199
 30
0.0
 10
-13.9908
 20
-8.0952
 30
0.0
 10
-13.9329
 20
-8.1907
 30
0.0
 10
-13.9329
 20
-8.1907
 30
0.0
 10
-13.8751
 20
-8.2861
 30
0.0
 10
-13.8464
 20
-8.3943
 30
0.0
 10
-13.8464
 20
-8.5157
 30
0.0
 10
-13.8464
 20
-8.5157
 30
0.0
 10
-13.8464
 20
-8.7226
 30
0.0
 10
-13.9221
 20
-8.891
 30
0.0
 10
-14.0745
 20
-9.0213
 30
0.0
 10
-14.0745
 20
-9.0213
 30
0.0
 10
-14.2264
 20
-9.1521
 30
0.0
 10
-14.4771
 20
-9.217
 30
0.0
 10
-14.8261
 20
-9.217
 30
0.0
 10
-14.8261
 20
-9.217
 30
0.0
 10
-15.2165
 20
-9.217
 30
0.0
 10
-15.5002
 20
-9.145
 30
0.0
 10
-15.6775
 20
-9.0006
 30
0.0
 10
-15.6775
 20
-9.0006
 30
0.0
 10
-15.8318
 20
-8.875
 30
0.0
 10
-15.9094
 20
-8.7057
 30
0.0
 10
-15.9094
 20
-8.4922
 30
0.0
 10
-15.9094
 20
-8.4922
 30
0.0
 10
-15.9094
 20
-8.3336
 30
0.0
 10
-15.8647
 20
-8.2034
 30
0.0
 10
-15.7753
 20
-8.1018
 30
0.0
 10
-15.7753
 20
-8.1018
 30
0.0
 10
-15.6864
 20
-8.0002
 30
0.0
 10
-15.5632
 20
-7.9395
 30
0.0
 10
-15.4061
 20
-7.9193
 30
0.0
  0
SPLINE
  5
58
330
1F
100
AcDbEntity
  8
DEFAULT_1
 62
   250
100
AcDbSpline
210
0.0
220
0.0
230
1.0
 70
    11
 71
     3
 72
    40
 73
    36
 74
     0
 42
0.0000000001
 43
0.0000000001
 40
0.0
 40
0.0
 40
0.0
 40
0.0
 40
0.1
 40
0.1
 40
0.1
 40
0.1
 40
0.2
 40
0.2
 40
0.2
 40
0.2
 40
0.3
 40
0.3
 40
0.3
 40
0.3
 40
0.4
 40
0.4
 40
0.4
 40
0.4
 40
0.5
 40
0.5
 40
0.5
 40
0.5
 40
0.6
 40
0.6
 40
0.6
 40
0.6
 40
0.7
 40
0.7
 40
0.7
 40
0.7
 40
0.8
 40
0.8
 40
0.8
 40
0.8
 40
1.0
 40
1.0
 40
1.0
 40
1.0
 10
-14.5355
 20
-8.932
 30
0.0
 10
-14.4498
 20
-8.932
 30
0.0
 10
-14.368
 20
-8.9136
 30
0.0
 10
-14.2899
 20
-8.8774
 30
0.0
 10
-14.2899
 20
-8.8774
 30
0.0
 10
-14.2118
 20
-8.8412
 30
0.0
 10
-14.1526
 20
-8.7904
 30
0.0
 10
-14.1117
 20
-8.7255
 30
0.0
 10
-14.1117
 20
-8.7255
 30
0.0
 10
-14.0707
 20
-8.6601
 30
0.0
 10
-14.05
 20
-8.5914
 30
0.0
 10
-14.05
 20
-8.5199
 30
0.0
 10
-14.05
 20
-8.5199
 30
0.0
 10
-14.05
 20
-8.415
 30
0.0
 10
-14.0924
 20
-8.3252
 30
0.0
 10
-14.177
 20
-8.2499
 30
0.0
 10
-14.177
 20
-8.2499
 30
0.0
 10
-14.2617
 20
-8.1747
 30
0.0
 10
-14.3765
 20
-8.137
 30
0.0
 10
-14.5213
 20
-8.137
 30
0.0
 10
-14.5213
 20
-8.137
 30
0.0
 10
-14.661
 20
-8.137
 30
0.0
 10
-14.7711
 20
-8.1742
 30
0.0
 10
-14.8515
 20
-8.2485
 30
0.0
 10
-14.8515
 20
-8.2485
 30
0.0
 10
-14.932
 20
-8.3228
 30
0.0
 10
-14.972
 20
-8.4164
 30
0.0
 10
-14.972
 20
-8.5293
 30
0.0
 10
-14.972
 20
-8.5293
 30
0.0
 10
-14.972
 20
-8.6417
 30
0.0
 10
-14.932
 20
-8.7368
 30
0.0
 10
-14.8515
 20
-8.8148
 30
0.0
 10
-14.8515
 20
-8.8148
 30
0.0
 10
-14.7711
 20
-8.8929
 30
0.0
 10
-14.6657
 20
-8.932
 30
0.0
 10
-14.5355
 20
-8.932
 30
0.0
  0
SPLINE
  5
59
330
1F
100
AcDbEntity
  8
DEFAULT_1
 62
   250
100
AcDbSpline
210
0.0
220
0.0
230
1.0
 70
    11
 71
     3
 72
    92
 73
    88
 74
     0
 42
0.0000000001
 43
0.0000000001
 40
0.0
 40
0.0
 40
0.0
 40
0.0
 40
0.0434782608695652
 40
0.0434782608695652
 40
0.0434782608695652
 40
0.0434782608695652
 40
0.0869565217391304
 40
0.0869565217391304
 40
0.0869565217391304
 40
0.0869565217391304
 40
0.1304347826086956
 40
0.1304347826086956
 40
0.1304347826086956
 40
0.1304347826086956
 40
0.1739130434782609
 40
0.1739130434782609
 40
0.1739130434782609
 40
0.1739130434782609
 40
0.2173913043478261
 40
0.2173913043478261
 40
0.2173913043478261
 40
0.2173913043478261
 40
0.2608695652173913
 40
0.2608695652173913
 40
0.2608695652173913
 40
0.2608695652173913
 40
0.3043478260869565
 40
0.3043478260869565
 40
0.3043478260869565
 40
0.3043478260869565
 40
0.3478260869565217
 40
0.3478260869565217
 40
0.3478260869565217
 40
0.3478260869565217
 40
0.391304347826087
 40
0.391304347826087
 40
0.391304347826087
 40
0.391304347826087
 40
0.4347826086956522
 40
0.4347826086956522
 40
0.4347826086956522
 40
0.4347826086956522
 40
0.4782608695652174
 40
0.4782608695652174
 40
0.4782608695652174
 40
0.4782608695652174
 40
0.5217391304347826
 40
0.5217391304347826
 40
0.5217391304347826
 40
0.5217391304347826
 40
0.5652173913043478
 40
0.5652173913043478
 40
0.5652173913043478
 40
0.5652173913043478
 40
0.6086956521739131
 40
0.6086956521739131
 40
0.6086956521739131
 40
0.6086956521739131
 40
0.6521739130434783
 40
0.6521739130434783
 40
0.6521739130434783
 40
0.6521739130434783
 40
0.6956521739130435
 40
0.6956521739130435
 40
0.6956521739130435
 40
0.6956521739130435
 40
0.7391304347826086
 40
0.7391304347826086
 40
0.7391304347826086
 40
0.7391304347826086
 40
0.782608695652174
 40
0.782608695652174
 40
0.782608695652174
 40
0.782608695652174
 40
0.8260869565217391
 40
0.8260869565217391
 40
0.8260869565217391
 40
0.8260869565217391
 40
0.8695652173913043
 40
0.8695652173913043
 40
0.8695652173913043
 40
0.8695652173913043
 40
0.9130434782608695
 40
0.9130434782608695
 40
0.9130434782608695
 40
0.9130434782608695
 40
1.0
 40
1.0
 40
1.0
 40
1.0
 10
-14.3478
 20
-7.5994
 30
0.0
 10
-14.3478
 20
-7.5994
 30
0.0
 10
-14.3699
 20
-7.3609
 30
0.0
 10
-14.3699
 20
-7.3609
 30
0.0
 10
-14.3699
 20
-7.3609
 30
0.0
 10
-14.2579
 20
-7.3407
 30
0.0
 10
-14.1766
 20
-7.3021
 30
0.0
 10
-14.1258
 20
-7.2452
 30
0.0
 10
-14.1258
 20
-7.2452
 30
0.0
 10
-14.0754
 20
-7.1883
 30
0.0
 10
-14.05
 20
-7.1154
 30
0.0
 10
-14.05
 20
-7.026
 30
0.0
 10
-14.05
 20
-7.026
 30
0.0
 10
-14.05
 20
-6.9498
 30
0.0
 10
-14.0674
 20
-6.8831
 30
0.0
 10
-14.1027
 20
-6.8257
 30
0.0
 10
-14.1027
 20
-6.8257
 30
0.0
 10
-14.1375
 20
-6.7683
 30
0.0
 10
-14.1841
 20
-6.7212
 30
0.0
 10
-14.2424
 20
-6.6846
 30
0.0
 10
-14.2424
 20
-6.6846
 30
0.0
 10
-14.3007
 20
-6.6474
 30
0.0
 10
-14.3798
 20
-6.6168
 30
0.0
 10
-14.4785
 20
-6.5919
 30
0.0
 10
-14.4785
 20
-6.5919
 30
0.0
 10
-14.5778
 20
-6.5674
 30
0.0
 10
-14.6789
 20
-6.5547
 30
0.0
 10
-14.7819
 20
-6.5547
 30
0.0
 10
-14.7819
 20
-6.5547
 30
0.0
 10
-14.7927
 20
-6.5547
 30
0.0
 10
-14.8097
 20
-6.5552
 30
0.0
 10
-14.8313
 20
-6.5561
 30
0.0
 10
-14.8313
 20
-6.5561
 30
0.0
 10
-14.7528
 20
-6.606
 30
0.0
 10
-14.6883
 20
-6.6737
 30
0.0
 10
-14.6394
 20
-6.7593
 30
0.0
 10
-14.6394
 20
-6.7593
 30
0.0
 10
-14.59
 20
-6.8454
 30
0.0
 10
-14.5656
 20
-6.9386
 30
0.0
 10
-14.5656
 20
-7.0383
 30
0.0
 10
-14.5656
 20
-7.0383
 30
0.0
 10
-14.5656
 20
-7.2057
 30
0.0
 10
-14.6262
 20
-7.3473
 30
0.0
 10
-14.7476
 20
-7.463
 30
0.0
 10
-14.7476
 20
-7.463
 30
0.0
 10
-14.8689
 20
-7.5787
 30
0.0
 10
-15.0284
 20
-7.6366
 30
0.0
 10
-15.2269
 20
-7.6366
 30
0.0
 10
-15.2269
 20
-7.6366
 30
0.0
 10
-15.432
 20
-7.6366
 30
0.0
 10
-15.5966
 20
-7.5764
 30
0.0
 10
-15.7217
 20
-7.4555
 30
0.0
 10
-15.7217
 20
-7.4555
 30
0.0
 10
-15.8468
 20
-7.3346
 30
0.0
 10
-15.9094
 20
-7.1831
 30
0.0
 10
-15.9094
 20
-7.0011
 30
0.0
 10
-15.9094
 20
-7.0011
 30
0.0
 10
-15.9094
 20
-6.8699
 30
0.0
 10
-15.8736
 20
-6.7499
 30
0.0
 10
-15.8031
 20
-6.6408
 30
0.0
 10
-15.8031
 20
-6.6408
 30
0.0
 10
-15.7325
 20
-6.5322
 30
0.0
 10
-15.6314
 20
-6.4494
 30
0.0
 10
-15.5006
 20
-6.3929
 30
0.0
 10
-15.5006
 20
-6.3929
 30
0.0
 10
-15.3699
 20
-6.3365
 30
0.0
 10
-15.1803
 20
-6.3083
 30
0.0
 10
-14.932
 20
-6.3083
 30
0.0
 10
-14.932
 20
-6.3083
 30
0.0
 10
-14.6742
 20
-6.3083
 30
0.0
 10
-14.4687
 20
-6.336
 30
0.0
 10
-14.3153
 20
-6.392
 30
0.0
 10
-14.3153
 20
-6.392
 30
0.0
 10
-14.1624
 20
-6.4484
 30
0.0
 10
-14.0463
 20
-6.5317
 30
0.0
 10
-13.9663
 20
-6.6422
 30
0.0
 10
-13.9663
 20
-6.6422
 30
0.0
 10
-13.8863
 20
-6.7532
 30
0.0
 10
-13.8464
 20
-6.8826
 30
0.0
 10
-13.8464
 20
-7.0317
 30
0.0
 10
-13.8464
 20
-7.0317
 30
0.0
 10
-13.8464
 20
-7.1897
 30
0.0
 10
-13.8901
 20
-7.3186
 30
0.0
 10
-13.9781
 20
-7.4188
 30
0.0
 10
-13.9781
 20
-7.4188
 30
0.0
 10
-14.0656
 20
-7.519
 30
0.0
 10
-14.1888
 20
-7.5792
 30
0.0
 10
-14.3478
 20
-7.5994
 30
0.0
  0
SPLINE
  5
5A
330
1F
100
AcDbEntity
  8
DEFAULT_1
 62
   250
100
AcDbSpline
210
0.0
220
0.0
230
1.0
 70
    11
 71
     3
 72
    36
 73
    32
 74
     0
 42
0.0000000001
 43
0.0000000001
 40
0.0
 40
0.0
 40
0.0
 40
0.0
 40
0.1111111111111111
 40
0.1111111111111111
 40
0.1111111111111111
 40
0.1111111111111111
 40
0.2222222222222222
 40
0.2222222222222222
 40
0.2222222222222222
 40
0.2222222222222222
 40
0.3333333333333333
 40
0.3333333333333333
 40
0.3333333333333333
 40
0.3333333333333333
 40
0.4444444444444444
 40
0.4444444444444444
 40
0.4444444444444444
 40
0.4444444444444444
 40
0.5555555555555556
 40
0.5555555555555556
 40
0.5555555555555556
 40
0.5555555555555556
 40
0.6666666666666666
 40
0.6666666666666666
 40
0.6666666666666666
 40
0.6666666666666666
 40
0.7777777777777778
 40
0.7777777777777778
 40
0.7777777777777778
 40
0.7777777777777778
 40
1.0
 40
1.0
 40
1.0
 40
1.0
 10
-15.2396
 20
-6.5839
 30
0.0
 10
-15.3816
 20
-6.5839
 30
0.0
 10
-15.495
 20
-6.6215
 30
0.0
 10
-15.5783
 20
-6.6973
 30
0.0
 10
-15.5783
 20
-6.6973
 30
0.0
 10
-15.662
 20
-6.7735
 30
0.0
 10
-15.7038
 20
-6.8642
 30
0.0
 10
-15.7038
 20
-6.971
 30
0.0
 10
-15.7038
 20
-6.971
 30
0.0
 10
-15.7038
 20
-7.0811
 30
0.0
 10
-15.6587
 20
-7.177
 30
0.0
 10
-15.5688
 20
-7.2589
 30
0.0
 10
-15.5688
 20
-7.2589
 30
0.0
 10
-15.4785
 20
-7.3407
 30
0.0
 10
-15.3619
 20
-7.3816
 30
0.0
 10
-15.2189
 20
-7.3816
 30
0.0
 10
-15.2189
 20
-7.3816
 30
0.0
 10
-15.09
 20
-7.3816
 30
0.0
 10
-14.9856
 20
-7.3426
 30
0.0
 10
-14.9052
 20
-7.265
 30
0.0
 10
-14.9052
 20
-7.265
 30
0.0
 10
-14.8247
 20
-7.1874
 30
0.0
 10
-14.7847
 20
-7.0919
 30
0.0
 10
-14.7847
 20
-6.9781
 30
0.0
 10
-14.7847
 20
-6.9781
 30
0.0
 10
-14.7847
 20
-6.8628
 30
0.0
 10
-14.8247
 20
-6.7688
 30
0.0
 10
-14.9052
 20
-6.6949
 30
0.0
 10
-14.9052
 20
-6.6949
 30
0.0
 10
-14.9856
 20
-6.6206
 30
0.0
 10
-15.0971
 20
-6.5839
 30
0.0
 10
-15.2396
 20
-6.5839
 30
0.0
  0
SPLINE
  5
5B
330
1F
100
AcDbEntity
  8
DEFAULT_1
 62
   250
100
AcDbSpline
210
0.0
220
0.0
230
1.0
 70
    11
 71
     3
 72
    20
 73
    16
 74
     0
 42
0.0000000001
 43
0.0000000001
 40
0.0
 40
0.0
 40
0.0
 40
0.0
 40
0.2
 40
0.2
 40
0.2
 40
0.2
 40
0.4
 40
0.4
 40
0.4
 40
0.4
 40
0.6
 40
0.6
 40
0.6
 40
0.6
 40
1.0
 40
1.0
 40
1.0
 40
1.0
 10
8.6642
 20
-25.953
 30
0.0
 10
8.6642
 20
-25.953
 30
0.0
 10
11.7142
 20
-26.3834
 30
0.0
 10
11.7142
 20
-26.3834
 30
0.0
 10
11.7142
 20
-26.3834
 30
0.0
 10
11.7142
 20
-26.3834
 30
0.0
 10
11.7142
 20
-26.479
 30
0.0
 10
11.7142
 20
-26.479
 30
0.0
 10
11.7142
 20
-26.479
 30
0.0
 10
11.7142
 20
-26.479
 30
0.0
 10
8.6642
 20
-26.9381
 30
0.0
 10
8.6642
 20
-26.9381
 30
0.0
 10
8.6642
 20
-26.9381
 30
0.0
 10
8.6642
 20
-26.9381
 30
0.0
 10
8.6642
 20
-25.953
 30
0.0
 10
8.6642
 20
-25.953
 30
0.0
  0
SPLINE
  5
5C
330
1F
100
AcDbEntity
  8
DEFAULT_1
 62
   250
100
AcDbSpline
210
0.0
220
0.0
230
1.0
 70
    11
 71
     3
 72
    20
 73
    16
 74
     0
 42
0.0000000001
 43
0.0000000001
 40
0.0
 40
0.0
 40
0.0
 40
0.0
 40
0.2
 40
0.2
 40
0.2
 40
0.2
 40
0.4
 40
0.4
 40
0.4
 40
0.4
 40
0.6
 40
0.6
 40
0.6
 40
0.6
 40
1.0
 40
1.0
 40
1.0
 40
1.0
 10
-0.4734
 20
-26.9652
 30
0.0
 10
-0.4734
 20
-26.9652
 30
0.0
 10
-3.5234
 20
-26.5348
 30
0.0
 10
-3.5234
 20
-26.5348
 30
0.0
 10
-3.5234
 20
-26.5348
 30
0.0
 10
-3.5234
 20
-26.5348
 30
0.0
 10
-3.5234
 20
-26.4392
 30
0.0
 10
-3.5234
 20
-26.4392
 30
0.0
 10
-3.5234
 20
-26.4392
 30
0.0
 10
-3.5234
 20
-26.4392
 30
0.0
 10
-0.4734
 20
-25.9801
 30
0.0
 10
-0.4734
 20
-25.9801
 30
0.0
 10
-0.4734
 20
-25.9801
 30
0.0
 10
-0.4734
 20
-25.9801
 30
0.0
 10
-0.4734
 20
-26.9652
 30
0.0
 10
-0.4734
 20
-26.9652
 30
0.0
  0
SPLINE
  5
5D
330
1F
100
AcDbEntity
  8
DEFAULT_1
 62
   250
100
AcDbSpline
210
0.0
220
0.0
230
1.0
 70
    11
 71
     3
 72
   120
 73
   116
 74
     0
 42
0.0000000001
 43
0.0000000001
 40
0.0
 40
0.0
 40
0.0
 40
0.0
 40
0.0333333333333333
 40
0.0333333333333333
 40
0.0333333333333333
 40
0.0333333333333333
 40
0.0666666666666667
 40
0.0666666666666667
 40
0.0666666666666667
 40
0.0666666666666667
 40
0.1
 40
0.1
 40
0.1
 40
0.1
 40
0.1333333333333333
 40
0.1333333333333333
 40
0.1333333333333333
 40
0.1333333333333333
 40
0.1666666666666667
 40
0.1666666666666667
 40
0.1666666666666667
 40
0.1666666666666667
 40
0.2
 40
0.2
 40
0.2
 40
0.2
 40
0.2333333333333333
 40
0.2333333333333333
 40
0.2333333333333333
 40
0.2333333333333333
 40
0.2666666666666667
 40
0.2666666666666667
 40
0.2666666666666667
 40
0.2666666666666667
 40
0.3
 40
0.3
 40
0.3
 40
0.3
 40
0.3333333333333333
 40
0.3333333333333333
 40
0.3333333333333333
 40
0.3333333333333333
 40
0.3666666666666666
 40
0.3666666666666666
 40
0.3666666666666666
 40
0.3666666666666666
 40
0.4
 40
0.4
 40
0.4
 40
0.4
 40
0.4333333333333333
 40
0.4333333333333333
 40
0.4333333333333333
 40
0.4333333333333333
 40
0.4666666666666667
 40
0.4666666666666667
 40
0.4666666666666667
 40
0.4666666666666667
 40
0.5
 40
0.5
 40
0.5
 40
0.5
 40
0.5333333333333333
 40
0.5333333333333333
 40
0.5333333333333333
 40
0.5333333333333333
 40
0.5666666666666667
 40
0.5666666666666667
 40
0.5666666666666667
 40
0.5666666666666667
 40
0.6
 40
0.6
 40
0.6
 40
0.6
 40
0.6333333333333333
 40
0.6333333333333333
 40
0.6333333333333333
 40
0.6333333333333333
 40
0.6666666666666666
 40
0.6666666666666666
 40
0.6666666666666666
 40
0.6666666666666666
 40
0.7
 40
0.7
 40
0.7
 40
0.7
 40
0.7333333333333333
 40
0.7333333333333333
 40
0.7333333333333333
 40
0.7333333333333333
 40
0.7666666666666667
 40
0.7666666666666667
 40
0.7666666666666667
 40
0.7666666666666667
 40
0.8
 40
0.8
 40
0.8
 40
0.8
 40
0.8333333333333334
 40
0.8333333333333334
 40
0.8333333333333334
 40
0.8333333333333334
 40
0.8666666666666667
 40
0.8666666666666667
 40
0.8666666666666667
 40
0.8666666666666667
 40
0.9
 40
0.9
 40
0.9
 40
0.9
 40
0.9333333333333333
 40
0.9333333333333333
 40
0.9333333333333333
 40
0.9333333333333333
 40
1.0
 40
1.0
 40
1.0
 40
1.0
 10
1.8675
 20
-25.026
 30
0.0
 10
1.8675
 20
-25.026
 30
0.0
 10
1.8675
 20
-24.7894
 30
0.0
 10
1.8675
 20
-24.7894
 30
0.0
 10
1.8675
 20
-24.7894
 30
0.0
 10
1.8675
 20
-24.7894
 30
0.0
 10
2.7231
 20
-24.788
 30
0.0
 10
2.7231
 20
-24.788
 30
0.0
 10
2.7231
 20
-24.788
 30
0.0
 10
2.7231
 20
-24.788
 30
0.0
 10
2.7231
 20
-25.5373
 30
0.0
 10
2.7231
 20
-25.5373
 30
0.0
 10
2.7231
 20
-25.5373
 30
0.0
 10
2.5919
 20
-25.6422
 30
0.0
 10
2.4564
 20
-25.7208
 30
0.0
 10
2.3167
 20
-25.7739
 30
0.0
 10
2.3167
 20
-25.7739
 30
0.0
 10
2.177
 20
-25.8266
 30
0.0
 10
2.0336
 20
-25.8529
 30
0.0
 10
1.8868
 20
-25.8529
 30
0.0
 10
1.8868
 20
-25.8529
 30
0.0
 10
1.6883
 20
-25.8529
 30
0.0
 10
1.5077
 20
-25.8106
 30
0.0
 10
1.3459
 20
-25.7255
 30
0.0
 10
1.3459
 20
-25.7255
 30
0.0
 10
1.1836
 20
-25.6408
 30
0.0
 10
1.0613
 20
-25.5176
 30
0.0
 10
0.9785
 20
-25.3572
 30
0.0
 10
0.9785
 20
-25.3572
 30
0.0
 10
0.8957
 20
-25.1963
 30
0.0
 10
0.8543
 20
-25.0166
 30
0.0
 10
0.8543
 20
-24.8181
 30
0.0
 10
0.8543
 20
-24.8181
 30
0.0
 10
0.8543
 20
-24.6215
 30
0.0
 10
0.8957
 20
-24.4381
 30
0.0
 10
0.9781
 20
-24.2678
 30
0.0
 10
0.9781
 20
-24.2678
 30
0.0
 10
1.0599
 20
-24.0971
 30
0.0
 10
1.1784
 20
-23.9705
 30
0.0
 10
1.3327
 20
-23.8877
 30
0.0
 10
1.3327
 20
-23.8877
 30
0.0
 10
1.487
 20
-23.8054
 30
0.0
 10
1.6648
 20
-23.764
 30
0.0
 10
1.8661
 20
-23.764
 30
0.0
 10
1.8661
 20
-23.764
 30
0.0
 10
2.0119
 20
-23.764
 30
0.0
 10
2.1441
 20
-23.7876
 30
0.0
 10
2.2622
 20
-23.8351
 30
0.0
 10
2.2622
 20
-23.8351
 30
0.0
 10
2.3802
 20
-23.8821
 30
0.0
 10
2.4729
 20
-23.948
 30
0.0
 10
2.5397
 20
-24.0326
 30
0.0
 10
2.5397
 20
-24.0326
 30
0.0
 10
2.6069
 20
-24.1173
 30
0.0
 10
2.6577
 20
-24.2273
 30
0.0
 10
2.693
 20
-24.3633
 30
0.0
 10
2.693
 20
-24.3633
 30
0.0
 10
2.693
 20
-24.3633
 30
0.0
 10
2.4517
 20
-24.4296
 30
0.0
 10
2.4517
 20
-24.4296
 30
0.0
 10
2.4517
 20
-24.4296
 30
0.0
 10
2.4211
 20
-24.3266
 30
0.0
 10
2.3835
 20
-24.2457
 30
0.0
 10
2.3388
 20
-24.1869
 30
0.0
 10
2.3388
 20
-24.1869
 30
0.0
 10
2.2937
 20
-24.1281
 30
0.0
 10
2.2292
 20
-24.0811
 30
0.0
 10
2.1455
 20
-24.0458
 30
0.0
 10
2.1455
 20
-24.0458
 30
0.0
 10
2.0622
 20
-24.0105
 30
0.0
 10
1.9691
 20
-23.9926
 30
0.0
 10
1.8675
 20
-23.9926
 30
0.0
 10
1.8675
 20
-23.9926
 30
0.0
 10
1.7452
 20
-23.9926
 30
0.0
 10
1.6394
 20
-24.0115
 30
0.0
 10
1.5505
 20
-24.0486
 30
0.0
 10
1.5505
 20
-24.0486
 30
0.0
 10
1.4611
 20
-24.0858
 30
0.0
 10
1.3896
 20
-24.1347
 30
0.0
 10
1.3346
 20
-24.1954
 30
0.0
 10
1.3346
 20
-24.1954
 30
0.0
 10
1.28
 20
-24.256
 30
0.0
 10
1.2377
 20
-24.3224
 30
0.0
 10
1.2071
 20
-24.3953
 30
0.0
 10
1.2071
 20
-24.3953
 30
0.0
 10
1.1559
 20
-24.5199
 30
0.0
 10
1.13
 20
-24.6554
 30
0.0
 10
1.13
 20
-24.8017
 30
0.0
 10
1.13
 20
-24.8017
 30
0.0
 10
1.13
 20
-24.9818
 30
0.0
 10
1.161
 20
-25.1323
 30
0.0
 10
1.2231
 20
-25.2537
 30
0.0
 10
1.2231
 20
-25.2537
 30
0.0
 10
1.2852
 20
-25.375
 30
0.0
 10
1.3755
 20
-25.4649
 30
0.0
 10
1.494
 20
-25.5237
 30
0.0
 10
1.494
 20
-25.5237
 30
0.0
 10
1.6126
 20
-25.5825
 30
0.0
 10
1.7382
 20
-25.6121
 30
0.0
 10
1.8713
 20
-25.6121
 30
0.0
 10
1.8713
 20
-25.6121
 30
0.0
 10
1.9875
 20
-25.6121
 30
0.0
 10
2.1003
 20
-25.5895
 30
0.0
 10
2.2104
 20
-25.5448
 30
0.0
 10
2.2104
 20
-25.5448
 30
0.0
 10
2.321
 20
-25.5006
 30
0.0
 10
2.4042
 20
-25.4531
 30
0.0
 10
2.4611
 20
-25.4023
 30
0.0
 10
2.4611
 20
-25.4023
 30
0.0
 10
2.4611
 20
-25.4023
 30
0.0
 10
2.4611
 20
-25.026
 30
0.0
 10
2.4611
 20
-25.026
 30
0.0
 10
2.4611
 20
-25.026
 30
0.0
 10
2.4611
 20
-25.026
 30
0.0
 10
1.8675
 20
-25.026
 30
0.0
 10
1.8675
 20
-25.026
 30
0.0
  0
SPLINE
  5
5E
330
1F
100
AcDbEntity
  8
DEFAULT_1
 62
   250
100
AcDbSpline
210
0.0
220
0.0
230
1.0
 70
    11
 71
     3
 72
    92
 73
    88
 74
     0
 42
0.0000000001
 43
0.0000000001
 40
0.0
 40
0.0
 40
0.0
 40
0.0
 40
0.0434782608695652
 40
0.0434782608695652
 40
0.0434782608695652
 40
0.0434782608695652
 40
0.0869565217391304
 40
0.0869565217391304
 40
0.0869565217391304
 40
0.0869565217391304
 40
0.1304347826086956
 40
0.1304347826086956
 40
0.1304347826086956
 40
0.1304347826086956
 40
0.1739130434782609
 40
0.1739130434782609
 40
0.1739130434782609
 40
0.1739130434782609
 40
0.2173913043478261
 40
0.2173913043478261
 40
0.2173913043478261
 40
0.2173913043478261
 40
0.2608695652173913
 40
0.2608695652173913
 40
0.2608695652173913
 40
0.2608695652173913
 40
0.3043478260869565
 40
0.3043478260869565
 40
0.3043478260869565
 40
0.3043478260869565
 40
0.3478260869565217
 40
0.3478260869565217
 40
0.3478260869565217
 40
0.3478260869565217
 40
0.391304347826087
 40
0.391304347826087
 40
0.391304347826087
 40
0.391304347826087
 40
0.4347826086956522
 40
0.4347826086956522
 40
0.4347826086956522
 40
0.4347826086956522
 40
0.4782608695652174
 40
0.4782608695652174
 40
0.4782608695652174
 40
0.4782608695652174
 40
0.5217391304347826
 40
0.5217391304347826
 40
0.5217391304347826
 40
0.5217391304347826
 40
0.5652173913043478
 40
0.5652173913043478
 40
0.5652173913043478
 40
0.5652173913043478
 40
0.6086956521739131
 40
0.6086956521739131
 40
0.6086956521739131
 40
0.6086956521739131
 40
0.6521739130434783
 40
0.6521739130434783
 40
0.6521739130434783
 40
0.6521739130434783
 40
0.6956521739130435
 40
0.6956521739130435
 40
0.6956521739130435
 40
0.6956521739130435
 40
0.7391304347826086
 40
0.7391304347826086
 40
0.7391304347826086
 40
0.7391304347826086
 40
0.782608695652174
 40
0.782608695652174
 40
0.782608695652174
 40
0.782608695652174
 40
0.8260869565217391
 40
0.8260869565217391
 40
0.8260869565217391
 40
0.8260869565217391
 40
0.8695652173913043
 40
0.8695652173913043
 40
0.8695652173913043
 40
0.8695652173913043
 40
0.9130434782608695
 40
0.9130434782608695
 40
0.9130434782608695
 40
0.9130434782608695
 40
1.0
 40
1.0
 40
1.0
 40
1.0
 10
3.8007
 20
-25.2894
 30
0.0
 10
3.8007
 20
-25.2894
 30
0.0
 10
4.0613
 20
-25.2673
 30
0.0
 10
4.0613
 20
-25.2673
 30
0.0
 10
4.0613
 20
-25.2673
 30
0.0
 10
4.0806
 20
-25.3943
 30
0.0
 10
4.1253
 20
-25.4893
 30
0.0
 10
4.1954
 20
-25.5533
 30
0.0
 10
4.1954
 20
-25.5533
 30
0.0
 10
4.2659
 20
-25.6173
 30
0.0
 10
4.3506
 20
-25.6493
 30
0.0
 10
4.4498
 20
-25.6493
 30
0.0
 10
4.4498
 20
-25.6493
 30
0.0
 10
4.5693
 20
-25.6493
 30
0.0
 10
4.6704
 20
-25.6041
 30
0.0
 10
4.7527
 20
-25.5143
 30
0.0
 10
4.7527
 20
-25.5143
 30
0.0
 10
4.8355
 20
-25.424
 30
0.0
 10
4.8769
 20
-25.3045
 30
0.0
 10
4.8769
 20
-25.1559
 30
0.0
 10
4.8769
 20
-25.1559
 30
0.0
 10
4.8769
 20
-25.0143
 30
0.0
 10
4.8374
 20
-24.9028
 30
0.0
 10
4.7579
 20
-24.821
 30
0.0
 10
4.7579
 20
-24.821
 30
0.0
 10
4.6784
 20
-24.7391
 30
0.0
 10
4.5745
 20
-24.6982
 30
0.0
 10
4.4456
 20
-24.6982
 30
0.0
 10
4.4456
 20
-24.6982
 30
0.0
 10
4.3656
 20
-24.6982
 30
0.0
 10
4.2937
 20
-24.7165
 30
0.0
 10
4.2292
 20
-24.7527
 30
0.0
 10
4.2292
 20
-24.7527
 30
0.0
 10
4.1648
 20
-24.789
 30
0.0
 10
4.1145
 20
-24.836
 30
0.0
 10
4.0778
 20
-24.8939
 30
0.0
 10
4.0778
 20
-24.8939
 30
0.0
 10
4.0778
 20
-24.8939
 30
0.0
 10
3.8449
 20
-24.8638
 30
0.0
 10
3.8449
 20
-24.8638
 30
0.0
 10
3.8449
 20
-24.8638
 30
0.0
 10
3.8449
 20
-24.8638
 30
0.0
 10
4.0406
 20
-23.8261
 30
0.0
 10
4.0406
 20
-23.8261
 30
0.0
 10
4.0406
 20
-23.8261
 30
0.0
 10
4.0406
 20
-23.8261
 30
0.0
 10
5.0453
 20
-23.8261
 30
0.0
 10
5.0453
 20
-23.8261
 30
0.0
 10
5.0453
 20
-23.8261
 30
0.0
 10
5.0453
 20
-23.8261
 30
0.0
 10
5.0453
 20
-24.0632
 30
0.0
 10
5.0453
 20
-24.0632
 30
0.0
 10
5.0453
 20
-24.0632
 30
0.0
 10
5.0453
 20
-24.0632
 30
0.0
 10
4.2391
 20
-24.0632
 30
0.0
 10
4.2391
 20
-24.0632
 30
0.0
 10
4.2391
 20
-24.0632
 30
0.0
 10
4.2391
 20
-24.0632
 30
0.0
 10
4.13
 20
-24.606
 30
0.0
 10
4.13
 20
-24.606
 30
0.0
 10
4.13
 20
-24.606
 30
0.0
 10
4.2513
 20
-24.5213
 30
0.0
 10
4.3788
 20
-24.479
 30
0.0
 10
4.5119
 20
-24.479
 30
0.0
 10
4.5119
 20
-24.479
 30
0.0
 10
4.6883
 20
-24.479
 30
0.0
 10
4.8369
 20
-24.5401
 30
0.0
 10
4.9583
 20
-24.6624
 30
0.0
 10
4.9583
 20
-24.6624
 30
0.0
 10
5.0796
 20
-24.7847
 30
0.0
 10
5.1403
 20
-24.9418
 30
0.0
 10
5.1403
 20
-25.1337
 30
0.0
 10
5.1403
 20
-25.1337
 30
0.0
 10
5.1403
 20
-25.3167
 30
0.0
 10
5.0867
 20
-25.4748
 30
0.0
 10
4.9804
 20
-25.6079
 30
0.0
 10
4.9804
 20
-25.6079
 30
0.0
 10
4.8506
 20
-25.7711
 30
0.0
 10
4.6737
 20
-25.8529
 30
0.0
 10
4.4498
 20
-25.8529
 30
0.0
 10
4.4498
 20
-25.8529
 30
0.0
 10
4.2659
 20
-25.8529
 30
0.0
 10
4.1159
 20
-25.8017
 30
0.0
 10
3.9997
 20
-25.6987
 30
0.0
 10
3.9997
 20
-25.6987
 30
0.0
 10
3.8835
 20
-25.5956
 30
0.0
 10
3.8172
 20
-25.4592
 30
0.0
 10
3.8007
 20
-25.2894
 30
0.0
  0
SPLINE
  5
5F
330
1F
100
AcDbEntity
  8
DEFAULT_1
 62
   250
100
AcDbSpline
210
0.0
220
0.0
230
1.0
 70
    11
 71
     3
 72
    20
 73
    16
 74
     0
 42
0.0000000001
 43
0.0000000001
 40
0.0
 40
0.0
 40
0.0
 40
0.0
 40
0.2
 40
0.2
 40
0.2
 40
0.2
 40
0.4
 40
0.4
 40
0.4
 40
0.4
 40
0.6
 40
0.6
 40
0.6
 40
0.6
 40
1.0
 40
1.0
 40
1.0
 40
1.0
 10
5.2532
 20
-25.8529
 30
0.0
 10
5.2532
 20
-25.8529
 30
0.0
 10
5.8388
 20
-23.764
 30
0.0
 10
5.8388
 20
-23.764
 30
0.0
 10
5.8388
 20
-23.764
 30
0.0
 10
5.8388
 20
-23.764
 30
0.0
 10
6.0373
 20
-23.764
 30
0.0
 10
6.0373
 20
-23.764
 30
0.0
 10
6.0373
 20
-23.764
 30
0.0
 10
6.0373
 20
-23.764
 30
0.0
 10
5.4531
 20
-25.8529
 30
0.0
 10
5.4531
 20
-25.8529
 30
0.0
 10
5.4531
 20
-25.8529
 30
0.0
 10
5.4531
 20
-25.8529
 30
0.0
 10
5.2532
 20
-25.8529
 30
0.0
 10
5.2532
 20
-25.8529
 30
0.0
  0
SPLINE
  5
60
330
1F
100
AcDbEntity
  8
DEFAULT_1
 62
   250
100
AcDbSpline
210
0.0
220
0.0
230
1.0
 70
    11
 71
     3
 72
    48
 73
    44
 74
     0
 42
0.0000000001
 43
0.0000000001
 40
0.0
 40
0.0
 40
0.0
 40
0.0
 40
0.0833333333333333
 40
0.0833333333333333
 40
0.0833333333333333
 40
0.0833333333333333
 40
0.1666666666666667
 40
0.1666666666666667
 40
0.1666666666666667
 40
0.1666666666666667
 40
0.25
 40
0.25
 40
0.25
 40
0.25
 40
0.3333333333333333
 40
0.3333333333333333
 40
0.3333333333333333
 40
0.3333333333333333
 40
0.4166666666666667
 40
0.4166666666666667
 40
0.4166666666666667
 40
0.4166666666666667
 40
0.5
 40
0.5
 40
0.5
 40
0.5
 40
0.5833333333333334
 40
0.5833333333333334
 40
0.5833333333333334
 40
0.5833333333333334
 40
0.6666666666666666
 40
0.6666666666666666
 40
0.6666666666666666
 40
0.6666666666666666
 40
0.75
 40
0.75
 40
0.75
 40
0.75
 40
0.8333333333333334
 40
0.8333333333333334
 40
0.8333333333333334
 40
0.8333333333333334
 40
1.0
 40
1.0
 40
1.0
 40
1.0
 10
6.9493
 20
-25.8186
 30
0.0
 10
6.9493
 20
-25.8186
 30
0.0
 10
6.9493
 20
-25.3351
 30
0.0
 10
6.9493
 20
-25.3351
 30
0.0
 10
6.9493
 20
-25.3351
 30
0.0
 10
6.9493
 20
-25.3351
 30
0.0
 10
6.073
 20
-25.3351
 30
0.0
 10
6.073
 20
-25.3351
 30
0.0
 10
6.073
 20
-25.3351
 30
0.0
 10
6.073
 20
-25.3351
 30
0.0
 10
6.073
 20
-25.1074
 30
0.0
 10
6.073
 20
-25.1074
 30
0.0
 10
6.073
 20
-25.1074
 30
0.0
 10
6.073
 20
-25.1074
 30
0.0
 10
6.995
 20
-23.7984
 30
0.0
 10
6.995
 20
-23.7984
 30
0.0
 10
6.995
 20
-23.7984
 30
0.0
 10
6.995
 20
-23.7984
 30
0.0
 10
7.1977
 20
-23.7984
 30
0.0
 10
7.1977
 20
-23.7984
 30
0.0
 10
7.1977
 20
-23.7984
 30
0.0
 10
7.1977
 20
-23.7984
 30
0.0
 10
7.1977
 20
-25.1074
 30
0.0
 10
7.1977
 20
-25.1074
 30
0.0
 10
7.1977
 20
-25.1074
 30
0.0
 10
7.1977
 20
-25.1074
 30
0.0
 10
7.4705
 20
-25.1074
 30
0.0
 10
7.4705
 20
-25.1074
 30
0.0
 10
7.4705
 20
-25.1074
 30
0.0
 10
7.4705
 20
-25.1074
 30
0.0
 10
7.4705
 20
-25.3351
 30
0.0
 10
7.4705
 20
-25.3351
 30
0.0
 10
7.4705
 20
-25.3351
 30
0.0
 10
7.4705
 20
-25.3351
 30
0.0
 10
7.1977
 20
-25.3351
 30
0.0
 10
7.1977
 20
-25.3351
 30
0.0
 10
7.1977
 20
-25.3351
 30
0.0
 10
7.1977
 20
-25.3351
 30
0.0
 10
7.1977
 20
-25.8186
 30
0.0
 10
7.1977
 20
-25.8186
 30
0.0
 10
7.1977
 20
-25.8186
 30
0.0
 10
7.1977
 20
-25.8186
 30
0.0
 10
6.9493
 20
-25.8186
 30
0.0
 10
6.9493
 20
-25.8186
 30
0.0
  0
SPLINE
  5
61
330
1F
100
AcDbEntity
  8
DEFAULT_1
 62
   250
100
AcDbSpline
210
0.0
220
0.0
230
1.0
 70
    11
 71
     3
 72
    16
 73
    12
 74
     0
 42
0.0000000001
 43
0.0000000001
 40
0.0
 40
0.0
 40
0.0
 40
0.0
 40
0.25
 40
0.25
 40
0.25
 40
0.25
 40
0.5
 40
0.5
 40
0.5
 40
0.5
 40
1.0
 40
1.0
 40
1.0
 40
1.0
 10
6.9493
 20
-25.1074
 30
0.0
 10
6.9493
 20
-25.1074
 30
0.0
 10
6.9493
 20
-24.1968
 30
0.0
 10
6.9493
 20
-24.1968
 30
0.0
 10
6.9493
 20
-24.1968
 30
0.0
 10
6.9493
 20
-24.1968
 30
0.0
 10
6.3172
 20
-25.1074
 30
0.0
 10
6.3172
 20
-25.1074
 30
0.0
 10
6.3172
 20
-25.1074
 30
0.0
 10
6.3172
 20
-25.1074
 30
0.0
 10
6.9493
 20
-25.1074
 30
0.0
 10
6.9493
 20
-25.1074
 30
0.0
  0
SPLINE
  5
62
330
1F
100
AcDbEntity
  8
DEFAULT_1
 62
   250
100
AcDbSpline
210
0.0
220
0.0
230
1.0
 70
    11
 71
     3
 72
    28
 73
    24
 74
     0
 42
0.0000000001
 43
0.0000000001
 40
0.0
 40
0.0
 40
0.0
 40
0.0
 40
0.1428571428571428
 40
0.1428571428571428
 40
0.1428571428571428
 40
0.1428571428571428
 40
0.2857142857142857
 40
0.2857142857142857
 40
0.2857142857142857
 40
0.2857142857142857
 40
0.4285714285714285
 40
0.4285714285714285
 40
0.4285714285714285
 40
0.4285714285714285
 40
0.5714285714285714
 40
0.5714285714285714
 40
0.5714285714285714
 40
0.5714285714285714
 40
0.7142857142857143
 40
0.7142857142857143
 40
0.7142857142857143
 40
0.7142857142857143
 40
1.0
 40
1.0
 40
1.0
 40
1.0
 10
7.8054
 20
-24.5138
 30
0.0
 10
7.8054
 20
-24.5138
 30
0.0
 10
7.7363
 20
-24.129
 30
0.0
 10
7.7363
 20
-24.129
 30
0.0
 10
7.7363
 20
-24.129
 30
0.0
 10
7.7363
 20
-24.129
 30
0.0
 10
7.7363
 20
-23.7984
 30
0.0
 10
7.7363
 20
-23.7984
 30
0.0
 10
7.7363
 20
-23.7984
 30
0.0
 10
7.7363
 20
-23.7984
 30
0.0
 10
8.0189
 20
-23.7984
 30
0.0
 10
8.0189
 20
-23.7984
 30
0.0
 10
8.0189
 20
-23.7984
 30
0.0
 10
8.0189
 20
-23.7984
 30
0.0
 10
8.0189
 20
-24.129
 30
0.0
 10
8.0189
 20
-24.129
 30
0.0
 10
8.0189
 20
-24.129
 30
0.0
 10
8.0189
 20
-24.129
 30
0.0
 10
7.9569
 20
-24.5138
 30
0.0
 10
7.9569
 20
-24.5138
 30
0.0
 10
7.9569
 20
-24.5138
 30
0.0
 10
7.9569
 20
-24.5138
 30
0.0
 10
7.8054
 20
-24.5138
 30
0.0
 10
7.8054
 20
-24.5138
 30
0.0
  0
SPLINE
  5
63
330
1F
100
AcDbEntity
  8
DEFAULT_1
 62
   250
100
AcDbSpline
210
0.0
220
0.0
230
1.0
 70
    11
 71
     3
 72
    28
 73
    24
 74
     0
 42
0.0000000001
 43
0.0000000001
 40
0.0
 40
0.0
 40
0.0
 40
0.0
 40
0.1428571428571428
 40
0.1428571428571428
 40
0.1428571428571428
 40
0.1428571428571428
 40
0.2857142857142857
 40
0.2857142857142857
 40
0.2857142857142857
 40
0.2857142857142857
 40
0.4285714285714285
 40
0.4285714285714285
 40
0.4285714285714285
 40
0.4285714285714285
 40
0.5714285714285714
 40
0.5714285714285714
 40
0.5714285714285714
 40
0.5714285714285714
 40
0.7142857142857143
 40
0.7142857142857143
 40
0.7142857142857143
 40
0.7142857142857143
 40
1.0
 40
1.0
 40
1.0
 40
1.0
 10
8.2617
 20
-24.5138
 30
0.0
 10
8.2617
 20
-24.5138
 30
0.0
 10
8.1939
 20
-24.129
 30
0.0
 10
8.1939
 20
-24.129
 30
0.0
 10
8.1939
 20
-24.129
 30
0.0
 10
8.1939
 20
-24.129
 30
0.0
 10
8.1939
 20
-23.7984
 30
0.0
 10
8.1939
 20
-23.7984
 30
0.0
 10
8.1939
 20
-23.7984
 30
0.0
 10
8.1939
 20
-23.7984
 30
0.0
 10
8.4766
 20
-23.7984
 30
0.0
 10
8.4766
 20
-23.7984
 30
0.0
 10
8.4766
 20
-23.7984
 30
0.0
 10
8.4766
 20
-23.7984
 30
0.0
 10
8.4766
 20
-24.129
 30
0.0
 10
8.4766
 20
-24.129
 30
0.0
 10
8.4766
 20
-24.129
 30
0.0
 10
8.4766
 20
-24.129
 30
0.0
 10
8.4103
 20
-24.5138
 30
0.0
 10
8.4103
 20
-24.5138
 30
0.0
 10
8.4103
 20
-24.5138
 30
0.0
 10
8.4103
 20
-24.5138
 30
0.0
 10
8.2617
 20
-24.5138
 30
0.0
 10
8.2617
 20
-24.5138
 30
0.0
  0
SPLINE
  5
64
330
1F
100
AcDbEntity
  8
DEFAULT_1
 62
   250
100
AcDbSpline
210
0.0
220
0.0
230
1.0
 70
    11
 71
     3
 72
    84
 73
    80
 74
     0
 42
0.0000000001
 43
0.0000000001
 40
0.0
 40
0.0
 40
0.0
 40
0.0
 40
0.0476190476190476
 40
0.0476190476190476
 40
0.0476190476190476
 40
0.0476190476190476
 40
0.0952380952380952
 40
0.0952380952380952
 40
0.0952380952380952
 40
0.0952380952380952
 40
0.1428571428571428
 40
0.1428571428571428
 40
0.1428571428571428
 40
0.1428571428571428
 40
0.1904761904761905
 40
0.1904761904761905
 40
0.1904761904761905
 40
0.1904761904761905
 40
0.2380952380952381
 40
0.2380952380952381
 40
0.2380952380952381
 40
0.2380952380952381
 40
0.2857142857142857
 40
0.2857142857142857
 40
0.2857142857142857
 40
0.2857142857142857
 40
0.3333333333333333
 40
0.3333333333333333
 40
0.3333333333333333
 40
0.3333333333333333
 40
0.3809523809523809
 40
0.3809523809523809
 40
0.3809523809523809
 40
0.3809523809523809
 40
0.4285714285714285
 40
0.4285714285714285
 40
0.4285714285714285
 40
0.4285714285714285
 40
0.4761904761904762
 40
0.4761904761904762
 40
0.4761904761904762
 40
0.4761904761904762
 40
0.5238095238095238
 40
0.5238095238095238
 40
0.5238095238095238
 40
0.5238095238095238
 40
0.5714285714285714
 40
0.5714285714285714
 40
0.5714285714285714
 40
0.5714285714285714
 40
0.6190476190476191
 40
0.6190476190476191
 40
0.6190476190476191
 40
0.6190476190476191
 40
0.6666666666666666
 40
0.6666666666666666
 40
0.6666666666666666
 40
0.6666666666666666
 40
0.7142857142857143
 40
0.7142857142857143
 40
0.7142857142857143
 40
0.7142857142857143
 40
0.7619047619047619
 40
0.7619047619047619
 40
0.7619047619047619
 40
0.7619047619047619
 40
0.8095238095238095
 40
0.8095238095238095
 40
0.8095238095238095
 40
0.8095238095238095
 40
0.8571428571428571
 40
0.8571428571428571
 40
0.8571428571428571
 40
0.8571428571428571
 40
0.9047619047619048
 40
0.9047619047619048
 40
0.9047619047619048
 40
0.9047619047619048
 40
1.0
 40
1.0
 40
1.0
 40
1.0
 10
3.242
 20
-28.9441
 30
0.0
 10
3.242
 20
-28.9441
 30
0.0
 10
3.4734
 20
-28.685
 30
0.0
 10
3.4734
 20
-28.685
 30
0.0
 10
3.4734
 20
-28.685
 30
0.0
 10
3.4734
 20
-28.685
 30
0.0
 10
3.6098
 20
-28.8007
 30
0.0
 10
3.6098
 20
-28.8007
 30
0.0
 10
3.6098
 20
-28.8007
 30
0.0
 10
3.6098
 20
-28.8007
 30
0.0
 10
3.3676
 20
-29.0735
 30
0.0
 10
3.3676
 20
-29.0735
 30
0.0
 10
3.3676
 20
-29.0735
 30
0.0
 10
3.4466
 20
-29.1911
 30
0.0
 10
3.4997
 20
-29.2941
 30
0.0
 10
3.5275
 20
-29.382
 30
0.0
 10
3.5275
 20
-29.382
 30
0.0
 10
3.5642
 20
-29.4978
 30
0.0
 10
3.5825
 20
-29.6276
 30
0.0
 10
3.5825
 20
-29.7706
 30
0.0
 10
3.5825
 20
-29.7706
 30
0.0
 10
3.5825
 20
-29.9775
 30
0.0
 10
3.5407
 20
-30.1619
 30
0.0
 10
3.4569
 20
-30.3232
 30
0.0
 10
3.4569
 20
-30.3232
 30
0.0
 10
3.3732
 20
-30.4851
 30
0.0
 10
3.2561
 20
-30.6073
 30
0.0
 10
3.1051
 20
-30.6901
 30
0.0
 10
3.1051
 20
-30.6901
 30
0.0
 10
2.9536
 20
-30.7724
 30
0.0
 10
2.7933
 20
-30.8138
 30
0.0
 10
2.6235
 20
-30.8138
 30
0.0
 10
2.6235
 20
-30.8138
 30
0.0
 10
2.4965
 20
-30.8138
 30
0.0
 10
2.3817
 20
-30.796
 30
0.0
 10
2.2787
 20
-30.7602
 30
0.0
 10
2.2787
 20
-30.7602
 30
0.0
 10
2.1997
 20
-30.7325
 30
0.0
 10
2.1075
 20
-30.6798
 30
0.0
 10
2.0016
 20
-30.6017
 30
0.0
 10
2.0016
 20
-30.6017
 30
0.0
 10
2.0016
 20
-30.6017
 30
0.0
 10
1.7702
 20
-30.8609
 30
0.0
 10
1.7702
 20
-30.8609
 30
0.0
 10
1.7702
 20
-30.8609
 30
0.0
 10
1.7702
 20
-30.8609
 30
0.0
 10
1.6338
 20
-30.7452
 30
0.0
 10
1.6338
 20
-30.7452
 30
0.0
 10
1.6338
 20
-30.7452
 30
0.0
 10
1.6338
 20
-30.7452
 30
0.0
 10
1.8765
 20
-30.4738
 30
0.0
 10
1.8765
 20
-30.4738
 30
0.0
 10
1.8765
 20
-30.4738
 30
0.0
 10
1.7862
 20
-30.3369
 30
0.0
 10
1.726
 20
-30.2198
 30
0.0
 10
1.6959
 20
-30.1229
 30
0.0
 10
1.6959
 20
-30.1229
 30
0.0
 10
1.6658
 20
-30.026
 30
0.0
 10
1.6503
 20
-29.9093
 30
0.0
 10
1.6503
 20
-29.7734
 30
0.0
 10
1.6503
 20
-29.7734
 30
0.0
 10
1.6503
 20
-29.566
 30
0.0
 10
1.6917
 20
-29.3811
 30
0.0
 10
1.7744
 20
-29.2188
 30
0.0
 10
1.7744
 20
-29.2188
 30
0.0
 10
1.8572
 20
-29.0565
 30
0.0
 10
1.9729
 20
-28.9338
 30
0.0
 10
2.1225
 20
-28.8501
 30
0.0
 10
2.1225
 20
-28.8501
 30
0.0
 10
2.2716
 20
-28.7668
 30
0.0
 10
2.4377
 20
-28.7249
 30
0.0
 10
2.6206
 20
-28.7249
 30
0.0
 10
2.6206
 20
-28.7249
 30
0.0
 10
2.7439
 20
-28.7249
 30
0.0
 10
2.8516
 20
-28.7409
 30
0.0
 10
2.9438
 20
-28.7739
 30
0.0
 10
2.9438
 20
-28.7739
 30
0.0
 10
3.036
 20
-28.8063
 30
0.0
 10
3.1357
 20
-28.8632
 30
0.0
 10
3.242
 20
-28.9441
 30
0.0
  0
SPLINE
  5
65
330
1F
100
AcDbEntity
  8
DEFAULT_1
 62
   250
100
AcDbSpline
210
0.0
220
0.0
230
1.0
 70
    11
 71
     3
 72
    32
 73
    28
 74
     0
 42
0.0000000001
 43
0.0000000001
 40
0.0
 40
0.0
 40
0.0
 40
0.0
 40
0.125
 40
0.125
 40
0.125
 40
0.125
 40
0.25
 40
0.25
 40
0.25
 40
0.25
 40
0.375
 40
0.375
 40
0.375
 40
0.375
 40
0.5
 40
0.5
 40
0.5
 40
0.5
 40
0.625
 40
0.625
 40
0.625
 40
0.625
 40
0.75
 40
0.75
 40
0.75
 40
0.75
 40
1.0
 40
1.0
 40
1.0
 40
1.0
 10
3.0769
 20
-29.1299
 30
0.0
 10
2.9903
 20
-29.0622
 30
0.0
 10
2.9146
 20
-29.0156
 30
0.0
 10
2.8502
 20
-28.9907
 30
0.0
 10
2.8502
 20
-28.9907
 30
0.0
 10
2.7853
 20
-28.9662
 30
0.0
 10
2.7091
 20
-28.9535
 30
0.0
 10
2.622
 20
-28.9535
 30
0.0
 10
2.622
 20
-28.9535
 30
0.0
 10
2.4207
 20
-28.9535
 30
0.0
 10
2.2547
 20
-29.0217
 30
0.0
 10
2.123
 20
-29.1581
 30
0.0
 10
2.123
 20
-29.1581
 30
0.0
 10
1.9917
 20
-29.2946
 30
0.0
 10
1.9259
 20
-29.4982
 30
0.0
 10
1.9259
 20
-29.7696
 30
0.0
 10
1.9259
 20
-29.7696
 30
0.0
 10
1.9259
 20
-29.8759
 30
0.0
 10
1.9362
 20
-29.9705
 30
0.0
 10
1.9565
 20
-30.0533
 30
0.0
 10
1.9565
 20
-30.0533
 30
0.0
 10
1.9711
 20
-30.1149
 30
0.0
 10
2.0016
 20
-30.1906
 30
0.0
 10
2.0487
 20
-30.2804
 30
0.0
 10
2.0487
 20
-30.2804
 30
0.0
 10
2.0487
 20
-30.2804
 30
0.0
 10
3.0769
 20
-29.1299
 30
0.0
 10
3.0769
 20
-29.1299
 30
0.0
  0
SPLINE
  5
66
330
1F
100
AcDbEntity
  8
DEFAULT_1
 62
   250
100
AcDbSpline
210
0.0
220
0.0
230
1.0
 70
    11
 71
     3
 72
    28
 73
    24
 74
     0
 42
0.0000000001
 43
0.0000000001
 40
0.0
 40
0.0
 40
0.0
 40
0.0
 40
0.1428571428571428
 40
0.1428571428571428
 40
0.1428571428571428
 40
0.1428571428571428
 40
0.2857142857142857
 40
0.2857142857142857
 40
0.2857142857142857
 40
0.2857142857142857
 40
0.4285714285714285
 40
0.4285714285714285
 40
0.4285714285714285
 40
0.4285714285714285
 40
0.5714285714285714
 40
0.5714285714285714
 40
0.5714285714285714
 40
0.5714285714285714
 40
0.7142857142857143
 40
0.7142857142857143
 40
0.7142857142857143
 40
0.7142857142857143
 40
1.0
 40
1.0
 40
1.0
 40
1.0
 10
3.1898
 20
-29.272
 30
0.0
 10
3.1898
 20
-29.272
 30
0.0
 10
2.1658
 20
-30.4183
 30
0.0
 10
2.1658
 20
-30.4183
 30
0.0
 10
2.1658
 20
-30.4183
 30
0.0
 10
2.2363
 20
-30.4761
 30
0.0
 10
2.3017
 20
-30.5166
 30
0.0
 10
2.3615
 20
-30.5396
 30
0.0
 10
2.3615
 20
-30.5396
 30
0.0
 10
2.4395
 20
-30.5702
 30
0.0
 10
2.5242
 20
-30.5852
 30
0.0
 10
2.615
 20
-30.5852
 30
0.0
 10
2.615
 20
-30.5852
 30
0.0
 10
2.8154
 20
-30.5852
 30
0.0
 10
2.9805
 20
-30.5147
 30
0.0
 10
3.1112
 20
-30.3731
 30
0.0
 10
3.1112
 20
-30.3731
 30
0.0
 10
3.2415
 20
-30.2315
 30
0.0
 10
3.3069
 20
-30.033
 30
0.0
 10
3.3069
 20
-29.7776
 30
0.0
 10
3.3069
 20
-29.7776
 30
0.0
 10
3.3069
 20
-29.5867
 30
0.0
 10
3.2679
 20
-29.4178
 30
0.0
 10
3.1898
 20
-29.272
 30
0.0
  0
SPLINE
  5
67
330
1F
100
AcDbEntity
  8
DEFAULT_1
 62
   250
100
AcDbSpline
210
0.0
220
0.0
230
1.0
 70
    11
 71
     3
 72
    48
 73
    44
 74
     0
 42
0.0000000001
 43
0.0000000001
 40
0.0
 40
0.0
 40
0.0
 40
0.0
 40
0.0833333333333333
 40
0.0833333333333333
 40
0.0833333333333333
 40
0.0833333333333333
 40
0.1666666666666667
 40
0.1666666666666667
 40
0.1666666666666667
 40
0.1666666666666667
 40
0.25
 40
0.25
 40
0.25
 40
0.25
 40
0.3333333333333333
 40
0.3333333333333333
 40
0.3333333333333333
 40
0.3333333333333333
 40
0.4166666666666667
 40
0.4166666666666667
 40
0.4166666666666667
 40
0.4166666666666667
 40
0.5
 40
0.5
 40
0.5
 40
0.5
 40
0.5833333333333334
 40
0.5833333333333334
 40
0.5833333333333334
 40
0.5833333333333334
 40
0.6666666666666666
 40
0.6666666666666666
 40
0.6666666666666666
 40
0.6666666666666666
 40
0.75
 40
0.75
 40
0.75
 40
0.75
 40
0.8333333333333334
 40
0.8333333333333334
 40
0.8333333333333334
 40
0.8333333333333334
 40
1.0
 40
1.0
 40
1.0
 40
1.0
 10
4.6267
 20
-30.7795
 30
0.0
 10
4.6267
 20
-30.7795
 30
0.0
 10
4.6267
 20
-30.296
 30
0.0
 10
4.6267
 20
-30.296
 30
0.0
 10
4.6267
 20
-30.296
 30
0.0
 10
4.6267
 20
-30.296
 30
0.0
 10
3.7504
 20
-30.296
 30
0.0
 10
3.7504
 20
-30.296
 30
0.0
 10
3.7504
 20
-30.296
 30
0.0
 10
3.7504
 20
-30.296
 30
0.0
 10
3.7504
 20
-30.0683
 30
0.0
 10
3.7504
 20
-30.0683
 30
0.0
 10
3.7504
 20
-30.0683
 30
0.0
 10
3.7504
 20
-30.0683
 30
0.0
 10
4.6724
 20
-28.7593
 30
0.0
 10
4.6724
 20
-28.7593
 30
0.0
 10
4.6724
 20
-28.7593
 30
0.0
 10
4.6724
 20
-28.7593
 30
0.0
 10
4.8751
 20
-28.7593
 30
0.0
 10
4.8751
 20
-28.7593
 30
0.0
 10
4.8751
 20
-28.7593
 30
0.0
 10
4.8751
 20
-28.7593
 30
0.0
 10
4.8751
 20
-30.0683
 30
0.0
 10
4.8751
 20
-30.0683
 30
0.0
 10
4.8751
 20
-30.0683
 30
0.0
 10
4.8751
 20
-30.0683
 30
0.0
 10
5.1479
 20
-30.0683
 30
0.0
 10
5.1479
 20
-30.0683
 30
0.0
 10
5.1479
 20
-30.0683
 30
0.0
 10
5.1479
 20
-30.0683
 30
0.0
 10
5.1479
 20
-30.296
 30
0.0
 10
5.1479
 20
-30.296
 30
0.0
 10
5.1479
 20
-30.296
 30
0.0
 10
5.1479
 20
-30.296
 30
0.0
 10
4.8751
 20
-30.296
 30
0.0
 10
4.8751
 20
-30.296
 30
0.0
 10
4.8751
 20
-30.296
 30
0.0
 10
4.8751
 20
-30.296
 30
0.0
 10
4.8751
 20
-30.7795
 30
0.0
 10
4.8751
 20
-30.7795
 30
0.0
 10
4.8751
 20
-30.7795
 30
0.0
 10
4.8751
 20
-30.7795
 30
0.0
 10
4.6267
 20
-30.7795
 30
0.0
 10
4.6267
 20
-30.7795
 30
0.0
  0
SPLINE
  5
68
330
1F
100
AcDbEntity
  8
DEFAULT_1
 62
   250
100
AcDbSpline
210
0.0
220
0.0
230
1.0
 70
    11
 71
     3
 72
    16
 73
    12
 74
     0
 42
0.0000000001
 43
0.0000000001
 40
0.0
 40
0.0
 40
0.0
 40
0.0
 40
0.25
 40
0.25
 40
0.25
 40
0.25
 40
0.5
 40
0.5
 40
0.5
 40
0.5
 40
1.0
 40
1.0
 40
1.0
 40
1.0
 10
4.6267
 20
-30.0683
 30
0.0
 10
4.6267
 20
-30.0683
 30
0.0
 10
4.6267
 20
-29.1577
 30
0.0
 10
4.6267
 20
-29.1577
 30
0.0
 10
4.6267
 20
-29.1577
 30
0.0
 10
4.6267
 20
-29.1577
 30
0.0
 10
3.9946
 20
-30.0683
 30
0.0
 10
3.9946
 20
-30.0683
 30
0.0
 10
3.9946
 20
-30.0683
 30
0.0
 10
3.9946
 20
-30.0683
 30
0.0
 10
4.6267
 20
-30.0683
 30
0.0
 10
4.6267
 20
-30.0683
 30
0.0
  0
SPLINE
  5
69
330
1F
100
AcDbEntity
  8
DEFAULT_1
 62
   250
100
AcDbSpline
210
0.0
220
0.0
230
1.0
 70
    11
 71
     3
 72
   124
 73
   120
 74
     0
 42
0.0000000001
 43
0.0000000001
 40
0.0
 40
0.0
 40
0.0
 40
0.0
 40
0.032258064516129
 40
0.032258064516129
 40
0.032258064516129
 40
0.032258064516129
 40
0.0645161290322581
 40
0.0645161290322581
 40
0.0645161290322581
 40
0.0645161290322581
 40
0.0967741935483871
 40
0.0967741935483871
 40
0.0967741935483871
 40
0.0967741935483871
 40
0.1290322580645161
 40
0.1290322580645161
 40
0.1290322580645161
 40
0.1290322580645161
 40
0.1612903225806452
 40
0.1612903225806452
 40
0.1612903225806452
 40
0.1612903225806452
 40
0.1935483870967742
 40
0.1935483870967742
 40
0.1935483870967742
 40
0.1935483870967742
 40
0.2258064516129032
 40
0.2258064516129032
 40
0.2258064516129032
 40
0.2258064516129032
 40
0.2580645161290323
 40
0.2580645161290323
 40
0.2580645161290323
 40
0.2580645161290323
 40
0.2903225806451613
 40
0.2903225806451613
 40
0.2903225806451613
 40
0.2903225806451613
 40
0.3225806451612903
 40
0.3225806451612903
 40
0.3225806451612903
 40
0.3225806451612903
 40
0.3548387096774194
 40
0.3548387096774194
 40
0.3548387096774194
 40
0.3548387096774194
 40
0.3870967741935484
 40
0.3870967741935484
 40
0.3870967741935484
 40
0.3870967741935484
 40
0.4193548387096774
 40
0.4193548387096774
 40
0.4193548387096774
 40
0.4193548387096774
 40
0.4516129032258064
 40
0.4516129032258064
 40
0.4516129032258064
 40
0.4516129032258064
 40
0.4838709677419355
 40
0.4838709677419355
 40
0.4838709677419355
 40
0.4838709677419355
 40
0.5161290322580645
 40
0.5161290322580645
 40
0.5161290322580645
 40
0.5161290322580645
 40
0.5483870967741935
 40
0.5483870967741935
 40
0.5483870967741935
 40
0.5483870967741935
 40
0.5806451612903226
 40
0.5806451612903226
 40
0.5806451612903226
 40
0.5806451612903226
 40
0.6129032258064516
 40
0.6129032258064516
 40
0.6129032258064516
 40
0.6129032258064516
 40
0.6451612903225806
 40
0.6451612903225806
 40
0.6451612903225806
 40
0.6451612903225806
 40
0.6774193548387096
 40
0.6774193548387096
 40
0.6774193548387096
 40
0.6774193548387096
 40
0.7096774193548387
 40
0.7096774193548387
 40
0.7096774193548387
 40
0.7096774193548387
 40
0.7419354838709677
 40
0.7419354838709677
 40
0.7419354838709677
 40
0.7419354838709677
 40
0.7741935483870968
 40
0.7741935483870968
 40
0.7741935483870968
 40
0.7741935483870968
 40
0.8064516129032258
 40
0.8064516129032258
 40
0.8064516129032258
 40
0.8064516129032258
 40
0.8387096774193549
 40
0.8387096774193549
 40
0.8387096774193549
 40
0.8387096774193549
 40
0.8709677419354839
 40
0.8709677419354839
 40
0.8709677419354839
 40
0.8709677419354839
 40
0.9032258064516129
 40
0.9032258064516129
 40
0.9032258064516129
 40
0.9032258064516129
 40
0.9354838709677419
 40
0.9354838709677419
 40
0.9354838709677419
 40
0.9354838709677419
 40
1.0
 40
1.0
 40
1.0
 40
1.0
 10
5.4028
 20
-30.2461
 30
0.0
 10
5.4028
 20
-30.2461
 30
0.0
 10
5.6507
 20
-30.2132
 30
0.0
 10
5.6507
 20
-30.2132
 30
0.0
 10
5.6507
 20
-30.2132
 30
0.0
 10
5.6794
 20
-30.3538
 30
0.0
 10
5.7279
 20
-30.4549
 30
0.0
 10
5.7961
 20
-30.517
 30
0.0
 10
5.7961
 20
-30.517
 30
0.0
 10
5.8647
 20
-30.5791
 30
0.0
 10
5.948
 20
-30.6102
 30
0.0
 10
6.0463
 20
-30.6102
 30
0.0
 10
6.0463
 20
-30.6102
 30
0.0
 10
6.1629
 20
-30.6102
 30
0.0
 10
6.2617
 20
-30.5697
 30
0.0
 10
6.3422
 20
-30.4888
 30
0.0
 10
6.3422
 20
-30.4888
 30
0.0
 10
6.4221
 20
-30.4079
 30
0.0
 10
6.4626
 20
-30.3077
 30
0.0
 10
6.4626
 20
-30.1882
 30
0.0
 10
6.4626
 20
-30.1882
 30
0.0
 10
6.4626
 20
-30.0744
 30
0.0
 10
6.4254
 20
-29.9803
 30
0.0
 10
6.3511
 20
-29.9065
 30
0.0
 10
6.3511
 20
-29.9065
 30
0.0
 10
6.2763
 20
-29.8327
 30
0.0
 10
6.1818
 20
-29.7955
 30
0.0
 10
6.067
 20
-29.7955
 30
0.0
 10
6.067
 20
-29.7955
 30
0.0
 10
6.02
 20
-29.7955
 30
0.0
 10
5.9616
 20
-29.8049
 30
0.0
 10
5.892
 20
-29.8232
 30
0.0
 10
5.892
 20
-29.8232
 30
0.0
 10
5.892
 20
-29.8232
 30
0.0
 10
5.9198
 20
-29.6055
 30
0.0
 10
5.9198
 20
-29.6055
 30
0.0
 10
5.9198
 20
-29.6055
 30
0.0
 10
5.9362
 20
-29.6073
 30
0.0
 10
5.9494
 20
-29.6083
 30
0.0
 10
5.9597
 20
-29.6083
 30
0.0
 10
5.9597
 20
-29.6083
 30
0.0
 10
6.0651
 20
-29.6083
 30
0.0
 10
6.1601
 20
-29.5805
 30
0.0
 10
6.2448
 20
-29.5255
 30
0.0
 10
6.2448
 20
-29.5255
 30
0.0
 10
6.3295
 20
-29.4705
 30
0.0
 10
6.3718
 20
-29.3853
 30
0.0
 10
6.3718
 20
-29.2706
 30
0.0
 10
6.3718
 20
-29.2706
 30
0.0
 10
6.3718
 20
-29.1798
 30
0.0
 10
6.3407
 20
-29.1041
 30
0.0
 10
6.2791
 20
-29.0448
 30
0.0
 10
6.2791
 20
-29.0448
 30
0.0
 10
6.2175
 20
-28.9851
 30
0.0
 10
6.138
 20
-28.9549
 30
0.0
 10
6.0406
 20
-28.9549
 30
0.0
 10
6.0406
 20
-28.9549
 30
0.0
 10
5.9442
 20
-28.9549
 30
0.0
 10
5.8638
 20
-28.9855
 30
0.0
 10
5.7998
 20
-29.0457
 30
0.0
 10
5.7998
 20
-29.0457
 30
0.0
 10
5.7354
 20
-29.1064
 30
0.0
 10
5.694
 20
-29.1977
 30
0.0
 10
5.6756
 20
-29.319
 30
0.0
 10
5.6756
 20
-29.319
 30
0.0
 10
5.6756
 20
-29.319
 30
0.0
 10
5.4278
 20
-29.2748
 30
0.0
 10
5.4278
 20
-29.2748
 30
0.0
 10
5.4278
 20
-29.2748
 30
0.0
 10
5.4579
 20
-29.1083
 30
0.0
 10
5.527
 20
-28.9794
 30
0.0
 10
5.6343
 20
-28.8882
 30
0.0
 10
5.6343
 20
-28.8882
 30
0.0
 10
5.742
 20
-28.7969
 30
0.0
 10
5.8756
 20
-28.7508
 30
0.0
 10
6.0355
 20
-28.7508
 30
0.0
 10
6.0355
 20
-28.7508
 30
0.0
 10
6.1455
 20
-28.7508
 30
0.0
 10
6.2471
 20
-28.7748
 30
0.0
 10
6.3398
 20
-28.8218
 30
0.0
 10
6.3398
 20
-28.8218
 30
0.0
 10
6.4325
 20
-28.8693
 30
0.0
 10
6.5035
 20
-28.9338
 30
0.0
 10
6.5529
 20
-29.0156
 30
0.0
 10
6.5529
 20
-29.0156
 30
0.0
 10
6.6018
 20
-29.0975
 30
0.0
 10
6.6267
 20
-29.184
 30
0.0
 10
6.6267
 20
-29.2762
 30
0.0
 10
6.6267
 20
-29.2762
 30
0.0
 10
6.6267
 20
-29.3632
 30
0.0
 10
6.6032
 20
-29.4427
 30
0.0
 10
6.5562
 20
-29.5147
 30
0.0
 10
6.5562
 20
-29.5147
 30
0.0
 10
6.5091
 20
-29.5862
 30
0.0
 10
6.44
 20
-29.6431
 30
0.0
 10
6.3483
 20
-29.6854
 30
0.0
 10
6.3483
 20
-29.6854
 30
0.0
 10
6.4677
 20
-29.7127
 30
0.0
 10
6.5604
 20
-29.7701
 30
0.0
 10
6.6267
 20
-29.8571
 30
0.0
 10
6.6267
 20
-29.8571
 30
0.0
 10
6.6926
 20
-29.9437
 30
0.0
 10
6.7255
 20
-30.0523
 30
0.0
 10
6.7255
 20
-30.1826
 30
0.0
 10
6.7255
 20
-30.1826
 30
0.0
 10
6.7255
 20
-30.359
 30
0.0
 10
6.6615
 20
-30.5086
 30
0.0
 10
6.5327
 20
-30.6313
 30
0.0
 10
6.5327
 20
-30.6313
 30
0.0
 10
6.4042
 20
-30.7541
 30
0.0
 10
6.2415
 20
-30.8152
 30
0.0
 10
6.0449
 20
-30.8152
 30
0.0
 10
6.0449
 20
-30.8152
 30
0.0
 10
5.8676
 20
-30.8152
 30
0.0
 10
5.7203
 20
-30.7626
 30
0.0
 10
5.6032
 20
-30.6567
 30
0.0
 10
5.6032
 20
-30.6567
 30
0.0
 10
5.4861
 20
-30.5514
 30
0.0
 10
5.4193
 20
-30.4145
 30
0.0
 10
5.4028
 20
-30.2461
 30
0.0
  0
SPLINE
  5
6A
330
1F
100
AcDbEntity
  8
DEFAULT_1
 62
   250
100
AcDbSpline
210
0.0
220
0.0
230
1.0
 70
    11
 71
     3
 72
    20
 73
    16
 74
     0
 42
0.0000000001
 43
0.0000000001
 40
0.0
 40
0.0
 40
0.0
 40
0.0
 40
0.2
 40
0.2
 40
0.2
 40
0.2
 40
0.4
 40
0.4
 40
0.4
 40
0.4
 40
0.6
 40
0.6
 40
0.6
 40
0.6
 40
1.0
 40
1.0
 40
1.0
 40
1.0
 10
9.4484
 20
-30.8952
 30
0.0
 10
9.4484
 20
-30.8952
 30
0.0
 10
12.4984
 20
-31.3256
 30
0.0
 10
12.4984
 20
-31.3256
 30
0.0
 10
12.4984
 20
-31.3256
 30
0.0
 10
12.4984
 20
-31.3256
 30
0.0
 10
12.4984
 20
-31.4212
 30
0.0
 10
12.4984
 20
-31.4212
 30
0.0
 10
12.4984
 20
-31.4212
 30
0.0
 10
12.4984
 20
-31.4212
 30
0.0
 10
9.4484
 20
-31.8803
 30
0.0
 10
9.4484
 20
-31.8803
 30
0.0
 10
9.4484
 20
-31.8803
 30
0.0
 10
9.4484
 20
-31.8803
 30
0.0
 10
9.4484
 20
-30.8952
 30
0.0
 10
9.4484
 20
-30.8952
 30
0.0
  0
SPLINE
  5
6B
330
1F
100
AcDbEntity
  8
DEFAULT_1
 62
   250
100
AcDbSpline
210
0.0
220
0.0
230
1.0
 70
    11
 71
     3
 72
    20
 73
    16
 74
     0
 42
0.0000000001
 43
0.0000000001
 40
0.0
 40
0.0
 40
0.0
 40
0.0
 40
0.2
 40
0.2
 40
0.2
 40
0.2
 40
0.4
 40
0.4
 40
0.4
 40
0.4
 40
0.6
 40
0.6
 40
0.6
 40
0.6
 40
1.0
 40
1.0
 40
1.0
 40
1.0
 10
-1.3588
 20
-31.8692
 30
0.0
 10
-1.3588
 20
-31.8692
 30
0.0
 10
-4.4088
 20
-31.4388
 30
0.0
 10
-4.4088
 20
-31.4388
 30
0.0
 10
-4.4088
 20
-31.4388
 30
0.0
 10
-4.4088
 20
-31.4388
 30
0.0
 10
-4.4088
 20
-31.3432
 30
0.0
 10
-4.4088
 20
-31.3432
 30
0.0
 10
-4.4088
 20
-31.3432
 30
0.0
 10
-4.4088
 20
-31.3432
 30
0.0
 10
-1.3588
 20
-30.8841
 30
0.0
 10
-1.3588
 20
-30.8841
 30
0.0
 10
-1.3588
 20
-30.8841
 30
0.0
 10
-1.3588
 20
-30.8841
 30
0.0
 10
-1.3588
 20
-31.8692
 30
0.0
 10
-1.3588
 20
-31.8692
 30
0.0
  0
SPLINE
  5
6C
330
1F
100
AcDbEntity
  8
DEFAULT_1
 62
   250
100
AcDbSpline
210
0.0
220
0.0
230
1.0
 70
    11
 71
     3
 72
    40
 73
    36
 74
     0
 42
0.0000000001
 43
0.0000000001
 40
0.0
 40
0.0
 40
0.0
 40
0.0
 40
0.1
 40
0.1
 40
0.1
 40
0.1
 40
0.2
 40
0.2
 40
0.2
 40
0.2
 40
0.3
 40
0.3
 40
0.3
 40
0.3
 40
0.4
 40
0.4
 40
0.4
 40
0.4
 40
0.5
 40
0.5
 40
0.5
 40
0.5
 40
0.6
 40
0.6
 40
0.6
 40
0.6
 40
0.7
 40
0.7
 40
0.7
 40
0.7
 40
0.8
 40
0.8
 40
0.8
 40
0.8
 40
1.0
 40
1.0
 40
1.0
 40
1.0
 10
-8.5135
 20
-19.482
 30
0.0
 10
-8.5135
 20
-19.482
 30
0.0
 10
-8.5135
 20
-19.7299
 30
0.0
 10
-8.5135
 20
-19.7299
 30
0.0
 10
-8.5135
 20
-19.7299
 30
0.0
 10
-8.5135
 20
-19.7299
 30
0.0
 10
-10.0939
 20
-19.7299
 30
0.0
 10
-10.0939
 20
-19.7299
 30
0.0
 10
-10.0939
 20
-19.7299
 30
0.0
 10
-10.037
 20
-19.7897
 30
0.0
 10
-9.9801
 20
-19.8677
 30
0.0
 10
-9.9232
 20
-19.9646
 30
0.0
 10
-9.9232
 20
-19.9646
 30
0.0
 10
-9.8663
 20
-20.062
 30
0.0
 10
-9.8235
 20
-20.149
 30
0.0
 10
-9.7952
 20
-20.2262
 30
0.0
 10
-9.7952
 20
-20.2262
 30
0.0
 10
-9.7952
 20
-20.2262
 30
0.0
 10
-10.0347
 20
-20.2262
 30
0.0
 10
-10.0347
 20
-20.2262
 30
0.0
 10
-10.0347
 20
-20.2262
 30
0.0
 10
-10.1
 20
-20.0874
 30
0.0
 10
-10.1791
 20
-19.966
 30
0.0
 10
-10.2717
 20
-19.8621
 30
0.0
 10
-10.2717
 20
-19.8621
 30
0.0
 10
-10.3649
 20
-19.7586
 30
0.0
 10
-10.4547
 20
-19.6848
 30
0.0
 10
-10.5422
 20
-19.6415
 30
0.0
 10
-10.5422
 20
-19.6415
 30
0.0
 10
-10.5422
 20
-19.6415
 30
0.0
 10
-10.5422
 20
-19.482
 30
0.0
 10
-10.5422
 20
-19.482
 30
0.0
 10
-10.5422
 20
-19.482
 30
0.0
 10
-10.5422
 20
-19.482
 30
0.0
 10
-8.5135
 20
-19.482
 30
0.0
 10
-8.5135
 20
-19.482
 30
0.0
  0
SPLINE
  5
6D
330
1F
100
AcDbEntity
  8
DEFAULT_1
 62
   250
100
AcDbSpline
210
0.0
220
0.0
230
1.0
 70
    11
 71
     3
 72
    40
 73
    36
 74
     0
 42
0.0000000001
 43
0.0000000001
 40
0.0
 40
0.0
 40
0.0
 40
0.0
 40
0.1
 40
0.1
 40
0.1
 40
0.1
 40
0.2
 40
0.2
 40
0.2
 40
0.2
 40
0.3
 40
0.3
 40
0.3
 40
0.3
 40
0.4
 40
0.4
 40
0.4
 40
0.4
 40
0.5
 40
0.5
 40
0.5
 40
0.5
 40
0.6
 40
0.6
 40
0.6
 40
0.6
 40
0.7
 40
0.7
 40
0.7
 40
0.7
 40
0.8
 40
0.8
 40
0.8
 40
0.8
 40
1.0
 40
1.0
 40
1.0
 40
1.0
 10
-8.5135
 20
-18.1217
 30
0.0
 10
-8.5135
 20
-18.1217
 30
0.0
 10
-8.5135
 20
-18.3696
 30
0.0
 10
-8.5135
 20
-18.3696
 30
0.0
 10
-8.5135
 20
-18.3696
 30
0.0
 10
-8.5135
 20
-18.3696
 30
0.0
 10
-10.0939
 20
-18.3696
 30
0.0
 10
-10.0939
 20
-18.3696
 30
0.0
 10
-10.0939
 20
-18.3696
 30
0.0
 10
-10.037
 20
-18.4294
 30
0.0
 10
-9.9801
 20
-18.5074
 30
0.0
 10
-9.9232
 20
-18.6043
 30
0.0
 10
-9.9232
 20
-18.6043
 30
0.0
 10
-9.8663
 20
-18.7017
 30
0.0
 10
-9.8235
 20
-18.7887
 30
0.0
 10
-9.7952
 20
-18.8659
 30
0.0
 10
-9.7952
 20
-18.8659
 30
0.0
 10
-9.7952
 20
-18.8659
 30
0.0
 10
-10.0347
 20
-18.8659
 30
0.0
 10
-10.0347
 20
-18.8659
 30
0.0
 10
-10.0347
 20
-18.8659
 30
0.0
 10
-10.1
 20
-18.7271
 30
0.0
 10
-10.1791
 20
-18.6057
 30
0.0
 10
-10.2717
 20
-18.5018
 30
0.0
 10
-10.2717
 20
-18.5018
 30
0.0
 10
-10.3649
 20
-18.3983
 30
0.0
 10
-10.4547
 20
-18.3245
 30
0.0
 10
-10.5422
 20
-18.2812
 30
0.0
 10
-10.5422
 20
-18.2812
 30
0.0
 10
-10.5422
 20
-18.2812
 30
0.0
 10
-10.5422
 20
-18.1217
 30
0.0
 10
-10.5422
 20
-18.1217
 30
0.0
 10
-10.5422
 20
-18.1217
 30
0.0
 10
-10.5422
 20
-18.1217
 30
0.0
 10
-8.5135
 20
-18.1217
 30
0.0
 10
-8.5135
 20
-18.1217
 30
0.0
  0
SPLINE
  5
6E
330
1F
100
AcDbEntity
  8
DEFAULT_1
 62
   250
100
AcDbSpline
210
0.0
220
0.0
230
1.0
 70
    11
 71
     3
 72
   116
 73
   112
 74
     0
 42
0.0000000001
 43
0.0000000001
 40
0.0
 40
0.0
 40
0.0
 40
0.0
 40
0.0344827586206897
 40
0.0344827586206897
 40
0.0344827586206897
 40
0.0344827586206897
 40
0.0689655172413793
 40
0.0689655172413793
 40
0.0689655172413793
 40
0.0689655172413793
 40
0.103448275862069
 40
0.103448275862069
 40
0.103448275862069
 40
0.103448275862069
 40
0.1379310344827586
 40
0.1379310344827586
 40
0.1379310344827586
 40
0.1379310344827586
 40
0.1724137931034483
 40
0.1724137931034483
 40
0.1724137931034483
 40
0.1724137931034483
 40
0.2068965517241379
 40
0.2068965517241379
 40
0.2068965517241379
 40
0.2068965517241379
 40
0.2413793103448276
 40
0.2413793103448276
 40
0.2413793103448276
 40
0.2413793103448276
 40
0.2758620689655172
 40
0.2758620689655172
 40
0.2758620689655172
 40
0.2758620689655172
 40
0.3103448275862069
 40
0.3103448275862069
 40
0.3103448275862069
 40
0.3103448275862069
 40
0.3448275862068966
 40
0.3448275862068966
 40
0.3448275862068966
 40
0.3448275862068966
 40
0.3793103448275862
 40
0.3793103448275862
 40
0.3793103448275862
 40
0.3793103448275862
 40
0.4137931034482759
 40
0.4137931034482759
 40
0.4137931034482759
 40
0.4137931034482759
 40
0.4482758620689655
 40
0.4482758620689655
 40
0.4482758620689655
 40
0.4482758620689655
 40
0.4827586206896552
 40
0.4827586206896552
 40
0.4827586206896552
 40
0.4827586206896552
 40
0.5172413793103449
 40
0.5172413793103449
 40
0.5172413793103449
 40
0.5172413793103449
 40
0.5517241379310345
 40
0.5517241379310345
 40
0.5517241379310345
 40
0.5517241379310345
 40
0.5862068965517241
 40
0.5862068965517241
 40
0.5862068965517241
 40
0.5862068965517241
 40
0.6206896551724138
 40
0.6206896551724138
 40
0.6206896551724138
 40
0.6206896551724138
 40
0.6551724137931034
 40
0.6551724137931034
 40
0.6551724137931034
 40
0.6551724137931034
 40
0.6896551724137931
 40
0.6896551724137931
 40
0.6896551724137931
 40
0.6896551724137931
 40
0.7241379310344828
 40
0.7241379310344828
 40
0.7241379310344828
 40
0.7241379310344828
 40
0.7586206896551724
 40
0.7586206896551724
 40
0.7586206896551724
 40
0.7586206896551724
 40
0.7931034482758621
 40
0.7931034482758621
 40
0.7931034482758621
 40
0.7931034482758621
 40
0.8275862068965517
 40
0.8275862068965517
 40
0.8275862068965517
 40
0.8275862068965517
 40
0.8620689655172413
 40
0.8620689655172413
 40
0.8620689655172413
 40
0.8620689655172413
 40
0.896551724137931
 40
0.896551724137931
 40
0.896551724137931
 40
0.896551724137931
 40
0.9310344827586207
 40
0.9310344827586207
 40
0.9310344827586207
 40
0.9310344827586207
 40
1.0
 40
1.0
 40
1.0
 40
1.0
 10
-14.4127
 20
6.2245
 30
0.0
 10
-14.4127
 20
6.2245
 30
0.0
 10
-15.876
 20
6.2245
 30
0.0
 10
-15.876
 20
6.2245
 30
0.0
 10
-15.876
 20
6.2245
 30
0.0
 10
-15.876
 20
6.2245
 30
0.0
 10
-15.876
 20
6.446
 30
0.0
 10
-15.876
 20
6.446
 30
0.0
 10
-15.876
 20
6.446
 30
0.0
 10
-15.876
 20
6.446
 30
0.0
 10
-15.6709
 20
6.446
 30
0.0
 10
-15.6709
 20
6.446
 30
0.0
 10
-15.6709
 20
6.446
 30
0.0
 10
-15.7424
 20
6.4921
 30
0.0
 10
-15.8003
 20
6.5533
 30
0.0
 10
-15.8436
 20
6.6295
 30
0.0
 10
-15.8436
 20
6.6295
 30
0.0
 10
-15.8873
 20
6.7057
 30
0.0
 10
-15.9094
 20
6.7927
 30
0.0
 10
-15.9094
 20
6.89
 30
0.0
 10
-15.9094
 20
6.89
 30
0.0
 10
-15.9094
 20
6.9982
 30
0.0
 10
-15.8868
 20
7.0871
 30
0.0
 10
-15.8417
 20
7.1563
 30
0.0
 10
-15.8417
 20
7.1563
 30
0.0
 10
-15.7965
 20
7.2259
 30
0.0
 10
-15.734
 20
7.2748
 30
0.0
 10
-15.6531
 20
7.303
 30
0.0
 10
-15.6531
 20
7.303
 30
0.0
 10
-15.8238
 20
7.4192
 30
0.0
 10
-15.9094
 20
7.5697
 30
0.0
 10
-15.9094
 20
7.755
 30
0.0
 10
-15.9094
 20
7.755
 30
0.0
 10
-15.9094
 20
7.9004
 30
0.0
 10
-15.869
 20
8.0119
 30
0.0
 10
-15.7885
 20
8.0899
 30
0.0
 10
-15.7885
 20
8.0899
 30
0.0
 10
-15.7081
 20
8.168
 30
0.0
 10
-15.5844
 20
8.2071
 30
0.0
 10
-15.4174
 20
8.2071
 30
0.0
 10
-15.4174
 20
8.2071
 30
0.0
 10
-15.4174
 20
8.2071
 30
0.0
 10
-14.4127
 20
8.2071
 30
0.0
 10
-14.4127
 20
8.2071
 30
0.0
 10
-14.4127
 20
8.2071
 30
0.0
 10
-14.4127
 20
8.2071
 30
0.0
 10
-14.4127
 20
7.9606
 30
0.0
 10
-14.4127
 20
7.9606
 30
0.0
 10
-14.4127
 20
7.9606
 30
0.0
 10
-14.4127
 20
7.9606
 30
0.0
 10
-15.3346
 20
7.9606
 30
0.0
 10
-15.3346
 20
7.9606
 30
0.0
 10
-15.3346
 20
7.9606
 30
0.0
 10
-15.4339
 20
7.9606
 30
0.0
 10
-15.5054
 20
7.9526
 30
0.0
 10
-15.5491
 20
7.9366
 30
0.0
 10
-15.5491
 20
7.9366
 30
0.0
 10
-15.5924
 20
7.9201
 30
0.0
 10
-15.6277
 20
7.891
 30
0.0
 10
-15.6545
 20
7.8491
 30
0.0
 10
-15.6545
 20
7.8491
 30
0.0
 10
-15.6808
 20
7.8068
 30
0.0
 10
-15.6944
 20
7.7569
 30
0.0
 10
-15.6944
 20
7.7
 30
0.0
 10
-15.6944
 20
7.7
 30
0.0
 10
-15.6944
 20
7.597
 30
0.0
 10
-15.6601
 20
7.5119
 30
0.0
 10
-15.5914
 20
7.4437
 30
0.0
 10
-15.5914
 20
7.4437
 30
0.0
 10
-15.5232
 20
7.3759
 30
0.0
 10
-15.4136
 20
7.3416
 30
0.0
 10
-15.2631
 20
7.3416
 30
0.0
 10
-15.2631
 20
7.3416
 30
0.0
 10
-15.2631
 20
7.3416
 30
0.0
 10
-14.4127
 20
7.3416
 30
0.0
 10
-14.4127
 20
7.3416
 30
0.0
 10
-14.4127
 20
7.3416
 30
0.0
 10
-14.4127
 20
7.3416
 30
0.0
 10
-14.4127
 20
7.0937
 30
0.0
 10
-14.4127
 20
7.0937
 30
0.0
 10
-14.4127
 20
7.0937
 30
0.0
 10
-14.4127
 20
7.0937
 30
0.0
 10
-15.3633
 20
7.0937
 30
0.0
 10
-15.3633
 20
7.0937
 30
0.0
 10
-15.3633
 20
7.0937
 30
0.0
 10
-15.4738
 20
7.0937
 30
0.0
 10
-15.5566
 20
7.0735
 30
0.0
 10
-15.6117
 20
7.033
 30
0.0
 10
-15.6117
 20
7.033
 30
0.0
 10
-15.6667
 20
6.9926
 30
0.0
 10
-15.6944
 20
6.9267
 30
0.0
 10
-15.6944
 20
6.8345
 30
0.0
 10
-15.6944
 20
6.8345
 30
0.0
 10
-15.6944
 20
6.7649
 30
0.0
 10
-15.6761
 20
6.7005
 30
0.0
 10
-15.6389
 20
6.6412
 30
0.0
 10
-15.6389
 20
6.6412
 30
0.0
 10
-15.6023
 20
6.5819
 30
0.0
 10
-15.5486
 20
6.5387
 30
0.0
 10
-15.4781
 20
6.5123
 30
0.0
 10
-15.4781
 20
6.5123
 30
0.0
 10
-15.4071
 20
6.4855
 30
0.0
 10
-15.305
 20
6.4723
 30
0.0
 10
-15.1719
 20
6.4723
 30
0.0
 10
-15.1719
 20
6.4723
 30
0.0
 10
-15.1719
 20
6.4723
 30
0.0
 10
-14.4127
 20
6.4723
 30
0.0
 10
-14.4127
 20
6.4723
 30
0.0
 10
-14.4127
 20
6.4723
 30
0.0
 10
-14.4127
 20
6.4723
 30
0.0
 10
-14.4127
 20
6.2245
 30
0.0
 10
-14.4127
 20
6.2245
 30
0.0
  0
SPLINE
  5
6F
330
1F
100
AcDbEntity
  8
DEFAULT_1
 62
   250
100
AcDbSpline
210
0.0
220
0.0
230
1.0
 70
    11
 71
     3
 72
   112
 73
   108
 74
     0
 42
0.0000000001
 43
0.0000000001
 40
0.0
 40
0.0
 40
0.0
 40
0.0
 40
0.0357142857142857
 40
0.0357142857142857
 40
0.0357142857142857
 40
0.0357142857142857
 40
0.0714285714285714
 40
0.0714285714285714
 40
0.0714285714285714
 40
0.0714285714285714
 40
0.1071428571428571
 40
0.1071428571428571
 40
0.1071428571428571
 40
0.1071428571428571
 40
0.1428571428571428
 40
0.1428571428571428
 40
0.1428571428571428
 40
0.1428571428571428
 40
0.1785714285714286
 40
0.1785714285714286
 40
0.1785714285714286
 40
0.1785714285714286
 40
0.2142857142857143
 40
0.2142857142857143
 40
0.2142857142857143
 40
0.2142857142857143
 40
0.25
 40
0.25
 40
0.25
 40
0.25
 40
0.2857142857142857
 40
0.2857142857142857
 40
0.2857142857142857
 40
0.2857142857142857
 40
0.3214285714285715
 40
0.3214285714285715
 40
0.3214285714285715
 40
0.3214285714285715
 40
0.3571428571428572
 40
0.3571428571428572
 40
0.3571428571428572
 40
0.3571428571428572
 40
0.3928571428571428
 40
0.3928571428571428
 40
0.3928571428571428
 40
0.3928571428571428
 40
0.4285714285714285
 40
0.4285714285714285
 40
0.4285714285714285
 40
0.4285714285714285
 40
0.4642857142857143
 40
0.4642857142857143
 40
0.4642857142857143
 40
0.4642857142857143
 40
0.5
 40
0.5
 40
0.5
 40
0.5
 40
0.5357142857142857
 40
0.5357142857142857
 40
0.5357142857142857
 40
0.5357142857142857
 40
0.5714285714285714
 40
0.5714285714285714
 40
0.5714285714285714
 40
0.5714285714285714
 40
0.6071428571428571
 40
0.6071428571428571
 40
0.6071428571428571
 40
0.6071428571428571
 40
0.6428571428571429
 40
0.6428571428571429
 40
0.6428571428571429
 40
0.6428571428571429
 40
0.6785714285714286
 40
0.6785714285714286
 40
0.6785714285714286
 40
0.6785714285714286
 40
0.7142857142857143
 40
0.7142857142857143
 40
0.7142857142857143
 40
0.7142857142857143
 40
0.75
 40
0.75
 40
0.75
 40
0.75
 40
0.7857142857142857
 40
0.7857142857142857
 40
0.7857142857142857
 40
0.7857142857142857
 40
0.8214285714285714
 40
0.8214285714285714
 40
0.8214285714285714
 40
0.8214285714285714
 40
0.8571428571428571
 40
0.8571428571428571
 40
0.8571428571428571
 40
0.8571428571428571
 40
0.8928571428571429
 40
0.8928571428571429
 40
0.8928571428571429
 40
0.8928571428571429
 40
0.9285714285714286
 40
0.9285714285714286
 40
0.9285714285714286
 40
0.9285714285714286
 40
1.0
 40
1.0
 40
1.0
 40
1.0
 10
-14.5933
 20
9.5302
 30
0.0
 10
-14.5152
 20
9.438
 30
0.0
 10
-14.4602
 20
9.3496
 30
0.0
 10
-14.4278
 20
9.2649
 30
0.0
 10
-14.4278
 20
9.2649
 30
0.0
 10
-14.3958
 20
9.1798
 30
0.0
 10
-14.3798
 20
9.0885
 30
0.0
 10
-14.3798
 20
8.9912
 30
0.0
 10
-14.3798
 20
8.9912
 30
0.0
 10
-14.3798
 20
8.8303
 30
0.0
 10
-14.4188
 20
8.7071
 30
0.0
 10
-14.4974
 20
8.6205
 30
0.0
 10
-14.4974
 20
8.6205
 30
0.0
 10
-14.5759
 20
8.5344
 30
0.0
 10
-14.6766
 20
8.4912
 30
0.0
 10
-14.7984
 20
8.4912
 30
0.0
 10
-14.7984
 20
8.4912
 30
0.0
 10
-14.8704
 20
8.4912
 30
0.0
 10
-14.9357
 20
8.5072
 30
0.0
 10
-14.995
 20
8.5401
 30
0.0
 10
-14.995
 20
8.5401
 30
0.0
 10
-15.0543
 20
8.5725
 30
0.0
 10
-15.1018
 20
8.6153
 30
0.0
 10
-15.1375
 20
8.668
 30
0.0
 10
-15.1375
 20
8.668
 30
0.0
 10
-15.1733
 20
8.7212
 30
0.0
 10
-15.2006
 20
8.7804
 30
0.0
 10
-15.2189
 20
8.8468
 30
0.0
 10
-15.2189
 20
8.8468
 30
0.0
 10
-15.2316
 20
8.8952
 30
0.0
 10
-15.2443
 20
8.9686
 30
0.0
 10
-15.2561
 20
9.0669
 30
0.0
 10
-15.2561
 20
9.0669
 30
0.0
 10
-15.2801
 20
9.2673
 30
0.0
 10
-15.3083
 20
9.415
 30
0.0
 10
-15.3417
 20
9.5095
 30
0.0
 10
-15.3417
 20
9.5095
 30
0.0
 10
-15.3755
 20
9.5105
 30
0.0
 10
-15.3972
 20
9.5109
 30
0.0
 10
-15.4061
 20
9.5109
 30
0.0
 10
-15.4061
 20
9.5109
 30
0.0
 10
-15.5072
 20
9.5109
 30
0.0
 10
-15.5787
 20
9.4874
 30
0.0
 10
-15.6197
 20
9.4404
 30
0.0
 10
-15.6197
 20
9.4404
 30
0.0
 10
-15.6761
 20
9.3773
 30
0.0
 10
-15.7039
 20
9.2828
 30
0.0
 10
-15.7039
 20
9.1581
 30
0.0
 10
-15.7039
 20
9.1581
 30
0.0
 10
-15.7039
 20
9.0415
 30
0.0
 10
-15.6836
 20
8.9554
 30
0.0
 10
-15.6427
 20
8.8994
 30
0.0
 10
-15.6427
 20
8.8994
 30
0.0
 10
-15.6018
 20
8.8439
 30
0.0
 10
-15.5294
 20
8.803
 30
0.0
 10
-15.4254
 20
8.7762
 30
0.0
 10
-15.4254
 20
8.7762
 30
0.0
 10
-15.4254
 20
8.7762
 30
0.0
 10
-15.4588
 20
8.534
 30
0.0
 10
-15.4588
 20
8.534
 30
0.0
 10
-15.4588
 20
8.534
 30
0.0
 10
-15.5623
 20
8.5561
 30
0.0
 10
-15.6465
 20
8.5923
 30
0.0
 10
-15.71
 20
8.6426
 30
0.0
 10
-15.71
 20
8.6426
 30
0.0
 10
-15.7739
 20
8.693
 30
0.0
 10
-15.8233
 20
8.7663
 30
0.0
 10
-15.8577
 20
8.8618
 30
0.0
 10
-15.8577
 20
8.8618
 30
0.0
 10
-15.892
 20
8.9573
 30
0.0
 10
-15.9094
 20
9.0678
 30
0.0
 10
-15.9094
 20
9.1939
 30
0.0
 10
-15.9094
 20
9.1939
 30
0.0
 10
-15.9094
 20
9.319
 30
0.0
 10
-15.8944
 20
9.4201
 30
0.0
 10
-15.8652
 20
9.4982
 30
0.0
 10
-15.8652
 20
9.4982
 30
0.0
 10
-15.8356
 20
9.5763
 30
0.0
 10
-15.7989
 20
9.6337
 30
0.0
 10
-15.7542
 20
9.6708
 30
0.0
 10
-15.7542
 20
9.6708
 30
0.0
 10
-15.7095
 20
9.7075
 30
0.0
 10
-15.6535
 20
9.7329
 30
0.0
 10
-15.5853
 20
9.748
 30
0.0
 10
-15.5853
 20
9.748
 30
0.0
 10
-15.543
 20
9.756
 30
0.0
 10
-15.4668
 20
9.7602
 30
0.0
 10
-15.3567
 20
9.7602
 30
0.0
 10
-15.3567
 20
9.7602
 30
0.0
 10
-15.3567
 20
9.7602
 30
0.0
 10
-15.0261
 20
9.7602
 30
0.0
 10
-15.0261
 20
9.7602
 30
0.0
 10
-15.0261
 20
9.7602
 30
0.0
 10
-14.7951
 20
9.7602
 30
0.0
 10
-14.6493
 20
9.7654
 30
0.0
 10
-14.5886
 20
9.7762
 30
0.0
 10
-14.5886
 20
9.7762
 30
0.0
 10
-14.5275
 20
9.7866
 30
0.0
 10
-14.4687
 20
9.8077
 30
0.0
 10
-14.4127
 20
9.8388
 30
0.0
 10
-14.4127
 20
9.8388
 30
0.0
 10
-14.4127
 20
9.8388
 30
0.0
 10
-14.4127
 20
9.5796
 30
0.0
 10
-14.4127
 20
9.5796
 30
0.0
 10
-14.4127
 20
9.5796
 30
0.0
 10
-14.464
 20
9.5542
 30
0.0
 10
-14.5242
 20
9.5373
 30
0.0
 10
-14.5933
 20
9.5302
 30
0.0
  0
SPLINE
  5
70
330
1F
100
AcDbEntity
  8
DEFAULT_1
 62
   250
100
AcDbSpline
210
0.0
220
0.0
230
1.0
 70
    11
 71
     3
 72
    44
 73
    40
 74
     0
 42
0.0000000001
 43
0.0000000001
 40
0.0
 40
0.0
 40
0.0
 40
0.0
 40
0.0909090909090909
 40
0.0909090909090909
 40
0.0909090909090909
 40
0.0909090909090909
 40
0.1818181818181818
 40
0.1818181818181818
 40
0.1818181818181818
 40
0.1818181818181818
 40
0.2727272727272727
 40
0.2727272727272727
 40
0.2727272727272727
 40
0.2727272727272727
 40
0.3636363636363636
 40
0.3636363636363636
 40
0.3636363636363636
 40
0.3636363636363636
 40
0.4545454545454545
 40
0.4545454545454545
 40
0.4545454545454545
 40
0.4545454545454545
 40
0.5454545454545454
 40
0.5454545454545454
 40
0.5454545454545454
 40
0.5454545454545454
 40
0.6363636363636364
 40
0.6363636363636364
 40
0.6363636363636364
 40
0.6363636363636364
 40
0.7272727272727273
 40
0.7272727272727273
 40
0.7272727272727273
 40
0.7272727272727273
 40
0.8181818181818182
 40
0.8181818181818182
 40
0.8181818181818182
 40
0.8181818181818182
 40
1.0
 40
1.0
 40
1.0
 40
1.0
 10
-15.1474
 20
9.5095
 30
0.0
 10
-15.1103
 20
9.4192
 30
0.0
 10
-15.0792
 20
9.2842
 30
0.0
 10
-15.0533
 20
9.1045
 30
0.0
 10
-15.0533
 20
9.1045
 30
0.0
 10
-15.0388
 20
9.0025
 30
0.0
 10
-15.0223
 20
8.93
 30
0.0
 10
-15.004
 20
8.8882
 30
0.0
 10
-15.004
 20
8.8882
 30
0.0
 10
-14.9856
 20
8.8458
 30
0.0
 10
-14.9588
 20
8.8129
 30
0.0
 10
-14.923
 20
8.7903
 30
0.0
 10
-14.923
 20
8.7903
 30
0.0
 10
-14.8878
 20
8.7673
 30
0.0
 10
-14.8487
 20
8.7555
 30
0.0
 10
-14.8055
 20
8.7555
 30
0.0
 10
-14.8055
 20
8.7555
 30
0.0
 10
-14.7391
 20
8.7555
 30
0.0
 10
-14.6841
 20
8.7809
 30
0.0
 10
-14.6399
 20
8.8308
 30
0.0
 10
-14.6399
 20
8.8308
 30
0.0
 10
-14.5961
 20
8.8806
 30
0.0
 10
-14.574
 20
8.954
 30
0.0
 10
-14.574
 20
9.0504
 30
0.0
 10
-14.574
 20
9.0504
 30
0.0
 10
-14.574
 20
9.1459
 30
0.0
 10
-14.5947
 20
9.2311
 30
0.0
 10
-14.6366
 20
9.3054
 30
0.0
 10
-14.6366
 20
9.3054
 30
0.0
 10
-14.6785
 20
9.3797
 30
0.0
 10
-14.7358
 20
9.4347
 30
0.0
 10
-14.8083
 20
9.4695
 30
0.0
 10
-14.8083
 20
9.4695
 30
0.0
 10
-14.8643
 20
9.4963
 30
0.0
 10
-14.947
 20
9.5095
 30
0.0
 10
-15.0562
 20
9.5095
 30
0.0
 10
-15.0562
 20
9.5095
 30
0.0
 10
-15.0562
 20
9.5095
 30
0.0
 10
-15.1474
 20
9.5095
 30
0.0
 10
-15.1474
 20
9.5095
 30
0.0
  0
SPLINE
  5
71
330
1F
100
AcDbEntity
  8
DEFAULT_1
 62
   250
100
AcDbSpline
210
0.0
220
0.0
230
1.0
 70
    11
 71
     3
 72
    64
 73
    60
 74
     0
 42
0.0000000001
 43
0.0000000001
 40
0.0
 40
0.0
 40
0.0
 40
0.0
 40
0.0625
 40
0.0625
 40
0.0625
 40
0.0625
 40
0.125
 40
0.125
 40
0.125
 40
0.125
 40
0.1875
 40
0.1875
 40
0.1875
 40
0.1875
 40
0.25
 40
0.25
 40
0.25
 40
0.25
 40
0.3125
 40
0.3125
 40
0.3125
 40
0.3125
 40
0.375
 40
0.375
 40
0.375
 40
0.375
 40
0.4375
 40
0.4375
 40
0.4375
 40
0.4375
 40
0.5
 40
0.5
 40
0.5
 40
0.5
 40
0.5625
 40
0.5625
 40
0.5625
 40
0.5625
 40
0.625
 40
0.625
 40
0.625
 40
0.625
 40
0.6875
 40
0.6875
 40
0.6875
 40
0.6875
 40
0.75
 40
0.75
 40
0.75
 40
0.75
 40
0.8125
 40
0.8125
 40
0.8125
 40
0.8125
 40
0.875
 40
0.875
 40
0.875
 40
0.875
 40
1.0
 40
1.0
 40
1.0
 40
1.0
 10
-14.4127
 20
9.9794
 30
0.0
 10
-14.4127
 20
9.9794
 30
0.0
 10
-15.1733
 20
10.5142
 30
0.0
 10
-15.1733
 20
10.5142
 30
0.0
 10
-15.1733
 20
10.5142
 30
0.0
 10
-15.1733
 20
10.5142
 30
0.0
 10
-15.876
 20
10.0194
 30
0.0
 10
-15.876
 20
10.0194
 30
0.0
 10
-15.876
 20
10.0194
 30
0.0
 10
-15.876
 20
10.0194
 30
0.0
 10
-15.876
 20
10.3293
 30
0.0
 10
-15.876
 20
10.3293
 30
0.0
 10
-15.876
 20
10.3293
 30
0.0
 10
-15.876
 20
10.3293
 30
0.0
 10
-15.5331
 20
10.5542
 30
0.0
 10
-15.5331
 20
10.5542
 30
0.0
 10
-15.5331
 20
10.5542
 30
0.0
 10
-15.4677
 20
10.596
 30
0.0
 10
-15.4132
 20
10.6304
 30
0.0
 10
-15.369
 20
10.6558
 30
0.0
 10
-15.369
 20
10.6558
 30
0.0
 10
-15.4296
 20
10.6962
 30
0.0
 10
-15.4833
 20
10.7334
 30
0.0
 10
-15.5303
 20
10.7677
 30
0.0
 10
-15.5303
 20
10.7677
 30
0.0
 10
-15.5303
 20
10.7677
 30
0.0
 10
-15.876
 20
11.0142
 30
0.0
 10
-15.876
 20
11.0142
 30
0.0
 10
-15.876
 20
11.0142
 30
0.0
 10
-15.876
 20
11.0142
 30
0.0
 10
-15.876
 20
11.3105
 30
0.0
 10
-15.876
 20
11.3105
 30
0.0
 10
-15.876
 20
11.3105
 30
0.0
 10
-15.876
 20
11.3105
 30
0.0
 10
-15.1869
 20
10.8049
 30
0.0
 10
-15.1869
 20
10.8049
 30
0.0
 10
-15.1869
 20
10.8049
 30
0.0
 10
-15.1869
 20
10.8049
 30
0.0
 10
-14.4127
 20
11.3491
 30
0.0
 10
-14.4127
 20
11.3491
 30
0.0
 10
-14.4127
 20
11.3491
 30
0.0
 10
-14.4127
 20
11.3491
 30
0.0
 10
-14.4127
 20
11.0448
 30
0.0
 10
-14.4127
 20
11.0448
 30
0.0
 10
-14.4127
 20
11.0448
 30
0.0
 10
-14.4127
 20
11.0448
 30
0.0
 10
-14.8675
 20
10.7442
 30
0.0
 10
-14.8675
 20
10.7442
 30
0.0
 10
-14.8675
 20
10.7442
 30
0.0
 10
-14.8675
 20
10.7442
 30
0.0
 10
-14.9903
 20
10.6643
 30
0.0
 10
-14.9903
 20
10.6643
 30
0.0
 10
-14.9903
 20
10.6643
 30
0.0
 10
-14.9903
 20
10.6643
 30
0.0
 10
-14.4127
 20
10.28
 30
0.0
 10
-14.4127
 20
10.28
 30
0.0
 10
-14.4127
 20
10.28
 30
0.0
 10
-14.4127
 20
10.28
 30
0.0
 10
-14.4127
 20
9.9794
 30
0.0
 10
-14.4127
 20
9.9794
 30
0.0
  0
SPLINE
  5
72
330
1F
100
AcDbEntity
  8
DEFAULT_1
 62
   250
100
AcDbSpline
210
0.0
220
0.0
230
1.0
 70
    11
 71
     3
 72
    92
 73
    88
 74
     0
 42
0.0000000001
 43
0.0000000001
 40
0.0
 40
0.0
 40
0.0
 40
0.0
 40
0.0434782608695652
 40
0.0434782608695652
 40
0.0434782608695652
 40
0.0434782608695652
 40
0.0869565217391304
 40
0.0869565217391304
 40
0.0869565217391304
 40
0.0869565217391304
 40
0.1304347826086956
 40
0.1304347826086956
 40
0.1304347826086956
 40
0.1304347826086956
 40
0.1739130434782609
 40
0.1739130434782609
 40
0.1739130434782609
 40
0.1739130434782609
 40
0.2173913043478261
 40
0.2173913043478261
 40
0.2173913043478261
 40
0.2173913043478261
 40
0.2608695652173913
 40
0.2608695652173913
 40
0.2608695652173913
 40
0.2608695652173913
 40
0.3043478260869565
 40
0.3043478260869565
 40
0.3043478260869565
 40
0.3043478260869565
 40
0.3478260869565217
 40
0.3478260869565217
 40
0.3478260869565217
 40
0.3478260869565217
 40
0.391304347826087
 40
0.391304347826087
 40
0.391304347826087
 40
0.391304347826087
 40
0.4347826086956522
 40
0.4347826086956522
 40
0.4347826086956522
 40
0.4347826086956522
 40
0.4782608695652174
 40
0.4782608695652174
 40
0.4782608695652174
 40
0.4782608695652174
 40
0.5217391304347826
 40
0.5217391304347826
 40
0.5217391304347826
 40
0.5217391304347826
 40
0.5652173913043478
 40
0.5652173913043478
 40
0.5652173913043478
 40
0.5652173913043478
 40
0.6086956521739131
 40
0.6086956521739131
 40
0.6086956521739131
 40
0.6086956521739131
 40
0.6521739130434783
 40
0.6521739130434783
 40
0.6521739130434783
 40
0.6521739130434783
 40
0.6956521739130435
 40
0.6956521739130435
 40
0.6956521739130435
 40
0.6956521739130435
 40
0.7391304347826086
 40
0.7391304347826086
 40
0.7391304347826086
 40
0.7391304347826086
 40
0.782608695652174
 40
0.782608695652174
 40
0.782608695652174
 40
0.782608695652174
 40
0.8260869565217391
 40
0.8260869565217391
 40
0.8260869565217391
 40
0.8260869565217391
 40
0.8695652173913043
 40
0.8695652173913043
 40
0.8695652173913043
 40
0.8695652173913043
 40
0.9130434782608695
 40
0.9130434782608695
 40
0.9130434782608695
 40
0.9130434782608695
 40
1.0
 40
1.0
 40
1.0
 40
1.0
 10
-14.9419
 20
12.271
 30
0.0
 10
-14.9419
 20
12.271
 30
0.0
 10
-14.964
 20
12.5316
 30
0.0
 10
-14.964
 20
12.5316
 30
0.0
 10
-14.964
 20
12.5316
 30
0.0
 10
-14.837
 20
12.5509
 30
0.0
 10
-14.742
 20
12.5956
 30
0.0
 10
-14.678
 20
12.6657
 30
0.0
 10
-14.678
 20
12.6657
 30
0.0
 10
-14.614
 20
12.7362
 30
0.0
 10
-14.582
 20
12.8209
 30
0.0
 10
-14.582
 20
12.9201
 30
0.0
 10
-14.582
 20
12.9201
 30
0.0
 10
-14.582
 20
13.0396
 30
0.0
 10
-14.6272
 20
13.1407
 30
0.0
 10
-14.717
 20
13.223
 30
0.0
 10
-14.717
 20
13.223
 30
0.0
 10
-14.8073
 20
13.3058
 30
0.0
 10
-14.9268
 20
13.3472
 30
0.0
 10
-15.0754
 20
13.3472
 30
0.0
 10
-15.0754
 20
13.3472
 30
0.0
 10
-15.217
 20
13.3472
 30
0.0
 10
-15.3285
 20
13.3077
 30
0.0
 10
-15.4103
 20
13.2282
 30
0.0
 10
-15.4103
 20
13.2282
 30
0.0
 10
-15.4922
 20
13.1487
 30
0.0
 10
-15.5331
 20
13.0448
 30
0.0
 10
-15.5331
 20
12.9159
 30
0.0
 10
-15.5331
 20
12.9159
 30
0.0
 10
-15.5331
 20
12.8359
 30
0.0
 10
-15.5148
 20
12.764
 30
0.0
 10
-15.4786
 20
12.6995
 30
0.0
 10
-15.4786
 20
12.6995
 30
0.0
 10
-15.4423
 20
12.6351
 30
0.0
 10
-15.3953
 20
12.5848
 30
0.0
 10
-15.3374
 20
12.5481
 30
0.0
 10
-15.3374
 20
12.5481
 30
0.0
 10
-15.3374
 20
12.5481
 30
0.0
 10
-15.3675
 20
12.3152
 30
0.0
 10
-15.3675
 20
12.3152
 30
0.0
 10
-15.3675
 20
12.3152
 30
0.0
 10
-15.3675
 20
12.3152
 30
0.0
 10
-16.4052
 20
12.5109
 30
0.0
 10
-16.4052
 20
12.5109
 30
0.0
 10
-16.4052
 20
12.5109
 30
0.0
 10
-16.4052
 20
12.5109
 30
0.0
 10
-16.4052
 20
13.5156
 30
0.0
 10
-16.4052
 20
13.5156
 30
0.0
 10
-16.4052
 20
13.5156
 30
0.0
 10
-16.4052
 20
13.5156
 30
0.0
 10
-16.1681
 20
13.5156
 30
0.0
 10
-16.1681
 20
13.5156
 30
0.0
 10
-16.1681
 20
13.5156
 30
0.0
 10
-16.1681
 20
13.5156
 30
0.0
 10
-16.1681
 20
12.7094
 30
0.0
 10
-16.1681
 20
12.7094
 30
0.0
 10
-16.1681
 20
12.7094
 30
0.0
 10
-16.1681
 20
12.7094
 30
0.0
 10
-15.6253
 20
12.6003
 30
0.0
 10
-15.6253
 20
12.6003
 30
0.0
 10
-15.6253
 20
12.6003
 30
0.0
 10
-15.71
 20
12.7216
 30
0.0
 10
-15.7523
 20
12.8491
 30
0.0
 10
-15.7523
 20
12.9822
 30
0.0
 10
-15.7523
 20
12.9822
 30
0.0
 10
-15.7523
 20
13.1586
 30
0.0
 10
-15.6912
 20
13.3072
 30
0.0
 10
-15.5689
 20
13.4286
 30
0.0
 10
-15.5689
 20
13.4286
 30
0.0
 10
-15.4466
 20
13.5499
 30
0.0
 10
-15.2895
 20
13.6106
 30
0.0
 10
-15.0976
 20
13.6106
 30
0.0
 10
-15.0976
 20
13.6106
 30
0.0
 10
-14.9146
 20
13.6106
 30
0.0
 10
-14.7565
 20
13.557
 30
0.0
 10
-14.6234
 20
13.4507
 30
0.0
 10
-14.6234
 20
13.4507
 30
0.0
 10
-14.4602
 20
13.3209
 30
0.0
 10
-14.3784
 20
13.144
 30
0.0
 10
-14.3784
 20
12.9201
 30
0.0
 10
-14.3784
 20
12.9201
 30
0.0
 10
-14.3784
 20
12.7362
 30
0.0
 10
-14.4296
 20
12.5862
 30
0.0
 10
-14.5326
 20
12.47
 30
0.0
 10
-14.5326
 20
12.47
 30
0.0
 10
-14.6357
 20
12.3538
 30
0.0
 10
-14.7721
 20
12.2875
 30
0.0
 10
-14.9419
 20
12.271
 30
0.0
  0
SPLINE
  5
73
330
1F
100
AcDbEntity
  8
DEFAULT_1
 62
   250
100
AcDbSpline
210
0.0
220
0.0
230
1.0
 70
    11
 71
     3
 72
    52
 73
    48
 74
     0
 42
0.0000000001
 43
0.0000000001
 40
0.0
 40
0.0
 40
0.0
 40
0.0
 40
0.0769230769230769
 40
0.0769230769230769
 40
0.0769230769230769
 40
0.0769230769230769
 40
0.1538461538461539
 40
0.1538461538461539
 40
0.1538461538461539
 40
0.1538461538461539
 40
0.2307692307692308
 40
0.2307692307692308
 40
0.2307692307692308
 40
0.2307692307692308
 40
0.3076923076923077
 40
0.3076923076923077
 40
0.3076923076923077
 40
0.3076923076923077
 40
0.3846153846153846
 40
0.3846153846153846
 40
0.3846153846153846
 40
0.3846153846153846
 40
0.4615384615384616
 40
0.4615384615384616
 40
0.4615384615384616
 40
0.4615384615384616
 40
0.5384615384615384
 40
0.5384615384615384
 40
0.5384615384615384
 40
0.5384615384615384
 40
0.6153846153846154
 40
0.6153846153846154
 40
0.6153846153846154
 40
0.6153846153846154
 40
0.6923076923076923
 40
0.6923076923076923
 40
0.6923076923076923
 40
0.6923076923076923
 40
0.7692307692307693
 40
0.7692307692307693
 40
0.7692307692307693
 40
0.7692307692307693
 40
0.8461538461538461
 40
0.8461538461538461
 40
0.8461538461538461
 40
0.8461538461538461
 40
1.0
 40
1.0
 40
1.0
 40
1.0
 10
-15.4089
 20
13.8406
 30
0.0
 10
-15.6479
 20
13.8406
 30
0.0
 10
-15.8403
 20
13.8651
 30
0.0
 10
-15.9856
 20
13.9145
 30
0.0
 10
-15.9856
 20
13.9145
 30
0.0
 10
-16.1314
 20
13.9634
 30
0.0
 10
-16.2438
 20
14.0368
 30
0.0
 10
-16.3229
 20
14.1337
 30
0.0
 10
-16.3229
 20
14.1337
 30
0.0
 10
-16.4019
 20
14.2306
 30
0.0
 10
-16.4414
 20
14.3524
 30
0.0
 10
-16.4414
 20
14.4991
 30
0.0
 10
-16.4414
 20
14.4991
 30
0.0
 10
-16.4414
 20
14.6078
 30
0.0
 10
-16.4193
 20
14.7028
 30
0.0
 10
-16.3755
 20
14.7846
 30
0.0
 10
-16.3755
 20
14.7846
 30
0.0
 10
-16.3323
 20
14.8665
 30
0.0
 10
-16.2692
 20
14.9338
 30
0.0
 10
-16.1869
 20
14.9874
 30
0.0
 10
-16.1869
 20
14.9874
 30
0.0
 10
-16.1046
 20
15.0405
 30
0.0
 10
-16.0044
 20
15.0824
 30
0.0
 10
-15.8864
 20
15.1125
 30
0.0
 10
-15.8864
 20
15.1125
 30
0.0
 10
-15.7683
 20
15.1431
 30
0.0
 10
-15.6093
 20
15.1581
 30
0.0
 10
-15.4089
 20
15.1581
 30
0.0
 10
-15.4089
 20
15.1581
 30
0.0
 10
-15.1719
 20
15.1581
 30
0.0
 10
-14.9809
 20
15.1337
 30
0.0
 10
-14.8351
 20
15.0852
 30
0.0
 10
-14.8351
 20
15.0852
 30
0.0
 10
-14.6893
 20
15.0363
 30
0.0
 10
-14.5769
 20
14.9634
 30
0.0
 10
-14.4974
 20
14.8665
 30
0.0
 10
-14.4974
 20
14.8665
 30
0.0
 10
-14.4179
 20
14.7696
 30
0.0
 10
-14.3784
 20
14.6473
 30
0.0
 10
-14.3784
 20
14.4991
 30
0.0
 10
-14.3784
 20
14.4991
 30
0.0
 10
-14.3784
 20
14.3044
 30
0.0
 10
-14.448
 20
14.1515
 30
0.0
 10
-14.5877
 20
14.0405
 30
0.0
 10
-14.5877
 20
14.0405
 30
0.0
 10
-14.7556
 20
13.9074
 30
0.0
 10
-15.0298
 20
13.8406
 30
0.0
 10
-15.4089
 20
13.8406
 30
0.0
  0
SPLINE
  5
74
330
1F
100
AcDbEntity
  8
DEFAULT_1
 62
   250
100
AcDbSpline
210
0.0
220
0.0
230
1.0
 70
    11
 71
     3
 72
    36
 73
    32
 74
     0
 42
0.0000000001
 43
0.0000000001
 40
0.0
 40
0.0
 40
0.0
 40
0.0
 40
0.1111111111111111
 40
0.1111111111111111
 40
0.1111111111111111
 40
0.1111111111111111
 40
0.2222222222222222
 40
0.2222222222222222
 40
0.2222222222222222
 40
0.2222222222222222
 40
0.3333333333333333
 40
0.3333333333333333
 40
0.3333333333333333
 40
0.3333333333333333
 40
0.4444444444444444
 40
0.4444444444444444
 40
0.4444444444444444
 40
0.4444444444444444
 40
0.5555555555555556
 40
0.5555555555555556
 40
0.5555555555555556
 40
0.5555555555555556
 40
0.6666666666666666
 40
0.6666666666666666
 40
0.6666666666666666
 40
0.6666666666666666
 40
0.7777777777777778
 40
0.7777777777777778
 40
0.7777777777777778
 40
0.7777777777777778
 40
1.0
 40
1.0
 40
1.0
 40
1.0
 10
-15.4089
 20
14.0956
 30
0.0
 10
-15.0773
 20
14.0956
 30
0.0
 10
-14.8567
 20
14.1346
 30
0.0
 10
-14.7467
 20
14.2122
 30
0.0
 10
-14.7467
 20
14.2122
 30
0.0
 10
-14.6371
 20
14.2898
 30
0.0
 10
-14.582
 20
14.3853
 30
0.0
 10
-14.582
 20
14.4991
 30
0.0
 10
-14.582
 20
14.4991
 30
0.0
 10
-14.582
 20
14.6134
 30
0.0
 10
-14.6375
 20
14.7089
 30
0.0
 10
-14.7476
 20
14.7865
 30
0.0
 10
-14.7476
 20
14.7865
 30
0.0
 10
-14.8577
 20
14.8641
 30
0.0
 10
-15.0783
 20
14.9032
 30
0.0
 10
-15.4089
 20
14.9032
 30
0.0
 10
-15.4089
 20
14.9032
 30
0.0
 10
-15.7415
 20
14.9032
 30
0.0
 10
-15.9626
 20
14.8641
 30
0.0
 10
-16.0717
 20
14.7865
 30
0.0
 10
-16.0717
 20
14.7865
 30
0.0
 10
-16.1813
 20
14.7089
 30
0.0
 10
-16.2358
 20
14.6125
 30
0.0
 10
-16.2358
 20
14.4968
 30
0.0
 10
-16.2358
 20
14.4968
 30
0.0
 10
-16.2358
 20
14.3825
 30
0.0
 10
-16.1874
 20
14.2917
 30
0.0
 10
-16.091
 20
14.2235
 30
0.0
 10
-16.091
 20
14.2235
 30
0.0
 10
-15.9682
 20
14.1384
 30
0.0
 10
-15.7405
 20
14.0956
 30
0.0
 10
-15.4089
 20
14.0956
 30
0.0
  0
SPLINE
  5
75
330
1F
100
AcDbEntity
  8
DEFAULT_1
 62
   250
100
AcDbSpline
210
0.0
220
0.0
230
1.0
 70
    11
 71
     3
 72
    20
 73
    16
 74
     0
 42
0.0000000001
 43
0.0000000001
 40
0.0
 40
0.0
 40
0.0
 40
0.0
 40
0.2
 40
0.2
 40
0.2
 40
0.2
 40
0.4
 40
0.4
 40
0.4
 40
0.4
 40
0.6
 40
0.6
 40
0.6
 40
0.6
 40
1.0
 40
1.0
 40
1.0
 40
1.0
 10
-13.833
 20
1.6633
 30
0.0
 10
-13.833
 20
1.6633
 30
0.0
 10
-13.4026
 20
4.7133
 30
0.0
 10
-13.4026
 20
4.7133
 30
0.0
 10
-13.4026
 20
4.7133
 30
0.0
 10
-13.4026
 20
4.7133
 30
0.0
 10
-13.3069
 20
4.7133
 30
0.0
 10
-13.3069
 20
4.7133
 30
0.0
 10
-13.3069
 20
4.7133
 30
0.0
 10
-13.3069
 20
4.7133
 30
0.0
 10
-12.8479
 20
1.6633
 30
0.0
 10
-12.8479
 20
1.6633
 30
0.0
 10
-12.8479
 20
1.6633
 30
0.0
 10
-12.8479
 20
1.6633
 30
0.0
 10
-13.833
 20
1.6633
 30
0.0
 10
-13.833
 20
1.6633
 30
0.0
  0
SPLINE
  5
76
330
1F
100
AcDbEntity
  8
DEFAULT_1
 62
   250
100
AcDbSpline
210
0.0
220
0.0
230
1.0
 70
    11
 71
     3
 72
    20
 73
    16
 74
     0
 42
0.0000000001
 43
0.0000000001
 40
0.0
 40
0.0
 40
0.0
 40
0.0
 40
0.2
 40
0.2
 40
0.2
 40
0.2
 40
0.4
 40
0.4
 40
0.4
 40
0.4
 40
0.6
 40
0.6
 40
0.6
 40
0.6
 40
1.0
 40
1.0
 40
1.0
 40
1.0
 10
-12.8667
 20
-18.1827
 30
0.0
 10
-12.8667
 20
-18.1827
 30
0.0
 10
-13.2971
 20
-21.2328
 30
0.0
 10
-13.2971
 20
-21.2328
 30
0.0
 10
-13.2971
 20
-21.2328
 30
0.0
 10
-13.2971
 20
-21.2328
 30
0.0
 10
-13.3927
 20
-21.2328
 30
0.0
 10
-13.3927
 20
-21.2328
 30
0.0
 10
-13.3927
 20
-21.2328
 30
0.0
 10
-13.3927
 20
-21.2328
 30
0.0
 10
-13.8518
 20
-18.1827
 30
0.0
 10
-13.8518
 20
-18.1827
 30
0.0
 10
-13.8518
 20
-18.1827
 30
0.0
 10
-13.8518
 20
-18.1827
 30
0.0
 10
-12.8667
 20
-18.1827
 30
0.0
 10
-12.8667
 20
-18.1827
 30
0.0
  0
SPLINE
  5
77
330
1F
100
AcDbEntity
  8
DEFAULT_1
 62
   250
100
AcDbSpline
210
0.0
220
0.0
230
1.0
 70
    11
 71
     3
 72
    20
 73
    16
 74
     0
 42
0.0000000001
 43
0.0000000001
 40
0.0
 40
0.0
 40
0.0
 40
0.0
 40
0.2
 40
0.2
 40
0.2
 40
0.2
 40
0.4
 40
0.4
 40
0.4
 40
0.4
 40
0.6
 40
0.6
 40
0.6
 40
0.6
 40
1.0
 40
1.0
 40
1.0
 40
1.0
 10
-13.8671
 20
13.5688
 30
0.0
 10
-13.8671
 20
13.5688
 30
0.0
 10
-13.4367
 20
16.6188
 30
0.0
 10
-13.4367
 20
16.6188
 30
0.0
 10
-13.4367
 20
16.6188
 30
0.0
 10
-13.4367
 20
16.6188
 30
0.0
 10
-13.3411
 20
16.6188
 30
0.0
 10
-13.3411
 20
16.6188
 30
0.0
 10
-13.3411
 20
16.6188
 30
0.0
 10
-13.3411
 20
16.6188
 30
0.0
 10
-12.882
 20
13.5688
 30
0.0
 10
-12.882
 20
13.5688
 30
0.0
 10
-12.882
 20
13.5688
 30
0.0
 10
-12.882
 20
13.5688
 30
0.0
 10
-13.8671
 20
13.5688
 30
0.0
 10
-13.8671
 20
13.5688
 30
0.0
  0
SPLINE
  5
78
330
1F
100
AcDbEntity
  8
DEFAULT_1
 62
   250
100
AcDbSpline
210
0.0
220
0.0
230
1.0
 70
    11
 71
     3
 72
    20
 73
    16
 74
     0
 42
0.0000000001
 43
0.0000000001
 40
0.0
 40
0.0
 40
0.0
 40
0.0
 40
0.2
 40
0.2
 40
0.2
 40
0.2
 40
0.4
 40
0.4
 40
0.4
 40
0.4
 40
0.6
 40
0.6
 40
0.6
 40
0.6
 40
1.0
 40
1.0
 40
1.0
 40
1.0
 10
-12.8665
 20
7.8897
 30
0.0
 10
-12.8665
 20
7.8897
 30
0.0
 10
-13.297
 20
4.8396
 30
0.0
 10
-13.297
 20
4.8396
 30
0.0
 10
-13.297
 20
4.8396
 30
0.0
 10
-13.297
 20
4.8396
 30
0.0
 10
-13.3926
 20
4.8396
 30
0.0
 10
-13.3926
 20
4.8396
 30
0.0
 10
-13.3926
 20
4.8396
 30
0.0
 10
-13.3926
 20
4.8396
 30
0.0
 10
-13.8517
 20
7.8897
 30
0.0
 10
-13.8517
 20
7.8897
 30
0.0
 10
-13.8517
 20
7.8897
 30
0.0
 10
-13.8517
 20
7.8897
 30
0.0
 10
-12.8665
 20
7.8897
 30
0.0
 10
-12.8665
 20
7.8897
 30
0.0
  0
SPLINE
  5
79
330
1F
100
AcDbEntity
  8
DEFAULT_1
 62
   250
100
AcDbSpline
210
0.0
220
0.0
230
1.0
 70
    11
 71
     3
 72
    20
 73
    16
 74
     0
 42
0.0000000001
 43
0.0000000001
 40
0.0
 40
0.0
 40
0.0
 40
0.0
 40
0.2
 40
0.2
 40
0.2
 40
0.2
 40
0.4
 40
0.4
 40
0.4
 40
0.4
 40
0.6
 40
0.6
 40
0.6
 40
0.6
 40
1.0
 40
1.0
 40
1.0
 40
1.0
 10
-8.5793
 20
-24.51
 30
0.0
 10
-8.5793
 20
-24.51
 30
0.0
 10
-8.1489
 20
-21.46
 30
0.0
 10
-8.1489
 20
-21.46
 30
0.0
 10
-8.1489
 20
-21.46
 30
0.0
 10
-8.1489
 20
-21.46
 30
0.0
 10
-8.0533
 20
-21.46
 30
0.0
 10
-8.0533
 20
-21.46
 30
0.0
 10
-8.0533
 20
-21.46
 30
0.0
 10
-8.0533
 20
-21.46
 30
0.0
 10
-7.5942
 20
-24.51
 30
0.0
 10
-7.5942
 20
-24.51
 30
0.0
 10
-7.5942
 20
-24.51
 30
0.0
 10
-7.5942
 20
-24.51
 30
0.0
 10
-8.5793
 20
-24.51
 30
0.0
 10
-8.5793
 20
-24.51
 30
0.0
  0
SPLINE
  5
7A
330
1F
100
AcDbEntity
  8
DEFAULT_1
 62
   250
100
AcDbSpline
210
0.0
220
0.0
230
1.0
 70
    11
 71
     3
 72
    20
 73
    16
 74
     0
 42
0.0000000001
 43
0.0000000001
 40
0.0
 40
0.0
 40
0.0
 40
0.0
 40
0.2
 40
0.2
 40
0.2
 40
0.2
 40
0.4
 40
0.4
 40
0.4
 40
0.4
 40
0.6
 40
0.6
 40
0.6
 40
0.6
 40
1.0
 40
1.0
 40
1.0
 40
1.0
 10
-7.5839
 20
-14.1093
 30
0.0
 10
-7.5839
 20
-14.1093
 30
0.0
 10
-8.0144
 20
-17.1593
 30
0.0
 10
-8.0144
 20
-17.1593
 30
0.0
 10
-8.0144
 20
-17.1593
 30
0.0
 10
-8.0144
 20
-17.1593
 30
0.0
 10
-8.11
 20
-17.1593
 30
0.0
 10
-8.11
 20
-17.1593
 30
0.0
 10
-8.11
 20
-17.1593
 30
0.0
 10
-8.11
 20
-17.1593
 30
0.0
 10
-8.569
 20
-14.1093
 30
0.0
 10
-8.569
 20
-14.1093
 30
0.0
 10
-8.569
 20
-14.1093
 30
0.0
 10
-8.569
 20
-14.1093
 30
0.0
 10
-7.5839
 20
-14.1093
 30
0.0
 10
-7.5839
 20
-14.1093
 30
0.0
  0
SPLINE
  5
7B
330
1F
100
AcDbEntity
  8
DEFAULT_1
 62
   250
100
AcDbSpline
210
0.0
220
0.0
230
1.0
 70
    24
 71
     3
 72
     8
 73
     4
 74
     0
 42
0.0000000001
 43
0.0000000001
 40
0.0
 40
0.0
 40
0.0
 40
0.0
 40
1.0
 40
1.0
 40
1.0
 40
1.0
 10
16.3984
 20
24.3487
 30
0.0
 10
16.3984
 20
24.3487
 30
0.0
 10
16.3984
 20
30.3402
 30
0.0
 10
16.3984
 20
30.3402
 30
0.0
  0
SPLINE
  5
7C
330
1F
100
AcDbEntity
  8
DEFAULT_1
 62
   250
100
AcDbSpline
210
0.0
220
0.0
230
1.0
 70
    24
 71
     3
 72
     8
 73
     4
 74
     0
 42
0.0000000001
 43
0.0000000001
 40
0.0
 40
0.0
 40
0.0
 40
0.0
 40
1.0
 40
1.0
 40
1.0
 40
1.0
 10
-8.2311
 20
24.0662
 30
0.0
 10
-8.2311
 20
24.0662
 30
0.0
 10
-8.2311
 20
30.2678
 30
0.0
 10
-8.2311
 20
30.2678
 30
0.0
  0
SPLINE
  5
7D
330
1F
100
AcDbEntity
  8
DEFAULT_1
 62
   250
100
AcDbSpline
210
0.0
220
0.0
230
1.0
 70
    24
 71
     3
 72
     8
 73
     4
 74
     0
 42
0.0000000001
 43
0.0000000001
 40
0.0
 40
0.0
 40
0.0
 40
0.0
 40
1.0
 40
1.0
 40
1.0
 40
1.0
 10
-8.1113
 20
29.3737
 30
0.0
 10
-8.1113
 20
29.3737
 30
0.0
 10
16.2293
 20
29.3737
 30
0.0
 10
16.2293
 20
29.3737
 30
0.0
  0
SPLINE
  5
7E
330
1F
100
AcDbEntity
  8
DEFAULT_1
 62
   250
100
AcDbSpline
210
0.0
220
0.0
230
1.0
 70
    11
 71
     3
 72
    20
 73
    16
 74
     0
 42
0.0000000001
 43
0.0000000001
 40
0.0
 40
0.0
 40
0.0
 40
0.0
 40
0.2
 40
0.2
 40
0.2
 40
0.2
 40
0.4
 40
0.4
 40
0.4
 40
0.4
 40
0.6
 40
0.6
 40
0.6
 40
0.6
 40
1.0
 40
1.0
 40
1.0
 40
1.0
 10
13.162
 20
29.8662
 30
0.0
 10
13.162
 20
29.8662
 30
0.0
 10
16.2121
 20
29.4358
 30
0.0
 10
16.2121
 20
29.4358
 30
0.0
 10
16.2121
 20
29.4358
 30
0.0
 10
16.2121
 20
29.4358
 30
0.0
 10
16.2121
 20
29.3402
 30
0.0
 10
16.2121
 20
29.3402
 30
0.0
 10
16.2121
 20
29.3402
 30
0.0
 10
16.2121
 20
29.3402
 30
0.0
 10
13.162
 20
28.8811
 30
0.0
 10
13.162
 20
28.8811
 30
0.0
 10
13.162
 20
28.8811
 30
0.0
 10
13.162
 20
28.8811
 30
0.0
 10
13.162
 20
29.8662
 30
0.0
 10
13.162
 20
29.8662
 30
0.0
  0
SPLINE
  5
7F
330
1F
100
AcDbEntity
  8
DEFAULT_1
 62
   250
100
AcDbSpline
210
0.0
220
0.0
230
1.0
 70
    11
 71
     3
 72
    20
 73
    16
 74
     0
 42
0.0000000001
 43
0.0000000001
 40
0.0
 40
0.0
 40
0.0
 40
0.0
 40
0.2
 40
0.2
 40
0.2
 40
0.2
 40
0.4
 40
0.4
 40
0.4
 40
0.4
 40
0.6
 40
0.6
 40
0.6
 40
0.6
 40
1.0
 40
1.0
 40
1.0
 40
1.0
 10
-5.0869
 20
28.8812
 30
0.0
 10
-5.0869
 20
28.8812
 30
0.0
 10
-8.1369
 20
29.3117
 30
0.0
 10
-8.1369
 20
29.3117
 30
0.0
 10
-8.1369
 20
29.3117
 30
0.0
 10
-8.1369
 20
29.3117
 30
0.0
 10
-8.1369
 20
29.4073
 30
0.0
 10
-8.1369
 20
29.4073
 30
0.0
 10
-8.1369
 20
29.4073
 30
0.0
 10
-8.1369
 20
29.4073
 30
0.0
 10
-5.0869
 20
29.8663
 30
0.0
 10
-5.0869
 20
29.8663
 30
0.0
 10
-5.0869
 20
29.8663
 30
0.0
 10
-5.0869
 20
29.8663
 30
0.0
 10
-5.0869
 20
28.8812
 30
0.0
 10
-5.0869
 20
28.8812
 30
0.0
  0
SPLINE
  5
80
330
1F
100
AcDbEntity
  8
DEFAULT_1
 62
   250
100
AcDbSpline
210
0.0
220
0.0
230
1.0
 70
    24
 71
     3
 72
     8
 73
     4
 74
     0
 42
0.0000000001
 43
0.0000000001
 40
0.0
 40
0.0
 40
0.0
 40
0.0
 40
1.0
 40
1.0
 40
1.0
 40
1.0
 10
-3.6083
 20
-17.6598
 30
0.0
 10
-3.6083
 20
-17.6598
 30
0.0
 10
11.8144
 20
-17.2766
 30
0.0
 10
11.8144
 20
-17.2766
 30
0.0
  0
SPLINE
  5
81
330
1F
100
AcDbEntity
  8
DEFAULT_1
 62
   250
100
AcDbSpline
210
0.0
220
0.0
230
1.0
 70
    24
 71
     3
 72
     8
 73
     4
 74
     0
 42
0.0000000001
 43
0.0000000001
 40
0.0
 40
0.0
 40
0.0
 40
0.0
 40
1.0
 40
1.0
 40
1.0
 40
1.0
 10
-3.6083
 20
-20.8728
 30
0.0
 10
-3.6083
 20
-20.8728
 30
0.0
 10
11.8144
 20
-20.4896
 30
0.0
 10
11.8144
 20
-20.4896
 30
0.0
  0
SPLINE
  5
82
330
1F
100
AcDbEntity
  8
DEFAULT_1
 62
   250
100
AcDbSpline
210
0.0
220
0.0
230
1.0
 70
    24
 71
     3
 72
     8
 73
     4
 74
     0
 42
0.0000000001
 43
0.0000000001
 40
0.0
 40
0.0
 40
0.0
 40
0.0
 40
1.0
 40
1.0
 40
1.0
 40
1.0
 10
-3.6083
 20
-19.728
 30
0.0
 10
-3.6083
 20
-19.728
 30
0.0
 10
11.8144
 20
-19.3448
 30
0.0
 10
11.8144
 20
-19.3448
 30
0.0
  0
SPLINE
  5
83
330
1F
100
AcDbEntity
  8
DEFAULT_1
 62
   250
100
AcDbSpline
210
0.0
220
0.0
230
1.0
 70
    24
 71
     3
 72
     8
 73
     4
 74
     0
 42
0.0000000001
 43
0.0000000001
 40
0.0
 40
0.0
 40
0.0
 40
0.0
 40
1.0
 40
1.0
 40
1.0
 40
1.0
 10
-3.649
 20
-18.7143
 30
0.0
 10
-3.649
 20
-18.7143
 30
0.0
 10
11.7737
 20
-18.3311
 30
0.0
 10
11.7737
 20
-18.3311
 30
0.0
  0
SPLINE
  5
84
330
1F
100
AcDbEntity
  8
DEFAULT_1
 62
   250
100
AcDbSpline
210
0.0
220
0.0
230
1.0
 70
    24
 71
     3
 72
     8
 73
     4
 74
     0
 42
0.0000000001
 43
0.0000000001
 40
0.0
 40
0.0
 40
0.0
 40
0.0
 40
1.0
 40
1.0
 40
1.0
 40
1.0
 10
-3.4511
 20
14.9503
 30
0.0
 10
-3.4511
 20
14.9503
 30
0.0
 10
10.5635
 20
15.5449
 30
0.0
 10
10.5635
 20
15.5449
 30
0.0
  0
SPLINE
  5
85
330
1F
100
AcDbEntity
  8
DEFAULT_1
 62
   250
100
AcDbSpline
210
0.0
220
0.0
230
1.0
 70
    24
 71
     3
 72
     8
 73
     4
 74
     0
 42
0.0000000001
 43
0.0000000001
 40
0.0
 40
0.0
 40
0.0
 40
0.0
 40
1.0
 40
1.0
 40
1.0
 40
1.0
 10
9.0664
 20
7.2661
 30
0.0
 10
9.0664
 20
7.2661
 30
0.0
 10
11.5553
 20
7.3719
 30
0.0
 10
11.5553
 20
7.3719
 30
0.0
  0
SPLINE
  5
86
330
1F
100
AcDbEntity
  8
DEFAULT_1
 62
   250
100
AcDbSpline
210
0.0
220
0.0
230
1.0
 70
    24
 71
     3
 72
     8
 73
     4
 74
     0
 42
0.0000000001
 43
0.0000000001
 40
0.0
 40
0.0
 40
0.0
 40
0.0
 40
1.0
 40
1.0
 40
1.0
 40
1.0
 10
-3.5246
 20
6.7322
 30
0.0
 10
-3.5246
 20
6.7322
 30
0.0
 10
-0.8614
 20
6.846
 30
0.0
 10
-0.8614
 20
6.846
 30
0.0
  0
SPLINE
  5
87
330
1F
100
AcDbEntity
  8
DEFAULT_1
 62
   250
100
AcDbSpline
210
0.0
220
0.0
230
1.0
 70
    24
 71
     3
 72
     8
 73
     4
 74
     0
 42
0.0000000001
 43
0.0000000001
 40
0.0
 40
0.0
 40
0.0
 40
0.0
 40
1.0
 40
1.0
 40
1.0
 40
1.0
 10
-3.4566
 20
7.8936
 30
0.0
 10
-3.4566
 20
7.8936
 30
0.0
 10
-0.9522
 20
7.9996
 30
0.0
 10
-0.9522
 20
7.9996
 30
0.0
  0
SPLINE
  5
88
330
1F
100
AcDbEntity
  8
DEFAULT_1
 62
   250
100
AcDbSpline
210
0.0
220
0.0
230
1.0
 70
    24
 71
     3
 72
     8
 73
     4
 74
     0
 42
0.0000000001
 43
0.0000000001
 40
0.0
 40
0.0
 40
0.0
 40
0.0
 40
1.0
 40
1.0
 40
1.0
 40
1.0
 10
9.0922
 20
8.4265
 30
0.0
 10
9.0922
 20
8.4265
 30
0.0
 10
11.521
 20
8.529
 30
0.0
 10
11.521
 20
8.529
 30
0.0
  0
SPLINE
  5
89
330
1F
100
AcDbEntity
  8
DEFAULT_1
 62
   250
100
AcDbSpline
210
0.0
220
0.0
230
1.0
 70
    24
 71
     3
 72
     8
 73
     4
 74
     0
 42
0.0000000001
 43
0.0000000001
 40
0.0
 40
0.0
 40
0.0
 40
0.0
 40
1.0
 40
1.0
 40
1.0
 40
1.0
 10
9.1188
 20
9.5337
 30
0.0
 10
9.1188
 20
9.5337
 30
0.0
 10
11.5277
 20
9.6369
 30
0.0
 10
11.5277
 20
9.6369
 30
0.0
  0
SPLINE
  5
8A
330
1F
100
AcDbEntity
  8
DEFAULT_1
 62
   250
100
AcDbSpline
210
0.0
220
0.0
230
1.0
 70
    24
 71
     3
 72
     8
 73
     4
 74
     0
 42
0.0000000001
 43
0.0000000001
 40
0.0
 40
0.0
 40
0.0
 40
0.0
 40
1.0
 40
1.0
 40
1.0
 40
1.0
 10
-3.4977
 20
8.9995
 30
0.0
 10
-3.4977
 20
8.9995
 30
0.0
 10
-0.9146
 20
9.1092
 30
0.0
 10
-0.9146
 20
9.1092
 30
0.0
  0
SPLINE
  5
8B
330
1F
100
AcDbEntity
  8
DEFAULT_1
 62
   250
100
AcDbSpline
210
0.0
220
0.0
230
1.0
 70
    24
 71
     3
 72
     8
 73
     4
 74
     0
 42
0.0000000001
 43
0.0000000001
 40
0.0
 40
0.0
 40
0.0
 40
0.0
 40
1.0
 40
1.0
 40
1.0
 40
1.0
 10
-3.5198
 20
10.0961
 30
0.0
 10
-3.5198
 20
10.0961
 30
0.0
 10
11.6178
 20
10.7383
 30
0.0
 10
11.6178
 20
10.7383
 30
0.0
  0
SPLINE
  5
8C
330
1F
100
AcDbEntity
  8
DEFAULT_1
 62
   250
100
AcDbSpline
210
0.0
220
0.0
230
1.0
 70
    24
 71
     3
 72
     8
 73
     4
 74
     0
 42
0.0000000001
 43
0.0000000001
 40
0.0
 40
0.0
 40
0.0
 40
0.0
 40
1.0
 40
1.0
 40
1.0
 40
1.0
 10
-3.5578
 20
11.0814
 30
0.0
 10
-3.5578
 20
11.0814
 30
0.0
 10
11.5798
 20
11.7236
 30
0.0
 10
11.5798
 20
11.7236
 30
0.0
  0
SPLINE
  5
8D
330
1F
100
AcDbEntity
  8
DEFAULT_1
 62
   250
100
AcDbSpline
210
0.0
220
0.0
230
1.0
 70
    24
 71
     3
 72
     8
 73
     4
 74
     0
 42
0.0000000001
 43
0.0000000001
 40
0.0
 40
0.0
 40
0.0
 40
0.0
 40
1.0
 40
1.0
 40
1.0
 40
1.0
 10
-3.5578
 20
12.9817
 30
0.0
 10
-3.5578
 20
12.9817
 30
0.0
 10
11.5798
 20
13.6236
 30
0.0
 10
11.5798
 20
13.6236
 30
0.0
  0
SPLINE
  5
8E
330
1F
100
AcDbEntity
  8
DEFAULT_1
 62
   250
100
AcDbSpline
210
0.0
220
0.0
230
1.0
 70
    24
 71
     3
 72
     8
 73
     4
 74
     0
 42
0.0000000001
 43
0.0000000001
 40
0.0
 40
0.0
 40
0.0
 40
0.0
 40
1.0
 40
1.0
 40
1.0
 40
1.0
 10
-3.3378
 20
14.0615
 30
0.0
 10
-3.3378
 20
14.0615
 30
0.0
 10
11.6194
 20
14.6961
 30
0.0
 10
11.6194
 20
14.6961
 30
0.0
  0
SPLINE
  5
8F
330
1F
100
AcDbEntity
  8
DEFAULT_1
 62
   250
100
AcDbSpline
210
0.0
220
0.0
230
1.0
 70
    24
 71
     3
 72
     8
 73
     4
 74
     0
 42
0.0000000001
 43
0.0000000001
 40
0.0
 40
0.0
 40
0.0
 40
0.0
 40
1.0
 40
1.0
 40
1.0
 40
1.0
 10
9.1577
 20
6.3885
 30
0.0
 10
9.1577
 20
6.3885
 30
0.0
 10
11.6477
 20
6.4941
 30
0.0
 10
11.6477
 20
6.4941
 30
0.0
  0
SPLINE
  5
90
330
1F
100
AcDbEntity
  8
DEFAULT_1
 62
   250
100
AcDbSpline
210
0.0
220
0.0
230
1.0
 70
     8
 71
     3
 72
    40
 73
    36
 74
     0
 42
0.0000000001
 43
0.0000000001
 40
0.0
 40
0.0
 40
0.0
 40
0.0
 40
0.1
 40
0.1
 40
0.1
 40
0.1
 40
0.2
 40
0.2
 40
0.2
 40
0.2
 40
0.3
 40
0.3
 40
0.3
 40
0.3
 40
0.4
 40
0.4
 40
0.4
 40
0.4
 40
0.5
 40
0.5
 40
0.5
 40
0.5
 40
0.6
 40
0.6
 40
0.6
 40
0.6
 40
0.7
 40
0.7
 40
0.7
 40
0.7
 40
0.8
 40
0.8
 40
0.8
 40
0.8
 40
1.0
 40
1.0
 40
1.0
 40
1.0
 10
-4.4709
 20
1.0238
 30
0.0
 10
-4.4709
 20
1.0238
 30
0.0
 10
-4.4471
 20
-16.8186
 30
0.0
 10
-4.4471
 20
-16.8186
 30
0.0
 10
-4.4471
 20
-16.8186
 30
0.0
 10
-4.4471
 20
-16.8186
 30
0.0
 10
-3.6835
 20
-17.217
 30
0.0
 10
-3.6835
 20
-17.217
 30
0.0
 10
-3.6835
 20
-17.217
 30
0.0
 10
-3.6835
 20
-17.217
 30
0.0
 10
-3.6835
 20
-20.9022
 30
0.0
 10
-3.6835
 20
-20.9022
 30
0.0
 10
-3.6835
 20
-20.9022
 30
0.0
 10
-3.6835
 20
-20.9022
 30
0.0
 10
-3.3277
 20
-21.3246
 30
0.0
 10
-3.3277
 20
-21.3246
 30
0.0
 10
-3.3277
 20
-21.3246
 30
0.0
 10
-3.3277
 20
-21.3246
 30
0.0
 10
11.4633
 20
-21.3246
 30
0.0
 10
11.4633
 20
-21.3246
 30
0.0
 10
11.4633
 20
-21.3246
 30
0.0
 10
11.4633
 20
-21.3246
 30
0.0
 10
11.8954
 20
-21.0073
 30
0.0
 10
11.8954
 20
-21.0073
 30
0.0
 10
11.8954
 20
-21.0073
 30
0.0
 10
11.8954
 20
-21.0073
 30
0.0
 10
11.8954
 20
-17.2036
 30
0.0
 10
11.8954
 20
-17.2036
 30
0.0
 10
11.8954
 20
-17.2036
 30
0.0
 10
11.8954
 20
-17.2036
 30
0.0
 10
12.7134
 20
-16.8764
 30
0.0
 10
12.7134
 20
-16.8764
 30
0.0
 10
12.7134
 20
-16.8764
 30
0.0
 10
12.7134
 20
-16.8764
 30
0.0
 10
12.6316
 20
1.0787
 30
0.0
 10
12.6316
 20
1.0787
 30
0.0
  0
SPLINE
  5
91
330
1F
100
AcDbEntity
  8
DEFAULT_1
 62
   250
100
AcDbSpline
210
0.0
220
0.0
230
1.0
 70
    11
 71
     3
 72
   128
 73
   124
 74
     0
 42
0.0000000001
 43
0.0000000001
 40
0.0
 40
0.0
 40
0.0
 40
0.0
 40
0.03125
 40
0.03125
 40
0.03125
 40
0.03125
 40
0.0625
 40
0.0625
 40
0.0625
 40
0.0625
 40
0.09375
 40
0.09375
 40
0.09375
 40
0.09375
 40
0.125
 40
0.125
 40
0.125
 40
0.125
 40
0.15625
 40
0.15625
 40
0.15625
 40
0.15625
 40
0.1875
 40
0.1875
 40
0.1875
 40
0.1875
 40
0.21875
 40
0.21875
 40
0.21875
 40
0.21875
 40
0.25
 40
0.25
 40
0.25
 40
0.25
 40
0.28125
 40
0.28125
 40
0.28125
 40
0.28125
 40
0.3125
 40
0.3125
 40
0.3125
 40
0.3125
 40
0.34375
 40
0.34375
 40
0.34375
 40
0.34375
 40
0.375
 40
0.375
 40
0.375
 40
0.375
 40
0.40625
 40
0.40625
 40
0.40625
 40
0.40625
 40
0.4375
 40
0.4375
 40
0.4375
 40
0.4375
 40
0.46875
 40
0.46875
 40
0.46875
 40
0.46875
 40
0.5
 40
0.5
 40
0.5
 40
0.5
 40
0.53125
 40
0.53125
 40
0.53125
 40
0.53125
 40
0.5625
 40
0.5625
 40
0.5625
 40
0.5625
 40
0.59375
 40
0.59375
 40
0.59375
 40
0.59375
 40
0.625
 40
0.625
 40
0.625
 40
0.625
 40
0.65625
 40
0.65625
 40
0.65625
 40
0.65625
 40
0.6875
 40
0.6875
 40
0.6875
 40
0.6875
 40
0.71875
 40
0.71875
 40
0.71875
 40
0.71875
 40
0.75
 40
0.75
 40
0.75
 40
0.75
 40
0.78125
 40
0.78125
 40
0.78125
 40
0.78125
 40
0.8125
 40
0.8125
 40
0.8125
 40
0.8125
 40
0.84375
 40
0.84375
 40
0.84375
 40
0.84375
 40
0.875
 40
0.875
 40
0.875
 40
0.875
 40
0.90625
 40
0.90625
 40
0.90625
 40
0.90625
 40
0.9375
 40
0.9375
 40
0.9375
 40
0.9375
 40
1.0
 40
1.0
 40
1.0
 40
1.0
 10
-1.4063
 20
3.5459
 30
0.0
 10
-1.4063
 20
3.5459
 30
0.0
 10
-1.9551
 20
3.4409
 30
0.0
 10
-1.9551
 20
3.4409
 30
0.0
 10
-1.9551
 20
3.4409
 30
0.0
 10
-1.9551
 20
3.4409
 30
0.0
 10
-2.5008
 20
3.3687
 30
0.0
 10
-2.5008
 20
3.3687
 30
0.0
 10
-2.5008
 20
3.3687
 30
0.0
 10
-2.5008
 20
3.3687
 30
0.0
 10
-3.048
 20
3.3317
 30
0.0
 10
-3.048
 20
3.3317
 30
0.0
 10
-3.048
 20
3.3317
 30
0.0
 10
-3.048
 20
3.3317
 30
0.0
 10
-3.5964
 20
3.3317
 30
0.0
 10
-3.5964
 20
3.3317
 30
0.0
 10
-3.5964
 20
3.3317
 30
0.0
 10
-3.5964
 20
3.3317
 30
0.0
 10
-4.1436
 20
3.3687
 30
0.0
 10
-4.1436
 20
3.3687
 30
0.0
 10
-4.1436
 20
3.3687
 30
0.0
 10
-4.1436
 20
3.3687
 30
0.0
 10
-4.6893
 20
3.4409
 30
0.0
 10
-4.6893
 20
3.4409
 30
0.0
 10
-4.6893
 20
3.4409
 30
0.0
 10
-4.6893
 20
3.4409
 30
0.0
 10
-5.2381
 20
3.5459
 30
0.0
 10
-5.2381
 20
3.5459
 30
0.0
 10
-5.2381
 20
3.5459
 30
0.0
 10
-5.2381
 20
3.5459
 30
0.0
 10
-7.0227
 20
3.97
 30
0.0
 10
-7.0227
 20
3.97
 30
0.0
 10
-7.0227
 20
3.97
 30
0.0
 10
-7.0227
 20
3.97
 30
0.0
 10
-7.1824
 20
4.1034
 30
0.0
 10
-7.1824
 20
4.1034
 30
0.0
 10
-7.1824
 20
4.1034
 30
0.0
 10
-7.1824
 20
4.1034
 30
0.0
 10
-7.2623
 20
4.3702
 30
0.0
 10
-7.2623
 20
4.3702
 30
0.0
 10
-7.2623
 20
4.3702
 30
0.0
 10
-7.2623
 20
4.3702
 30
0.0
 10
-7.289
 20
4.557
 30
0.0
 10
-7.289
 20
4.557
 30
0.0
 10
-7.289
 20
4.557
 30
0.0
 10
-7.289
 20
4.557
 30
0.0
 10
-7.1558
 20
4.7437
 30
0.0
 10
-7.1558
 20
4.7437
 30
0.0
 10
-7.1558
 20
4.7437
 30
0.0
 10
-7.1558
 20
4.7437
 30
0.0
 10
-6.9428
 20
4.8771
 30
0.0
 10
-6.9428
 20
4.8771
 30
0.0
 10
-6.9428
 20
4.8771
 30
0.0
 10
-6.9428
 20
4.8771
 30
0.0
 10
15.1845
 20
4.8504
 30
0.0
 10
15.1845
 20
4.8504
 30
0.0
 10
15.1845
 20
4.8504
 30
0.0
 10
15.1845
 20
4.8504
 30
0.0
 10
15.3975
 20
4.717
 30
0.0
 10
15.3975
 20
4.717
 30
0.0
 10
15.3975
 20
4.717
 30
0.0
 10
15.3975
 20
4.717
 30
0.0
 10
15.4508
 20
4.4502
 30
0.0
 10
15.4508
 20
4.4502
 30
0.0
 10
15.4508
 20
4.4502
 30
0.0
 10
15.4508
 20
4.4502
 30
0.0
 10
15.3443
 20
4.1034
 30
0.0
 10
15.3443
 20
4.1034
 30
0.0
 10
15.3443
 20
4.1034
 30
0.0
 10
15.3443
 20
4.1034
 30
0.0
 10
15.0247
 20
3.9433
 30
0.0
 10
15.0247
 20
3.9433
 30
0.0
 10
15.0247
 20
3.9433
 30
0.0
 10
15.0247
 20
3.9433
 30
0.0
 10
12.3087
 20
3.3563
 30
0.0
 10
12.3087
 20
3.3563
 30
0.0
 10
12.3087
 20
3.3563
 30
0.0
 10
12.3087
 20
3.3563
 30
0.0
 10
11.6697
 20
3.2762
 30
0.0
 10
11.6697
 20
3.2762
 30
0.0
 10
11.6697
 20
3.2762
 30
0.0
 10
11.6697
 20
3.2762
 30
0.0
 10
10.7644
 20
3.3029
 30
0.0
 10
10.7644
 20
3.3029
 30
0.0
 10
10.7644
 20
3.3029
 30
0.0
 10
10.7644
 20
3.3029
 30
0.0
 10
9.7791
 20
3.5164
 30
0.0
 10
9.7791
 20
3.5164
 30
0.0
 10
9.7791
 20
3.5164
 30
0.0
 10
9.7791
 20
3.5164
 30
0.0
 10
9.1135
 20
3.5964
 30
0.0
 10
9.1135
 20
3.5964
 30
0.0
 10
9.1135
 20
3.5964
 30
0.0
 10
9.1135
 20
3.5964
 30
0.0
 10
8.288
 20
3.6231
 30
0.0
 10
8.288
 20
3.6231
 30
0.0
 10
8.288
 20
3.6231
 30
0.0
 10
8.288
 20
3.6231
 30
0.0
 10
7.3294
 20
3.5164
 30
0.0
 10
7.3294
 20
3.5164
 30
0.0
 10
7.3294
 20
3.5164
 30
0.0
 10
7.3294
 20
3.5164
 30
0.0
 10
5.2525
 20
3.3296
 30
0.0
 10
5.2525
 20
3.3296
 30
0.0
 10
5.2525
 20
3.3296
 30
0.0
 10
5.2525
 20
3.3296
 30
0.0
 10
3.7081
 20
3.3029
 30
0.0
 10
3.7081
 20
3.3029
 30
0.0
 10
3.7081
 20
3.3029
 30
0.0
 10
3.7081
 20
3.3029
 30
0.0
 10
1.3915
 20
3.4363
 30
0.0
 10
1.3915
 20
3.4363
 30
0.0
 10
1.3915
 20
3.4363
 30
0.0
 10
1.3915
 20
3.4363
 30
0.0
 10
0.1134
 20
3.6231
 30
0.0
 10
0.1134
 20
3.6231
 30
0.0
 10
0.1134
 20
3.6231
 30
0.0
 10
0.1134
 20
3.6231
 30
0.0
 10
-0.8984
 20
3.6498
 30
0.0
 10
-0.8984
 20
3.6498
 30
0.0
 10
-0.8984
 20
3.6498
 30
0.0
 10
-0.8984
 20
3.6498
 30
0.0
 10
-1.4063
 20
3.5459
 30
0.0
 10
-1.4063
 20
3.5459
 30
0.0
  0
SPLINE
  5
92
330
1F
100
AcDbEntity
  8
DEFAULT_1
 62
   250
100
AcDbSpline
210
0.0
220
0.0
230
1.0
 70
     8
 71
     3
 72
    32
 73
    28
 74
     0
 42
0.0000000001
 43
0.0000000001
 40
0.0
 40
0.0
 40
0.0
 40
0.0
 40
0.125
 40
0.125
 40
0.125
 40
0.125
 40
0.25
 40
0.25
 40
0.25
 40
0.25
 40
0.375
 40
0.375
 40
0.375
 40
0.375
 40
0.5
 40
0.5
 40
0.5
 40
0.5
 40
0.625
 40
0.625
 40
0.625
 40
0.625
 40
0.75
 40
0.75
 40
0.75
 40
0.75
 40
1.0
 40
1.0
 40
1.0
 40
1.0
 10
-5.4763
 20
3.5662
 30
0.0
 10
-5.4763
 20
3.5662
 30
0.0
 10
-5.4921
 20
1.0515
 30
0.0
 10
-5.4921
 20
1.0515
 30
0.0
 10
-5.4921
 20
1.0515
 30
0.0
 10
-5.4921
 20
1.0515
 30
0.0
 10
-1.4063
 20
1.0515
 30
0.0
 10
-1.4063
 20
1.0515
 30
0.0
 10
-1.4063
 20
1.0515
 30
0.0
 10
-1.4063
 20
1.0515
 30
0.0
 10
0.2359
 20
1.0515
 30
0.0
 10
0.2359
 20
1.0515
 30
0.0
 10
0.2359
 20
1.0515
 30
0.0
 10
0.2359
 20
1.0515
 30
0.0
 10
7.8996
 20
1.0515
 30
0.0
 10
7.8996
 20
1.0515
 30
0.0
 10
7.8996
 20
1.0515
 30
0.0
 10
7.8996
 20
1.0515
 30
0.0
 10
9.5419
 20
1.0515
 30
0.0
 10
9.5419
 20
1.0515
 30
0.0
 10
9.5419
 20
1.0515
 30
0.0
 10
9.5419
 20
1.0515
 30
0.0
 10
13.6277
 20
1.0515
 30
0.0
 10
13.6277
 20
1.0515
 30
0.0
 10
13.6277
 20
1.0515
 30
0.0
 10
13.6277
 20
1.0515
 30
0.0
 10
13.6137
 20
3.5662
 30
0.0
 10
13.6137
 20
3.5662
 30
0.0
  0
SPLINE
  5
93
330
1F
100
AcDbEntity
  8
DEFAULT_1
 62
   250
100
AcDbSpline
210
0.0
220
0.0
230
1.0
 70
    27
 71
     3
 72
    12
 73
     8
 74
     0
 42
0.0000000001
 43
0.0000000001
 40
0.0
 40
0.0
 40
0.0
 40
0.0
 40
0.3333333333333333
 40
0.3333333333333333
 40
0.3333333333333333
 40
0.3333333333333333
 40
1.0
 40
1.0
 40
1.0
 40
1.0
 10
-3.7069
 20
-17.1528
 30
0.0
 10
-3.7069
 20
-17.1528
 30
0.0
 10
11.8425
 20
-17.1528
 30
0.0
 10
11.8425
 20
-17.1528
 30
0.0
 10
11.8425
 20
-17.1528
 30
0.0
 10
11.8425
 20
-17.1528
 30
0.0
 10
-3.7069
 20
-17.1528
 30
0.0
 10
-3.7069
 20
-17.1528
 30
0.0
  0
SPLINE
  5
94
330
1F
100
AcDbEntity
  8
DEFAULT_1
 62
   250
100
AcDbSpline
210
0.0
220
0.0
230
1.0
 70
    27
 71
     3
 72
    12
 73
     8
 74
     0
 42
0.0000000001
 43
0.0000000001
 40
0.0
 40
0.0
 40
0.0
 40
0.0
 40
0.3333333333333333
 40
0.3333333333333333
 40
0.3333333333333333
 40
0.3333333333333333
 40
1.0
 40
1.0
 40
1.0
 40
1.0
 10
-1.4063
 20
3.5459
 30
0.0
 10
-1.4063
 20
3.5459
 30
0.0
 10
-1.4063
 20
1.0515
 30
0.0
 10
-1.4063
 20
1.0515
 30
0.0
 10
-1.4063
 20
1.0515
 30
0.0
 10
-1.4063
 20
1.0515
 30
0.0
 10
-1.4063
 20
3.5459
 30
0.0
 10
-1.4063
 20
3.5459
 30
0.0
  0
SPLINE
  5
95
330
1F
100
AcDbEntity
  8
DEFAULT_1
 62
   250
100
AcDbSpline
210
0.0
220
0.0
230
1.0
 70
    27
 71
     3
 72
    20
 73
    16
 74
     0
 42
0.0000000001
 43
0.0000000001
 40
0.0
 40
0.0
 40
0.0
 40
0.0
 40
0.2
 40
0.2
 40
0.2
 40
0.2
 40
0.4
 40
0.4
 40
0.4
 40
0.4
 40
0.6
 40
0.6
 40
0.6
 40
0.6
 40
1.0
 40
1.0
 40
1.0
 40
1.0
 10
7.8996
 20
3.5459
 30
0.0
 10
7.8996
 20
3.5459
 30
0.0
 10
7.8996
 20
1.0634
 30
0.0
 10
7.8996
 20
1.0634
 30
0.0
 10
7.8996
 20
1.0634
 30
0.0
 10
7.8996
 20
1.0634
 30
0.0
 10
7.8996
 20
1.0515
 30
0.0
 10
7.8996
 20
1.0515
 30
0.0
 10
7.8996
 20
1.0515
 30
0.0
 10
7.8996
 20
1.0515
 30
0.0
 10
7.8996
 20
1.0634
 30
0.0
 10
7.8996
 20
1.0634
 30
0.0
 10
7.8996
 20
1.0634
 30
0.0
 10
7.8996
 20
1.0634
 30
0.0
 10
7.8996
 20
3.5459
 30
0.0
 10
7.8996
 20
3.5459
 30
0.0
  0
SPLINE
  5
96
330
1F
100
AcDbEntity
  8
DEFAULT_1
 62
   250
100
AcDbSpline
210
0.0
220
0.0
230
1.0
 70
    27
 71
     3
 72
    12
 73
     8
 74
     0
 42
0.0000000001
 43
0.0000000001
 40
0.0
 40
0.0
 40
0.0
 40
0.0
 40
0.3333333333333333
 40
0.3333333333333333
 40
0.3333333333333333
 40
0.3333333333333333
 40
1.0
 40
1.0
 40
1.0
 40
1.0
 10
0.2359
 20
3.5459
 30
0.0
 10
0.2359
 20
3.5459
 30
0.0
 10
0.2359
 20
1.0515
 30
0.0
 10
0.2359
 20
1.0515
 30
0.0
 10
0.2359
 20
1.0515
 30
0.0
 10
0.2359
 20
1.0515
 30
0.0
 10
0.2359
 20
3.5459
 30
0.0
 10
0.2359
 20
3.5459
 30
0.0
  0
SPLINE
  5
97
330
1F
100
AcDbEntity
  8
DEFAULT_1
 62
   250
100
AcDbSpline
210
0.0
220
0.0
230
1.0
 70
    27
 71
     3
 72
    20
 73
    16
 74
     0
 42
0.0000000001
 43
0.0000000001
 40
0.0
 40
0.0
 40
0.0
 40
0.0
 40
0.2
 40
0.2
 40
0.2
 40
0.2
 40
0.4
 40
0.4
 40
0.4
 40
0.4
 40
0.6
 40
0.6
 40
0.6
 40
0.6
 40
1.0
 40
1.0
 40
1.0
 40
1.0
 10
9.5419
 20
3.5459
 30
0.0
 10
9.5419
 20
3.5459
 30
0.0
 10
9.5419
 20
1.0687
 30
0.0
 10
9.5419
 20
1.0687
 30
0.0
 10
9.5419
 20
1.0687
 30
0.0
 10
9.5419
 20
1.0687
 30
0.0
 10
9.5419
 20
1.0515
 30
0.0
 10
9.5419
 20
1.0515
 30
0.0
 10
9.5419
 20
1.0515
 30
0.0
 10
9.5419
 20
1.0515
 30
0.0
 10
9.5419
 20
1.0687
 30
0.0
 10
9.5419
 20
1.0687
 30
0.0
 10
9.5419
 20
1.0687
 30
0.0
 10
9.5419
 20
1.0687
 30
0.0
 10
9.5419
 20
3.5459
 30
0.0
 10
9.5419
 20
3.5459
 30
0.0
  0
SPLINE
  5
98
330
1F
100
AcDbEntity
  8
DEFAULT_1
 62
   250
100
AcDbSpline
210
0.0
220
0.0
230
1.0
 70
    11
 71
     3
 72
    20
 73
    16
 74
     0
 42
0.0000000001
 43
0.0000000001
 40
0.0
 40
0.0
 40
0.0
 40
0.0
 40
0.2
 40
0.2
 40
0.2
 40
0.2
 40
0.4
 40
0.4
 40
0.4
 40
0.4
 40
0.6
 40
0.6
 40
0.6
 40
0.6
 40
1.0
 40
1.0
 40
1.0
 40
1.0
 10
-7.2691
 20
6.1438
 30
0.0
 10
-7.2691
 20
6.1438
 30
0.0
 10
15.4397
 20
6.1438
 30
0.0
 10
15.4397
 20
6.1438
 30
0.0
 10
15.4397
 20
6.1438
 30
0.0
 10
15.4397
 20
6.1438
 30
0.0
 10
15.4397
 20
5.4586
 30
0.0
 10
15.4397
 20
5.4586
 30
0.0
 10
15.4397
 20
5.4586
 30
0.0
 10
15.4397
 20
5.4586
 30
0.0
 10
-7.2691
 20
5.4586
 30
0.0
 10
-7.2691
 20
5.4586
 30
0.0
 10
-7.2691
 20
5.4586
 30
0.0
 10
-7.2691
 20
5.4586
 30
0.0
 10
-7.2691
 20
6.1438
 30
0.0
 10
-7.2691
 20
6.1438
 30
0.0
  0
SPLINE
  5
99
330
1F
100
AcDbEntity
  8
DEFAULT_1
 62
   250
100
AcDbSpline
210
0.0
220
0.0
230
1.0
 70
    11
 71
     3
 72
    20
 73
    16
 74
     0
 42
0.0000000001
 43
0.0000000001
 40
0.0
 40
0.0
 40
0.0
 40
0.0
 40
0.2
 40
0.2
 40
0.2
 40
0.2
 40
0.4
 40
0.4
 40
0.4
 40
0.4
 40
0.6
 40
0.6
 40
0.6
 40
0.6
 40
1.0
 40
1.0
 40
1.0
 40
1.0
 10
-7.2986
 20
12.5158
 30
0.0
 10
-7.2986
 20
12.5158
 30
0.0
 10
15.4102
 20
12.5158
 30
0.0
 10
15.4102
 20
12.5158
 30
0.0
 10
15.4102
 20
12.5158
 30
0.0
 10
15.4102
 20
12.5158
 30
0.0
 10
15.4102
 20
11.8306
 30
0.0
 10
15.4102
 20
11.8306
 30
0.0
 10
15.4102
 20
11.8306
 30
0.0
 10
15.4102
 20
11.8306
 30
0.0
 10
-7.2986
 20
11.8306
 30
0.0
 10
-7.2986
 20
11.8306
 30
0.0
 10
-7.2986
 20
11.8306
 30
0.0
 10
-7.2986
 20
11.8306
 30
0.0
 10
-7.2986
 20
12.5158
 30
0.0
 10
-7.2986
 20
12.5158
 30
0.0
  0
SPLINE
  5
9A
330
1F
100
AcDbEntity
  8
DEFAULT_1
 62
   250
100
AcDbSpline
210
0.0
220
0.0
230
1.0
 70
     8
 71
     3
 72
    32
 73
    28
 74
     0
 42
0.0000000001
 43
0.0000000001
 40
0.0
 40
0.0
 40
0.0
 40
0.0
 40
0.125
 40
0.125
 40
0.125
 40
0.125
 40
0.25
 40
0.25
 40
0.25
 40
0.25
 40
0.375
 40
0.375
 40
0.375
 40
0.375
 40
0.5
 40
0.5
 40
0.5
 40
0.5
 40
0.625
 40
0.625
 40
0.625
 40
0.625
 40
0.75
 40
0.75
 40
0.75
 40
0.75
 40
1.0
 40
1.0
 40
1.0
 40
1.0
 10
-0.9081
 20
6.2064
 30
0.0
 10
-0.9081
 20
6.2064
 30
0.0
 10
-0.9081
 20
9.9664
 30
0.0
 10
-0.9081
 20
9.9664
 30
0.0
 10
-0.9081
 20
9.9664
 30
0.0
 10
-0.9081
 20
9.9664
 30
0.0
 10
-0.0055
 20
9.9661
 30
0.0
 10
-0.0055
 20
9.9661
 30
0.0
 10
-0.0055
 20
9.9661
 30
0.0
 10
-0.0055
 20
9.9661
 30
0.0
 10
2.5619
 20
9.9654
 30
0.0
 10
2.5619
 20
9.9654
 30
0.0
 10
2.5619
 20
9.9654
 30
0.0
 10
2.5619
 20
9.9654
 30
0.0
 10
5.5699
 20
9.9645
 30
0.0
 10
5.5699
 20
9.9645
 30
0.0
 10
5.5699
 20
9.9645
 30
0.0
 10
5.5699
 20
9.9645
 30
0.0
 10
8.1373
 20
9.9638
 30
0.0
 10
8.1373
 20
9.9638
 30
0.0
 10
8.1373
 20
9.9638
 30
0.0
 10
8.1373
 20
9.9638
 30
0.0
 10
9.0868
 20
9.9635
 30
0.0
 10
9.0868
 20
9.9635
 30
0.0
 10
9.0868
 20
9.9635
 30
0.0
 10
9.0868
 20
9.9635
 30
0.0
 10
9.0868
 20
6.1438
 30
0.0
 10
9.0868
 20
6.1438
 30
0.0
  0
SPLINE
  5
9B
330
1F
100
AcDbEntity
  8
DEFAULT_1
 62
   250
100
AcDbSpline
210
0.0
220
0.0
230
1.0
 70
    11
 71
     3
 72
    36
 73
    32
 74
     0
 42
0.0000000001
 43
0.0000000001
 40
0.0
 40
0.0
 40
0.0
 40
0.0
 40
0.1111111111111111
 40
0.1111111111111111
 40
0.1111111111111111
 40
0.1111111111111111
 40
0.2222222222222222
 40
0.2222222222222222
 40
0.2222222222222222
 40
0.2222222222222222
 40
0.3333333333333333
 40
0.3333333333333333
 40
0.3333333333333333
 40
0.3333333333333333
 40
0.4444444444444444
 40
0.4444444444444444
 40
0.4444444444444444
 40
0.4444444444444444
 40
0.5555555555555556
 40
0.5555555555555556
 40
0.5555555555555556
 40
0.5555555555555556
 40
0.6666666666666666
 40
0.6666666666666666
 40
0.6666666666666666
 40
0.6666666666666666
 40
0.7777777777777778
 40
0.7777777777777778
 40
0.7777777777777778
 40
0.7777777777777778
 40
1.0
 40
1.0
 40
1.0
 40
1.0
 10
15.722
 20
16.7345
 30
0.0
 10
15.722
 20
16.7345
 30
0.0
 10
-7.5902
 20
16.7345
 30
0.0
 10
-7.5902
 20
16.7345
 30
0.0
 10
-7.5902
 20
16.7345
 30
0.0
 10
-7.5902
 20
16.7345
 30
0.0
 10
-7.5819
 20
16.4571
 30
0.0
 10
-7.5819
 20
16.4571
 30
0.0
 10
-7.5819
 20
16.4571
 30
0.0
 10
-7.5819
 20
16.4571
 30
0.0
 10
-6.9694
 20
15.8167
 30
0.0
 10
-6.9694
 20
15.8167
 30
0.0
 10
-6.9694
 20
15.8167
 30
0.0
 10
-6.9694
 20
15.8167
 30
0.0
 10
-3.3747
 20
15.5499
 30
0.0
 10
-3.3747
 20
15.5499
 30
0.0
 10
-3.3747
 20
15.5499
 30
0.0
 10
-3.3747
 20
15.5499
 30
0.0
 10
11.5632
 20
15.5499
 30
0.0
 10
11.5632
 20
15.5499
 30
0.0
 10
11.5632
 20
15.5499
 30
0.0
 10
11.5632
 20
15.5499
 30
0.0
 10
15.1312
 20
15.8434
 30
0.0
 10
15.1312
 20
15.8434
 30
0.0
 10
15.1312
 20
15.8434
 30
0.0
 10
15.1312
 20
15.8434
 30
0.0
 10
15.717
 20
16.4037
 30
0.0
 10
15.717
 20
16.4037
 30
0.0
 10
15.717
 20
16.4037
 30
0.0
 10
15.717
 20
16.4037
 30
0.0
 10
15.722
 20
16.7345
 30
0.0
 10
15.722
 20
16.7345
 30
0.0
  0
SPLINE
  5
9C
330
1F
100
AcDbEntity
  8
DEFAULT_1
 62
   250
100
AcDbSpline
210
0.0
220
0.0
230
1.0
 70
    27
 71
     3
 72
    12
 73
     8
 74
     0
 42
0.0000000001
 43
0.0000000001
 40
0.0
 40
0.0
 40
0.0
 40
0.0
 40
0.3333333333333333
 40
0.3333333333333333
 40
0.3333333333333333
 40
0.3333333333333333
 40
1.0
 40
1.0
 40
1.0
 40
1.0
 10
-3.4542
 20
5.5296
 30
0.0
 10
-3.4542
 20
5.5296
 30
0.0
 10
-3.4542
 20
4.7776
 30
0.0
 10
-3.4542
 20
4.7776
 30
0.0
 10
-3.4542
 20
4.7776
 30
0.0
 10
-3.4542
 20
4.7776
 30
0.0
 10
-3.4542
 20
5.5296
 30
0.0
 10
-3.4542
 20
5.5296
 30
0.0
  0
SPLINE
  5
9D
330
1F
100
AcDbEntity
  8
DEFAULT_1
 62
   250
100
AcDbSpline
210
0.0
220
0.0
230
1.0
 70
    27
 71
     3
 72
    16
 73
    12
 74
     0
 42
0.0000000001
 43
0.0000000001
 40
0.0
 40
0.0
 40
0.0
 40
0.0
 40
0.25
 40
0.25
 40
0.25
 40
0.25
 40
0.5
 40
0.5
 40
0.5
 40
0.5
 40
1.0
 40
1.0
 40
1.0
 40
1.0
 10
8.1373
 20
9.9664
 30
0.0
 10
8.1373
 20
9.9664
 30
0.0
 10
8.1373
 20
9.9638
 30
0.0
 10
8.1373
 20
9.9638
 30
0.0
 10
8.1373
 20
9.9638
 30
0.0
 10
8.1373
 20
9.9638
 30
0.0
 10
8.1373
 20
6.2064
 30
0.0
 10
8.1373
 20
6.2064
 30
0.0
 10
8.1373
 20
6.2064
 30
0.0
 10
8.1373
 20
6.2064
 30
0.0
 10
8.1373
 20
9.9664
 30
0.0
 10
8.1373
 20
9.9664
 30
0.0
  0
SPLINE
  5
9E
330
1F
100
AcDbEntity
  8
DEFAULT_1
 62
   250
100
AcDbSpline
210
0.0
220
0.0
230
1.0
 70
    27
 71
     3
 72
    20
 73
    16
 74
     0
 42
0.0000000001
 43
0.0000000001
 40
0.0
 40
0.0
 40
0.0
 40
0.0
 40
0.2
 40
0.2
 40
0.2
 40
0.2
 40
0.4
 40
0.4
 40
0.4
 40
0.4
 40
0.6
 40
0.6
 40
0.6
 40
0.6
 40
1.0
 40
1.0
 40
1.0
 40
1.0
 10
5.5699
 20
9.9664
 30
0.0
 10
5.5699
 20
9.9664
 30
0.0
 10
5.5699
 20
9.9645
 30
0.0
 10
5.5699
 20
9.9645
 30
0.0
 10
5.5699
 20
9.9645
 30
0.0
 10
5.5699
 20
9.9645
 30
0.0
 10
5.5699
 20
6.2064
 30
0.0
 10
5.5699
 20
6.2064
 30
0.0
 10
5.5699
 20
6.2064
 30
0.0
 10
5.5699
 20
6.2064
 30
0.0
 10
5.5699
 20
9.9645
 30
0.0
 10
5.5699
 20
9.9645
 30
0.0
 10
5.5699
 20
9.9645
 30
0.0
 10
5.5699
 20
9.9645
 30
0.0
 10
5.5699
 20
9.9664
 30
0.0
 10
5.5699
 20
9.9664
 30
0.0
  0
SPLINE
  5
9F
330
1F
100
AcDbEntity
  8
DEFAULT_1
 62
   250
100
AcDbSpline
210
0.0
220
0.0
230
1.0
 70
    27
 71
     3
 72
    20
 73
    16
 74
     0
 42
0.0000000001
 43
0.0000000001
 40
0.0
 40
0.0
 40
0.0
 40
0.0
 40
0.2
 40
0.2
 40
0.2
 40
0.2
 40
0.4
 40
0.4
 40
0.4
 40
0.4
 40
0.6
 40
0.6
 40
0.6
 40
0.6
 40
1.0
 40
1.0
 40
1.0
 40
1.0
 10
2.5619
 20
9.9664
 30
0.0
 10
2.5619
 20
9.9664
 30
0.0
 10
2.5619
 20
9.9654
 30
0.0
 10
2.5619
 20
9.9654
 30
0.0
 10
2.5619
 20
9.9654
 30
0.0
 10
2.5619
 20
9.9654
 30
0.0
 10
2.5619
 20
6.2064
 30
0.0
 10
2.5619
 20
6.2064
 30
0.0
 10
2.5619
 20
6.2064
 30
0.0
 10
2.5619
 20
6.2064
 30
0.0
 10
2.5619
 20
9.9654
 30
0.0
 10
2.5619
 20
9.9654
 30
0.0
 10
2.5619
 20
9.9654
 30
0.0
 10
2.5619
 20
9.9654
 30
0.0
 10
2.5619
 20
9.9664
 30
0.0
 10
2.5619
 20
9.9664
 30
0.0
  0
SPLINE
  5
A0
330
1F
100
AcDbEntity
  8
DEFAULT_1
 62
   250
100
AcDbSpline
210
0.0
220
0.0
230
1.0
 70
    27
 71
     3
 72
    20
 73
    16
 74
     0
 42
0.0000000001
 43
0.0000000001
 40
0.0
 40
0.0
 40
0.0
 40
0.0
 40
0.2
 40
0.2
 40
0.2
 40
0.2
 40
0.4
 40
0.4
 40
0.4
 40
0.4
 40
0.6
 40
0.6
 40
0.6
 40
0.6
 40
1.0
 40
1.0
 40
1.0
 40
1.0
 10
-0.0055
 20
9.9664
 30
0.0
 10
-0.0055
 20
9.9664
 30
0.0
 10
-0.0055
 20
9.9661
 30
0.0
 10
-0.0055
 20
9.9661
 30
0.0
 10
-0.0055
 20
9.9661
 30
0.0
 10
-0.0055
 20
9.9661
 30
0.0
 10
-0.0055
 20
6.2064
 30
0.0
 10
-0.0055
 20
6.2064
 30
0.0
 10
-0.0055
 20
6.2064
 30
0.0
 10
-0.0055
 20
6.2064
 30
0.0
 10
-0.0055
 20
9.9661
 30
0.0
 10
-0.0055
 20
9.9661
 30
0.0
 10
-0.0055
 20
9.9661
 30
0.0
 10
-0.0055
 20
9.9661
 30
0.0
 10
-0.0055
 20
9.9664
 30
0.0
 10
-0.0055
 20
9.9664
 30
0.0
  0
SPLINE
  5
A1
330
1F
100
AcDbEntity
  8
DEFAULT_1
 62
   250
100
AcDbSpline
210
0.0
220
0.0
230
1.0
 70
    27
 71
     3
 72
    12
 73
     8
 74
     0
 42
0.0000000001
 43
0.0000000001
 40
0.0
 40
0.0
 40
0.0
 40
0.0
 40
0.3333333333333333
 40
0.3333333333333333
 40
0.3333333333333333
 40
0.3333333333333333
 40
1.0
 40
1.0
 40
1.0
 40
1.0
 10
11.586
 20
5.5296
 30
0.0
 10
11.586
 20
5.5296
 30
0.0
 10
11.586
 20
4.7776
 30
0.0
 10
11.586
 20
4.7776
 30
0.0
 10
11.586
 20
4.7776
 30
0.0
 10
11.586
 20
4.7776
 30
0.0
 10
11.586
 20
5.5296
 30
0.0
 10
11.586
 20
5.5296
 30
0.0
  0
SPLINE
  5
A2
330
1F
100
AcDbEntity
  8
DEFAULT_1
 62
   250
100
AcDbSpline
210
0.0
220
0.0
230
1.0
 70
    27
 71
     3
 72
    12
 73
     8
 74
     0
 42
0.0000000001
 43
0.0000000001
 40
0.0
 40
0.0
 40
0.0
 40
0.0
 40
0.3333333333333333
 40
0.3333333333333333
 40
0.3333333333333333
 40
0.3333333333333333
 40
1.0
 40
1.0
 40
1.0
 40
1.0
 10
-3.4542
 20
15.6065
 30
0.0
 10
-3.4542
 20
15.6065
 30
0.0
 10
-3.4542
 20
12.5233
 30
0.0
 10
-3.4542
 20
12.5233
 30
0.0
 10
-3.4542
 20
12.5233
 30
0.0
 10
-3.4542
 20
12.5233
 30
0.0
 10
-3.4542
 20
15.6065
 30
0.0
 10
-3.4542
 20
15.6065
 30
0.0
  0
SPLINE
  5
A3
330
1F
100
AcDbEntity
  8
DEFAULT_1
 62
   250
100
AcDbSpline
210
0.0
220
0.0
230
1.0
 70
    27
 71
     3
 72
    12
 73
     8
 74
     0
 42
0.0000000001
 43
0.0000000001
 40
0.0
 40
0.0
 40
0.0
 40
0.0
 40
0.3333333333333333
 40
0.3333333333333333
 40
0.3333333333333333
 40
0.3333333333333333
 40
1.0
 40
1.0
 40
1.0
 40
1.0
 10
-3.4542
 20
11.8465
 30
0.0
 10
-3.4542
 20
11.8465
 30
0.0
 10
-3.4542
 20
6.2064
 30
0.0
 10
-3.4542
 20
6.2064
 30
0.0
 10
-3.4542
 20
6.2064
 30
0.0
 10
-3.4542
 20
6.2064
 30
0.0
 10
-3.4542
 20
11.8465
 30
0.0
 10
-3.4542
 20
11.8465
 30
0.0
  0
SPLINE
  5
A4
330
1F
100
AcDbEntity
  8
DEFAULT_1
 62
   250
100
AcDbSpline
210
0.0
220
0.0
230
1.0
 70
    27
 71
     3
 72
    12
 73
     8
 74
     0
 42
0.0000000001
 43
0.0000000001
 40
0.0
 40
0.0
 40
0.0
 40
0.0
 40
0.3333333333333333
 40
0.3333333333333333
 40
0.3333333333333333
 40
0.3333333333333333
 40
1.0
 40
1.0
 40
1.0
 40
1.0
 10
11.586
 20
11.8465
 30
0.0
 10
11.586
 20
11.8465
 30
0.0
 10
11.586
 20
6.2064
 30
0.0
 10
11.586
 20
6.2064
 30
0.0
 10
11.586
 20
6.2064
 30
0.0
 10
11.586
 20
6.2064
 30
0.0
 10
11.586
 20
11.8465
 30
0.0
 10
11.586
 20
11.8465
 30
0.0
  0
SPLINE
  5
A5
330
1F
100
AcDbEntity
  8
DEFAULT_1
 62
   250
100
AcDbSpline
210
0.0
220
0.0
230
1.0
 70
    27
 71
     3
 72
    12
 73
     8
 74
     0
 42
0.0000000001
 43
0.0000000001
 40
0.0
 40
0.0
 40
0.0
 40
0.0
 40
0.3333333333333333
 40
0.3333333333333333
 40
0.3333333333333333
 40
0.3333333333333333
 40
1.0
 40
1.0
 40
1.0
 40
1.0
 10
11.586
 20
15.6065
 30
0.0
 10
11.586
 20
15.6065
 30
0.0
 10
11.586
 20
12.5233
 30
0.0
 10
11.586
 20
12.5233
 30
0.0
 10
11.586
 20
12.5233
 30
0.0
 10
11.586
 20
12.5233
 30
0.0
 10
11.586
 20
15.6065
 30
0.0
 10
11.586
 20
15.6065
 30
0.0
  0
SPLINE
  5
A6
330
1F
100
AcDbEntity
  8
DEFAULT_1
 62
   250
100
AcDbSpline
210
0.0
220
0.0
230
1.0
 70
    11
 71
     3
 72
    48
 73
    44
 74
     0
 42
0.0000000001
 43
0.0000000001
 40
0.0
 40
0.0
 40
0.0
 40
0.0
 40
0.0833333333333333
 40
0.0833333333333333
 40
0.0833333333333333
 40
0.0833333333333333
 40
0.1666666666666667
 40
0.1666666666666667
 40
0.1666666666666667
 40
0.1666666666666667
 40
0.25
 40
0.25
 40
0.25
 40
0.25
 40
0.3333333333333333
 40
0.3333333333333333
 40
0.3333333333333333
 40
0.3333333333333333
 40
0.4166666666666667
 40
0.4166666666666667
 40
0.4166666666666667
 40
0.4166666666666667
 40
0.5
 40
0.5
 40
0.5
 40
0.5
 40
0.5833333333333334
 40
0.5833333333333334
 40
0.5833333333333334
 40
0.5833333333333334
 40
0.6666666666666666
 40
0.6666666666666666
 40
0.6666666666666666
 40
0.6666666666666666
 40
0.75
 40
0.75
 40
0.75
 40
0.75
 40
0.8333333333333334
 40
0.8333333333333334
 40
0.8333333333333334
 40
0.8333333333333334
 40
1.0
 40
1.0
 40
1.0
 40
1.0
 10
-2.2181
 20
18.6681
 30
0.0
 10
-2.2181
 20
18.6681
 30
0.0
 10
-3.0882
 20
18.8096
 30
0.0
 10
-3.0882
 20
18.8096
 30
0.0
 10
-3.0882
 20
18.8096
 30
0.0
 10
-3.0882
 20
18.8096
 30
0.0
 10
-3.1737
 20
18.9122
 30
0.0
 10
-3.1737
 20
18.9122
 30
0.0
 10
-3.1737
 20
18.9122
 30
0.0
 10
-3.1737
 20
18.9122
 30
0.0
 10
-3.1566
 20
19.0319
 30
0.0
 10
-3.1566
 20
19.0319
 30
0.0
 10
-3.1566
 20
19.0319
 30
0.0
 10
-3.1566
 20
19.0319
 30
0.0
 10
-3.054
 20
19.1003
 30
0.0
 10
-3.054
 20
19.1003
 30
0.0
 10
-3.054
 20
19.1003
 30
0.0
 10
-3.054
 20
19.1003
 30
0.0
 10
-2.1819
 20
19.2029
 30
0.0
 10
-2.1819
 20
19.2029
 30
0.0
 10
-2.1819
 20
19.2029
 30
0.0
 10
-2.1819
 20
19.2029
 30
0.0
 10
10.4379
 20
19.2029
 30
0.0
 10
10.4379
 20
19.2029
 30
0.0
 10
10.4379
 20
19.2029
 30
0.0
 10
10.4379
 20
19.2029
 30
0.0
 10
11.3442
 20
19.0661
 30
0.0
 10
11.3442
 20
19.0661
 30
0.0
 10
11.3442
 20
19.0661
 30
0.0
 10
11.3442
 20
19.0661
 30
0.0
 10
11.3955
 20
18.9464
 30
0.0
 10
11.3955
 20
18.9464
 30
0.0
 10
11.3955
 20
18.9464
 30
0.0
 10
11.3955
 20
18.9464
 30
0.0
 10
11.3442
 20
18.8096
 30
0.0
 10
11.3442
 20
18.8096
 30
0.0
 10
11.3442
 20
18.8096
 30
0.0
 10
11.3442
 20
18.8096
 30
0.0
 10
10.4156
 20
18.6681
 30
0.0
 10
10.4156
 20
18.6681
 30
0.0
 10
10.4156
 20
18.6681
 30
0.0
 10
10.4156
 20
18.6681
 30
0.0
 10
-2.2181
 20
18.6681
 30
0.0
 10
-2.2181
 20
18.6681
 30
0.0
  0
SPLINE
  5
A7
330
1F
100
AcDbEntity
  8
DEFAULT_1
 62
   250
100
AcDbSpline
210
0.0
220
0.0
230
1.0
 70
     8
 71
     3
 72
    16
 73
    12
 74
     0
 42
0.0000000001
 43
0.0000000001
 40
0.0
 40
0.0
 40
0.0
 40
0.0
 40
0.25
 40
0.25
 40
0.25
 40
0.25
 40
0.5
 40
0.5
 40
0.5
 40
0.5
 40
1.0
 40
1.0
 40
1.0
 40
1.0
 10
-2.369
 20
23.0333
 30
0.0
 10
-2.369
 20
23.0333
 30
0.0
 10
-2.369
 20
19.6844
 30
0.0
 10
-2.369
 20
19.6844
 30
0.0
 10
-2.369
 20
19.6844
 30
0.0
 10
-2.369
 20
19.6844
 30
0.0
 10
10.6632
 20
19.7144
 30
0.0
 10
10.6632
 20
19.7144
 30
0.0
 10
10.6632
 20
19.7144
 30
0.0
 10
10.6632
 20
19.7144
 30
0.0
 10
10.6632
 20
23.0287
 30
0.0
 10
10.6632
 20
23.0287
 30
0.0
  0
SPLINE
  5
A8
330
1F
100
AcDbEntity
  8
DEFAULT_1
 62
   250
100
AcDbSpline
210
0.0
220
0.0
230
1.0
 70
    11
 71
     3
 72
    84
 73
    80
 74
     0
 42
0.0000000001
 43
0.0000000001
 40
0.0
 40
0.0
 40
0.0
 40
0.0
 40
0.0476190476190476
 40
0.0476190476190476
 40
0.0476190476190476
 40
0.0476190476190476
 40
0.0952380952380952
 40
0.0952380952380952
 40
0.0952380952380952
 40
0.0952380952380952
 40
0.1428571428571428
 40
0.1428571428571428
 40
0.1428571428571428
 40
0.1428571428571428
 40
0.1904761904761905
 40
0.1904761904761905
 40
0.1904761904761905
 40
0.1904761904761905
 40
0.2380952380952381
 40
0.2380952380952381
 40
0.2380952380952381
 40
0.2380952380952381
 40
0.2857142857142857
 40
0.2857142857142857
 40
0.2857142857142857
 40
0.2857142857142857
 40
0.3333333333333333
 40
0.3333333333333333
 40
0.3333333333333333
 40
0.3333333333333333
 40
0.3809523809523809
 40
0.3809523809523809
 40
0.3809523809523809
 40
0.3809523809523809
 40
0.4285714285714285
 40
0.4285714285714285
 40
0.4285714285714285
 40
0.4285714285714285
 40
0.4761904761904762
 40
0.4761904761904762
 40
0.4761904761904762
 40
0.4761904761904762
 40
0.5238095238095238
 40
0.5238095238095238
 40
0.5238095238095238
 40
0.5238095238095238
 40
0.5714285714285714
 40
0.5714285714285714
 40
0.5714285714285714
 40
0.5714285714285714
 40
0.6190476190476191
 40
0.6190476190476191
 40
0.6190476190476191
 40
0.6190476190476191
 40
0.6666666666666666
 40
0.6666666666666666
 40
0.6666666666666666
 40
0.6666666666666666
 40
0.7142857142857143
 40
0.7142857142857143
 40
0.7142857142857143
 40
0.7142857142857143
 40
0.7619047619047619
 40
0.7619047619047619
 40
0.7619047619047619
 40
0.7619047619047619
 40
0.8095238095238095
 40
0.8095238095238095
 40
0.8095238095238095
 40
0.8095238095238095
 40
0.8571428571428571
 40
0.8571428571428571
 40
0.8571428571428571
 40
0.8571428571428571
 40
0.9047619047619048
 40
0.9047619047619048
 40
0.9047619047619048
 40
0.9047619047619048
 40
1.0
 40
1.0
 40
1.0
 40
1.0
 10
-8.1365
 20
23.0333
 30
0.0
 10
-8.1365
 20
23.0333
 30
0.0
 10
-8.1399
 20
23.3181
 30
0.0
 10
-8.1399
 20
23.3181
 30
0.0
 10
-8.1399
 20
23.3181
 30
0.0
 10
-8.1399
 20
23.3181
 30
0.0
 10
-7.0187
 20
23.8798
 30
0.0
 10
-7.0187
 20
23.8798
 30
0.0
 10
-7.0187
 20
23.8798
 30
0.0
 10
-7.0187
 20
23.8798
 30
0.0
 10
-5.5332
 20
24.4696
 30
0.0
 10
-5.5332
 20
24.4696
 30
0.0
 10
-5.5332
 20
24.4696
 30
0.0
 10
-5.5332
 20
24.4696
 30
0.0
 10
-4.0197
 20
24.919
 30
0.0
 10
-4.0197
 20
24.919
 30
0.0
 10
-4.0197
 20
24.919
 30
0.0
 10
-4.0197
 20
24.919
 30
0.0
 10
-2.6462
 20
25.256
 30
0.0
 10
-2.6462
 20
25.256
 30
0.0
 10
-2.6462
 20
25.256
 30
0.0
 10
-2.6462
 20
25.256
 30
0.0
 10
-1.3289
 20
25.5369
 30
0.0
 10
-1.3289
 20
25.5369
 30
0.0
 10
-1.3289
 20
25.5369
 30
0.0
 10
-1.3289
 20
25.5369
 30
0.0
 10
0.2407
 20
25.8177
 30
0.0
 10
0.2407
 20
25.8177
 30
0.0
 10
0.2407
 20
25.8177
 30
0.0
 10
0.2407
 20
25.8177
 30
0.0
 10
1.6141
 20
25.9581
 30
0.0
 10
1.6141
 20
25.9581
 30
0.0
 10
1.6141
 20
25.9581
 30
0.0
 10
1.6141
 20
25.9581
 30
0.0
 10
3.2118
 20
26.0424
 30
0.0
 10
3.2118
 20
26.0424
 30
0.0
 10
3.2118
 20
26.0424
 30
0.0
 10
3.2118
 20
26.0424
 30
0.0
 10
4.8094
 20
26.0424
 30
0.0
 10
4.8094
 20
26.0424
 30
0.0
 10
4.8094
 20
26.0424
 30
0.0
 10
4.8094
 20
26.0424
 30
0.0
 10
6.2949
 20
25.9862
 30
0.0
 10
6.2949
 20
25.9862
 30
0.0
 10
6.2949
 20
25.9862
 30
0.0
 10
6.2949
 20
25.9862
 30
0.0
 10
7.9206
 20
25.7896
 30
0.0
 10
7.9206
 20
25.7896
 30
0.0
 10
7.9206
 20
25.7896
 30
0.0
 10
7.9206
 20
25.7896
 30
0.0
 10
9.6584
 20
25.5088
 30
0.0
 10
9.6584
 20
25.5088
 30
0.0
 10
9.6584
 20
25.5088
 30
0.0
 10
9.6584
 20
25.5088
 30
0.0
 10
11.1439
 20
25.1998
 30
0.0
 10
11.1439
 20
25.1998
 30
0.0
 10
11.1439
 20
25.1998
 30
0.0
 10
11.1439
 20
25.1998
 30
0.0
 10
12.4893
 20
24.8347
 30
0.0
 10
12.4893
 20
24.8347
 30
0.0
 10
12.4893
 20
24.8347
 30
0.0
 10
12.4893
 20
24.8347
 30
0.0
 10
14.5354
 20
24.1887
 30
0.0
 10
14.5354
 20
24.1887
 30
0.0
 10
14.5354
 20
24.1887
 30
0.0
 10
14.5354
 20
24.1887
 30
0.0
 10
16.049
 20
23.5989
 30
0.0
 10
16.049
 20
23.5989
 30
0.0
 10
16.049
 20
23.5989
 30
0.0
 10
16.049
 20
23.5989
 30
0.0
 10
16.4414
 20
23.4023
 30
0.0
 10
16.4414
 20
23.4023
 30
0.0
 10
16.4414
 20
23.4023
 30
0.0
 10
16.4414
 20
23.4023
 30
0.0
 10
16.4222
 20
23.0333
 30
0.0
 10
16.4222
 20
23.0333
 30
0.0
 10
16.4222
 20
23.0333
 30
0.0
 10
16.4222
 20
23.0333
 30
0.0
 10
-8.1365
 20
23.0333
 30
0.0
 10
-8.1365
 20
23.0333
 30
0.0
  0
SPLINE
  5
A9
330
1F
100
AcDbEntity
  8
DEFAULT_1
 62
   250
100
AcDbSpline
210
0.0
220
0.0
230
1.0
 70
    27
 71
     3
 72
    12
 73
     8
 74
     0
 42
0.0000000001
 43
0.0000000001
 40
0.0
 40
0.0
 40
0.0
 40
0.0
 40
0.3333333333333333
 40
0.3333333333333333
 40
0.3333333333333333
 40
0.3333333333333333
 40
1.0
 40
1.0
 40
1.0
 40
1.0
 10
-2.1082
 20
19.1983
 30
0.0
 10
-2.1082
 20
19.1983
 30
0.0
 10
-2.1082
 20
19.6842
 30
0.0
 10
-2.1082
 20
19.6842
 30
0.0
 10
-2.1082
 20
19.6842
 30
0.0
 10
-2.1082
 20
19.6842
 30
0.0
 10
-2.1082
 20
19.1983
 30
0.0
 10
-2.1082
 20
19.1983
 30
0.0
  0
SPLINE
  5
AA
330
1F
100
AcDbEntity
  8
DEFAULT_1
 62
   250
100
AcDbSpline
210
0.0
220
0.0
230
1.0
 70
    11
 71
     3
 72
    68
 73
    64
 74
     0
 42
0.0000000001
 43
0.0000000001
 40
0.0
 40
0.0
 40
0.0
 40
0.0
 40
0.0588235294117647
 40
0.0588235294117647
 40
0.0588235294117647
 40
0.0588235294117647
 40
0.1176470588235294
 40
0.1176470588235294
 40
0.1176470588235294
 40
0.1176470588235294
 40
0.1764705882352941
 40
0.1764705882352941
 40
0.1764705882352941
 40
0.1764705882352941
 40
0.2352941176470588
 40
0.2352941176470588
 40
0.2352941176470588
 40
0.2352941176470588
 40
0.2941176470588235
 40
0.2941176470588235
 40
0.2941176470588235
 40
0.2941176470588235
 40
0.3529411764705883
 40
0.3529411764705883
 40
0.3529411764705883
 40
0.3529411764705883
 40
0.4117647058823529
 40
0.4117647058823529
 40
0.4117647058823529
 40
0.4117647058823529
 40
0.4705882352941176
 40
0.4705882352941176
 40
0.4705882352941176
 40
0.4705882352941176
 40
0.5294117647058824
 40
0.5294117647058824
 40
0.5294117647058824
 40
0.5294117647058824
 40
0.5882352941176471
 40
0.5882352941176471
 40
0.5882352941176471
 40
0.5882352941176471
 40
0.6470588235294118
 40
0.6470588235294118
 40
0.6470588235294118
 40
0.6470588235294118
 40
0.7058823529411765
 40
0.7058823529411765
 40
0.7058823529411765
 40
0.7058823529411765
 40
0.7647058823529411
 40
0.7647058823529411
 40
0.7647058823529411
 40
0.7647058823529411
 40
0.8235294117647058
 40
0.8235294117647058
 40
0.8235294117647058
 40
0.8235294117647058
 40
0.8823529411764706
 40
0.8823529411764706
 40
0.8823529411764706
 40
0.8823529411764706
 40
1.0
 40
1.0
 40
1.0
 40
1.0
 10
-2.1082
 20
18.2009
 30
0.0
 10
-2.1082
 20
18.2009
 30
0.0
 10
-2.1082
 20
18.6816
 30
0.0
 10
-2.1082
 20
18.6816
 30
0.0
 10
-2.1082
 20
18.6816
 30
0.0
 10
-2.1082
 20
18.6816
 30
0.0
 10
-2.1082
 20
18.2009
 30
0.0
 10
-2.1082
 20
18.2009
 30
0.0
 10
-2.1082
 20
18.2009
 30
0.0
 10
-2.1082
 20
18.2009
 30
0.0
 10
10.3942
 20
18.2009
 30
0.0
 10
10.3942
 20
18.2009
 30
0.0
 10
10.3942
 20
18.2009
 30
0.0
 10
10.3942
 20
18.2009
 30
0.0
 10
10.3942
 20
18.6816
 30
0.0
 10
10.3942
 20
18.6816
 30
0.0
 10
10.3942
 20
18.6816
 30
0.0
 10
10.3942
 20
18.6816
 30
0.0
 10
10.3942
 20
18.2009
 30
0.0
 10
10.3942
 20
18.2009
 30
0.0
 10
10.3942
 20
18.2009
 30
0.0
 10
10.3942
 20
18.2009
 30
0.0
 10
10.6476
 20
18.2009
 30
0.0
 10
10.6476
 20
18.2009
 30
0.0
 10
10.6476
 20
18.2009
 30
0.0
 10
10.6476
 20
18.2009
 30
0.0
 10
10.6476
 20
17.8096
 30
0.0
 10
10.6476
 20
17.8096
 30
0.0
 10
10.6476
 20
17.8096
 30
0.0
 10
10.6476
 20
17.8096
 30
0.0
 10
5.7258
 20
17.8156
 30
0.0
 10
5.7258
 20
17.8156
 30
0.0
 10
5.7258
 20
17.8156
 30
0.0
 10
5.7258
 20
17.8156
 30
0.0
 10
5.7216
 20
16.7399
 30
0.0
 10
5.7216
 20
16.7399
 30
0.0
 10
5.7216
 20
16.7399
 30
0.0
 10
5.7216
 20
16.7399
 30
0.0
 10
5.7223
 20
17.8096
 30
0.0
 10
5.7223
 20
17.8096
 30
0.0
 10
5.7223
 20
17.8096
 30
0.0
 10
5.7223
 20
17.8096
 30
0.0
 10
2.586
 20
17.8096
 30
0.0
 10
2.586
 20
17.8096
 30
0.0
 10
2.586
 20
17.8096
 30
0.0
 10
2.586
 20
17.8096
 30
0.0
 10
2.5835
 20
16.6934
 30
0.0
 10
2.5835
 20
16.6934
 30
0.0
 10
2.5835
 20
16.6934
 30
0.0
 10
2.5835
 20
16.6934
 30
0.0
 10
2.5835
 20
17.8096
 30
0.0
 10
2.5835
 20
17.8096
 30
0.0
 10
2.5835
 20
17.8096
 30
0.0
 10
2.5835
 20
17.8096
 30
0.0
 10
-2.3999
 20
17.8096
 30
0.0
 10
-2.3999
 20
17.8096
 30
0.0
 10
-2.3999
 20
17.8096
 30
0.0
 10
-2.3999
 20
17.8096
 30
0.0
 10
-2.3999
 20
18.2009
 30
0.0
 10
-2.3999
 20
18.2009
 30
0.0
 10
-2.3999
 20
18.2009
 30
0.0
 10
-2.3999
 20
18.2009
 30
0.0
 10
-2.1082
 20
18.2009
 30
0.0
 10
-2.1082
 20
18.2009
 30
0.0
  0
SPLINE
  5
AB
330
1F
100
AcDbEntity
  8
DEFAULT_1
 62
   250
100
AcDbSpline
210
0.0
220
0.0
230
1.0
 70
    27
 71
     3
 72
    12
 73
     8
 74
     0
 42
0.0000000001
 43
0.0000000001
 40
0.0
 40
0.0
 40
0.0
 40
0.0
 40
0.3333333333333333
 40
0.3333333333333333
 40
0.3333333333333333
 40
0.3333333333333333
 40
1.0
 40
1.0
 40
1.0
 40
1.0
 10
10.3942
 20
19.1983
 30
0.0
 10
10.3942
 20
19.1983
 30
0.0
 10
10.3942
 20
19.6842
 30
0.0
 10
10.3942
 20
19.6842
 30
0.0
 10
10.3942
 20
19.6842
 30
0.0
 10
10.3942
 20
19.6842
 30
0.0
 10
10.3942
 20
19.1983
 30
0.0
 10
10.3942
 20
19.1983
 30
0.0
  0
ENDSEC
  0
SECTION
  2
OBJECTS
  0
DICTIONARY
  5
C
330
0
100
AcDbDictionary
  3
ACAD_GROUP
350
D
  3
ACAD_LAYOUT
350
1A
  3
ACAD_MATERIAL
350
3B
  3
ACAD_MLEADERSTYLE
350
CE
  3
ACAD_MLINESTYLE
350
17
  3
ACAD_PLOTSETTINGS
350
19
  3
ACAD_VISUALSTYLE
350
2A
  3
ACDBHEADERROUNDTRIPXREC
350
AC
  3
ACDBVARIABLEDICTIONARY
350
CC
  0
DICTIONARY
  5
D
102
{ACAD_REACTORS
330
C
102
}
330
C
100
AcDbDictionary
  0
DICTIONARY
  5
1A
102
{ACAD_REACTORS
330
C
102
}
330
C
100
AcDbDictionary
  0
DICTIONARY
  5
3B
102
{ACAD_REACTORS
330
C
102
}
330
C
100
AcDbDictionary
  3
BYBLOCK
350
3D
  3
BYLAYER
350
3C
  3
GLOBAL
350
3E
  0
DICTIONARY
  5
CE
102
{ACAD_REACTORS
330
C
102
}
330
C
100
AcDbDictionary
  0
DICTIONARY
  5
17
102
{ACAD_REACTORS
330
C
102
}
330
C
100
AcDbDictionary
  3
STANDARD
350
18
  0
DICTIONARY
  5
19
102
{ACAD_REACTORS
330
C
102
}
330
C
100
AcDbDictionary
  0
DICTIONARY
  5
2A
102
{ACAD_REACTORS
330
C
102
}
330
C
100
AcDbDictionary
  3
2DWIREFRAME
350
2F
  3
3D_HIDDEN
350
31
  3
3DWIREFRAME
350
30
  3
BASIC
350
32
  3
BRIGHTEN
350
36
  3
COLORCHANGE
350
3A
  3
CONCEPTUAL
350
34
  3
DIM
350
35
  3
FACEPATTERN
350
39
  3
FLAT
350
2B
  3
FLATWITHEDGES
350
2C
  3
GOURAUD
350
2D
  3
GOURAUDWITHEDGES
350
2E
  3
LINEPATTERN
350
38
  3
REALISTIC
350
33
  3
THICKEN
350
37
  0
DICTIONARY
  5
AC
102
{ACAD_REACTORS
330
C
102
}
330
C
100
AcDbDictionary
  3
CEPSNTYPE
350
B5
  3
DIMSTYLEDATA
350
CB
  3
FINGERPRINTGUID
350
B6
  3
HYPERLINKBASE
350
AF
  3
INSUNITS
350
B4
  3
LAYOUTDICT
350
B1
  3
LWETCUNION
350
B3
  3
PLOTSETDICT
350
B2
  3
PSVPSCALE
350
B8
  3
PUCSBASE
350
BB
  3
PUCSORGBACK
350
C1
  3
PUCSORGBOTTOM
350
BD
  3
PUCSORGFRONT
350
C0
  3
PUCSORGLEFT
350
BE
  3
PUCSORGRIGHT
350
BF
  3
PUCSORGTOP
350
BC
  3
PUCSORTHOREF
350
B9
  3
PUCSORTHOVIEW
350
BA
  3
STYLESHEET
350
B0
  3
TSTACKALIGN
350
AD
  3
TSTACKSIZE
350
AE
  3
UCSBASE
350
C4
  3
UCSORGBACK
350
CA
  3
UCSORGBOTTOM
350
C6
  3
UCSORGFRONT
350
C9
  3
UCSORGLEFT
350
C7
  3
UCSORGRIGHT
350
C8
  3
UCSORGTOP
350
C5
  3
UCSORTHOREF
350
C2
  3
UCSORTHOVIEW
350
C3
  3
VERSIONGUID
350
B7
  0
DICTIONARY
  5
CC
102
{ACAD_REACTORS
330
C
102
}
330
C
100
AcDbDictionary
  3
DIMASSOC
350
CF
  3
HIDETEXT
350
D0
  0
MATERIAL
  5
3D
102
{ACAD_REACTORS
330
3B
102
}
102
{ACAD_XDICTIONARY
360
D3
102
}
330
3B
100
AcDbMaterial
  1
ByBlock
  0
MATERIAL
  5
3C
102
{ACAD_REACTORS
330
3B
102
}
102
{ACAD_XDICTIONARY
360
D1
102
}
330
3B
100
AcDbMaterial
  1
ByLayer
  0
MATERIAL
  5
3E
102
{ACAD_REACTORS
330
3B
102
}
102
{ACAD_XDICTIONARY
360
D5
102
}
330
3B
100
AcDbMaterial
  1
Global
  0
MLINESTYLE
  5
18
102
{ACAD_REACTORS
330
17
102
}
330
17
100
AcDbMlineStyle
  2
Standard
 70
     0
  3

 62
   256
 51
90.0
 52
90.0
 71
     2
 49
0.5
 62
   256
  6
BYLAYER
 49
-0.5
 62
   256
  6
BYLAYER
  0
ACAD_PROXY_OBJECT
  5
2F
102
{ACAD_REACTORS
330
2A
102
}
330
2A
100
AcDbProxyObject
 90
      499
 91
      501
 93
      436
310
42CC9915DA5C99599C985B595049028333333333333E3BF0000000000000FB0107901411070040501600405405064090741402480A0340
1001
ACAD
1000
AcDbSavedByObjectVersion
1070
     0
  0
ACAD_PROXY_OBJECT
  5
31
102
{ACAD_REACTORS
330
2A
102
}
330
2A
100
AcDbProxyObject
 90
      499
 91
      501
 93
      500
310
424CD108121A5919195B90640502408333333333333E3BF0000000000000FB01079024090700405020000000000001110200405405064090740C02480A0340
1001
ACAD
1000
AcDbSavedByObjectVersion
1070
     0
  0
ACAD_PROXY_OBJECT
  5
30
102
{ACAD_REACTORS
330
2A
102
}
330
2A
100
AcDbProxyObject
 90
      499
 91
      501
 93
      436
310
42CCD915DA5C99599C985B595059028333333333333E3BF0000000000000FB0107901411070040501600405405064090741402480A0340
1001
ACAD
1000
AcDbSavedByObjectVersion
1070
     0
  0
ACAD_PROXY_OBJECT
  5
32
102
{ACAD_REACTORS
330
2A
102
}
330
2A
100
AcDbProxyObject
 90
      499
 91
      501
 93
      388
310
4150985CDA58D07406404333333333333E3BF0000000000000FB0107A41107004050150841D405064090741402480A0350
1001
ACAD
1000
AcDbSavedByObjectVersion
1070
     0
  0
ACAD_PROXY_OBJECT
  5
36
102
{ACAD_REACTORS
330
2A
102
}
330
2A
100
AcDbProxyObject
 90
      499
 91
      501
 93
      428
310
42109C9A59DA1D195B90C409028333333333333E3BF0000000000000FB010790141107004050150841D405064090741402480A029950
1001
ACAD
1000
AcDbSavedByObjectVersion
1070
     0
  0
ACAD_PROXY_OBJECT
  5
3A
102
{ACAD_REACTORS
330
2A
102
}
330
2A
100
AcDbProxyObject
 90
      499
 91
      501
 93
      452
310
42D0DBDB1BDC90DA185B99D95104090240C333333333333E3BF0000000000000FB0108901411070040501508421405064090741402480A0350
1001
ACAD
1000
AcDbSavedByObjectVersion
1070
     0
  0
ACAD_PROXY_OBJECT
  5
34
102
{ACAD_REACTORS
330
2A
102
}
330
2A
100
AcDbProxyObject
 90
      499
 91
      501
 93
      500
310
4290DBDB98D95C1D1D585B10940D028333333333333E3BF0000000000000FB0107902409070040501000000000000111010841D405064090740C02480A0340
1001
ACAD
1000
AcDbSavedByObjectVersion
1070
     0
  0
ACAD_PROXY_OBJECT
  5
35
102
{ACAD_REACTORS
330
2A
102
}
330
2A
100
AcDbProxyObject
 90
      499
 91
      501
 93
      412
310
40D11A5B50B409028333333333333E3BF0000000000000FB010790141107004050150841D405064090741402480A02677FFFFFD0
1001
ACAD
1000
AcDbSavedByObjectVersion
1070
     0
  0
ACAD_PROXY_OBJECT
  5
39
102
{ACAD_REACTORS
330
2A
102
}
330
2A
100
AcDbProxyObject
 90
      499
 91
      501
 93
      444
310
42D19858D95C185D1D195C9B90F409028333333333333E3BF0000000000000FB010790141107004050150841D405064090741402480A0350
1001
ACAD
1000
AcDbSavedByObjectVersion
1070
     0
  0
ACAD_PROXY_OBJECT
  5
2B
102
{ACAD_REACTORS
330
2A
102
}
330
2A
100
AcDbProxyObject
 90
      499
 91
      501
 93
      388
310
41119B185D240901404333333333333E3BF0000000000000F9010740A41107004050150841D405064090741402480A1B50
1001
ACAD
1000
AcDbSavedByObjectVersion
1070
     0
  0
ACAD_PROXY_OBJECT
  5
2C
102
{ACAD_REACTORS
330
2A
102
}
330
2A
100
AcDbProxyObject
 90
      499
 91
      501
 93
      476
310
43519B185D15DA5D1A115919D95CD0140901404333333333333E3BF0000000000000F9010740901411070040501600405405064090741402480A1B50
1001
ACAD
1000
AcDbSavedByObjectVersion
1070
     0
  0
ACAD_PROXY_OBJECT
  5
2D
102
{ACAD_REACTORS
330
2A
102
}
330
2A
100
AcDbProxyObject
 90
      499
 91
      501
 93
      412
310
41D1DBDD5C985D5910240902404333333333333E3BF0000000000000F9010740A411070040501641D405064090741402480A1B50
1001
ACAD
1000
AcDbSavedByObjectVersion
1070
     0
  0
ACAD_PROXY_OBJECT
  5
2E
102
{ACAD_REACTORS
330
2A
102
}
330
2A
100
AcDbProxyObject
 90
      499
 91
      501
 93
      500
310
4411DBDD5C985D5915DA5D1A115919D95CD0340902404333333333333E3BF0000000000000F9010740901411070040501600405405064090741402480A1B50
1001
ACAD
1000
AcDbSavedByObjectVersion
1070
     0
  0
ACAD_PROXY_OBJECT
  5
38
102
{ACAD_REACTORS
330
2A
102
}
330
2A
100
AcDbProxyObject
 90
      499
 91
      501
 93
      444
310
42D31A5B995C185D1D195C9B90E409028333333333333E3BF0000000000000FB010790141107004050750841D405064090741402483A0350
1001
ACAD
1000
AcDbSavedByObjectVersion
1070
     0
  0
ACAD_PROXY_OBJECT
  5
33
102
{ACAD_REACTORS
330
2A
102
}
330
2A
100
AcDbProxyObject
 90
      499
 91
      501
 93
      420
310
425499585B1A5CDD1A58D08409028333333333333E3BF0000000000000FB01079019070040501508421405064090741402480A1B40
1001
ACAD
1000
AcDbSavedByObjectVersion
1070
     0
  0
ACAD_PROXY_OBJECT
  5
37
102
{ACAD_REACTORS
330
2A
102
}
330
2A
100
AcDbProxyObject
 90
      499
 91
      501
 93
      412
310
41D51A1A58DAD95B90D409028333333333333E3BF0000000000000FB010790141107004050150C41D405064090741402480A0350
1001
ACAD
1000
AcDbSavedByObjectVersion
1070
     0
  0
XRECORD
  5
B5
102
{ACAD_REACTORS
330
AC
102
}
330
AC
100
AcDbXrecord
 90
        0
  0
XRECORD
  5
CB
102
{ACAD_REACTORS
330
AC
102
}
330
AC
100
AcDbXrecord
1000
DSTYLE
1002
{
1070
   340
340
11
1002
}
  0
XRECORD
  5
B6
102
{ACAD_REACTORS
330
AC
102
}
330
AC
100
AcDbXrecord
  1
{12AED0A0-C1A1-4407-BD60-B9B8B0851CBC}
  0
XRECORD
  5
AF
102
{ACAD_REACTORS
330
AC
102
}
330
AC
100
AcDbXrecord
  1

  0
XRECORD
  5
B4
102
{ACAD_REACTORS
330
AC
102
}
330
AC
100
AcDbXrecord
 90
        4
  0
XRECORD
  5
B1
102
{ACAD_REACTORS
330
AC
102
}
330
AC
100
AcDbXrecord
340
1A
  0
XRECORD
  5
B3
102
{ACAD_REACTORS
330
AC
102
}
330
AC
100
AcDbXrecord
 90
    10781
  0
XRECORD
  5
B2
102
{ACAD_REACTORS
330
AC
102
}
330
AC
100
AcDbXrecord
340
19
  0
XRECORD
  5
B8
102
{ACAD_REACTORS
330
AC
102
}
330
AC
100
AcDbXrecord
 40
0.0
  0
XRECORD
  5
BB
102
{ACAD_REACTORS
330
AC
102
}
330
AC
100
AcDbXrecord
340
0
  0
XRECORD
  5
C1
102
{ACAD_REACTORS
330
AC
102
}
330
AC
100
AcDbXrecord
 10
0.0
 20
0.0
 30
0.0
  0
XRECORD
  5
BD
102
{ACAD_REACTORS
330
AC
102
}
330
AC
100
AcDbXrecord
 10
0.0
 20
0.0
 30
0.0
  0
XRECORD
  5
C0
102
{ACAD_REACTORS
330
AC
102
}
330
AC
100
AcDbXrecord
 10
0.0
 20
0.0
 30
0.0
  0
XRECORD
  5
BE
102
{ACAD_REACTORS
330
AC
102
}
330
AC
100
AcDbXrecord
 10
0.0
 20
0.0
 30
0.0
  0
XRECORD
  5
BF
102
{ACAD_REACTORS
330
AC
102
}
330
AC
100
AcDbXrecord
 10
0.0
 20
0.0
 30
0.0
  0
XRECORD
  5
BC
102
{ACAD_REACTORS
330
AC
102
}
330
AC
100
AcDbXrecord
 10
0.0
 20
0.0
 30
0.0
  0
XRECORD
  5
B9
102
{ACAD_REACTORS
330
AC
102
}
330
AC
100
AcDbXrecord
340
0
  0
XRECORD
  5
BA
102
{ACAD_REACTORS
330
AC
102
}
330
AC
100
AcDbXrecord
 70
     0
  0
XRECORD
  5
B0
102
{ACAD_REACTORS
330
AC
102
}
330
AC
100
AcDbXrecord
  1

  0
XRECORD
  5
AD
102
{ACAD_REACTORS
330
AC
102
}
330
AC
100
AcDbXrecord
 90
        1
  0
XRECORD
  5
AE
102
{ACAD_REACTORS
330
AC
102
}
330
AC
100
AcDbXrecord
 90
       70
  0
XRECORD
  5
C4
102
{ACAD_REACTORS
330
AC
102
}
330
AC
100
AcDbXrecord
340
0
  0
XRECORD
  5
CA
102
{ACAD_REACTORS
330
AC
102
}
330
AC
100
AcDbXrecord
 10
0.0
 20
0.0
 30
0.0
  0
XRECORD
  5
C6
102
{ACAD_REACTORS
330
AC
102
}
330
AC
100
AcDbXrecord
 10
0.0
 20
0.0
 30
0.0
  0
XRECORD
  5
C9
102
{ACAD_REACTORS
330
AC
102
}
330
AC
100
AcDbXrecord
 10
0.0
 20
0.0
 30
0.0
  0
XRECORD
  5
C7
102
{ACAD_REACTORS
330
AC
102
}
330
AC
100
AcDbXrecord
 10
0.0
 20
0.0
 30
0.0
  0
XRECORD
  5
C8
102
{ACAD_REACTORS
330
AC
102
}
330
AC
100
AcDbXrecord
 10
0.0
 20
0.0
 30
0.0
  0
XRECORD
  5
C5
102
{ACAD_REACTORS
330
AC
102
}
330
AC
100
AcDbXrecord
 10
0.0
 20
0.0
 30
0.0
  0
XRECORD
  5
C2
102
{ACAD_REACTORS
330
AC
102
}
330
AC
100
AcDbXrecord
340
0
  0
XRECORD
  5
C3
102
{ACAD_REACTORS
330
AC
102
}
330
AC
100
AcDbXrecord
 70
     0
  0
XRECORD
  5
B7
102
{ACAD_REACTORS
330
AC
102
}
330
AC
100
AcDbXrecord
  1
{FAEB1C32-E019-11D5-929B-00C0DF256EC4}
  0
DICTIONARYVAR
  5
CF
102
{ACAD_REACTORS
330
CC
102
}
330
CC
100
DictionaryVariables
280
     0
  1
2
  0
DICTIONARYVAR
  5
D0
102
{ACAD_REACTORS
330
CC
102
}
330
CC
100
DictionaryVariables
280
     0
  1
1
  0
DICTIONARY
  5
D3
330
3D
100
AcDbDictionary
280
     1
  3
ACAD_XREC_ROUNDTRIP
360
D4
  0
DICTIONARY
  5
D1
330
3C
100
AcDbDictionary
280
     1
  3
ACAD_XREC_ROUNDTRIP
360
D2
  0
DICTIONARY
  5
D5
330
3E
100
AcDbDictionary
280
     1
  3
ACAD_XREC_ROUNDTRIP
360
D6
  0
XRECORD
  5
D4
102
{ACAD_REACTORS
330
D3
102
}
330
D3
100
AcDbXrecord
102
MATERIAL
148
0.0
149
0.0
149
0.0
 93
        0
 94
      127
282
     0
 72
     1
 77
     1
171
     1
175
     1
179
     1
273
     0
  0
XRECORD
  5
D2
102
{ACAD_REACTORS
330
D1
102
}
330
D1
100
AcDbXrecord
102
MATERIAL
148
0.0
149
0.0
149
0.0
 93
        0
 94
      127
282
     0
 72
     1
 77
     1
171
     1
175
     1
179
     1
273
     0
  0
XRECORD
  5
D6
102
{ACAD_REACTORS
330
D5
102
}
330
D5
100
AcDbXrecord
102
MATERIAL
148
0.0
149
0.0
149
0.0
 93
        0
 94
      127
282
     0
 72
     1
 77
     1
171
     1
175
     1
179
     1
273
     0
  0
ENDSEC
  0
EOF
