  0
SECTION
  2
HEADER
  9
$ACADVER
  1
AC1014
  9
$ACADMAINTVER
 70
     9
  9
$DWGCODEPAGE
  3
ANSI_1250
  9
$INSBASE
 10
0.0
 20
0.0
 30
0.0
  9
$EXTMIN
 10
-15.8097
 20
-37.6976
 30
0.0
  9
$EXTMAX
 10
15.8097
 20
37.674
 30
0.0
  9
$LIMMIN
 10
0.0
 20
0.0
  9
$LIMMAX
 10
12.0
 20
9.0
  9
$ORTHOMODE
 70
     0
  9
$REGENMODE
 70
     1
  9
$FILLMODE
 70
     1
  9
$QTEXTMODE
 70
     0
  9
$MIRRTEXT
 70
     1
  9
$DRAGMODE
 70
     2
  9
$LTSCALE
 40
1.0
  9
$OSMODE
 70
    37
  9
$ATTMODE
 70
     1
  9
$TEXTSIZE
 40
0.2
  9
$TRACEWID
 40
0.05
  9
$TEXTSTYLE
  7
STANDARD
  9
$CLAYER
  8
0
  9
$CELTYPE
  6
BYLAYER
  9
$CECOLOR
 62
   256
  9
$CELTSCALE
 40
1.0
  9
$DELOBJ
 70
     1
  9
$DISPSILH
 70
     0
  9
$DIMSCALE
 40
1.0
  9
$DIMASZ
 40
0.18
  9
$DIMEXO
 40
0.0625
  9
$DIMDLI
 40
0.38
  9
$DIMRND
 40
0.0
  9
$DIMDLE
 40
0.0
  9
$DIMEXE
 40
0.18
  9
$DIMTP
 40
0.0
  9
$DIMTM
 40
0.0
  9
$DIMTXT
 40
0.18
  9
$DIMCEN
 40
0.09
  9
$DIMTSZ
 40
0.0
  9
$DIMTOL
 70
     0
  9
$DIMLIM
 70
     0
  9
$DIMTIH
 70
     1
  9
$DIMTOH
 70
     1
  9
$DIMSE1
 70
     0
  9
$DIMSE2
 70
     0
  9
$DIMTAD
 70
     0
  9
$DIMZIN
 70
     0
  9
$DIMBLK
  1

  9
$DIMASO
 70
     1
  9
$DIMSHO
 70
     1
  9
$DIMPOST
  1

  9
$DIMAPOST
  1

  9
$DIMALT
 70
     0
  9
$DIMALTD
 70
     2
  9
$DIMALTF
 40
25.4
  9
$DIMLFAC
 40
1.0
  9
$DIMTOFL
 70
     0
  9
$DIMTVP
 40
0.0
  9
$DIMTIX
 70
     0
  9
$DIMSOXD
 70
     0
  9
$DIMSAH
 70
     0
  9
$DIMBLK1
  1

  9
$DIMBLK2
  1

  9
$DIMSTYLE
  2
STANDARD
  9
$DIMCLRD
 70
     0
  9
$DIMCLRE
 70
     0
  9
$DIMCLRT
 70
     0
  9
$DIMTFAC
 40
1.0
  9
$DIMGAP
 40
0.09
  9
$DIMJUST
 70
     0
  9
$DIMSD1
 70
     0
  9
$DIMSD2
 70
     0
  9
$DIMTOLJ
 70
     1
  9
$DIMTZIN
 70
     0
  9
$DIMALTZ
 70
     0
  9
$DIMALTTZ
 70
     0
  9
$DIMFIT
 70
     3
  9
$DIMUPT
 70
     0
  9
$DIMUNIT
 70
     2
  9
$DIMDEC
 70
     4
  9
$DIMTDEC
 70
     4
  9
$DIMALTU
 70
     2
  9
$DIMALTTD
 70
     2
  9
$DIMTXSTY
  7
STANDARD
  9
$DIMAUNIT
 70
     0
  9
$LUNITS
 70
     2
  9
$LUPREC
 70
     4
  9
$SKETCHINC
 40
0.1
  9
$FILLETRAD
 40
0.5
  9
$AUNITS
 70
     0
  9
$AUPREC
 70
     0
  9
$MENU
  1
.
  9
$ELEVATION
 40
0.0
  9
$PELEVATION
 40
0.0
  9
$THICKNESS
 40
0.0
  9
$LIMCHECK
 70
     0
  9
$CHAMFERA
 40
0.5
  9
$CHAMFERB
 40
0.5
  9
$CHAMFERC
 40
1.0
  9
$CHAMFERD
 40
0.0
  9
$SKPOLY
 70
     0
  9
$TDCREATE
 40
2456247.44403088
  9
$TDUPDATE
 40
2456247.444030891
  9
$TDINDWG
 40
0.0000000116
  9
$TDUSRTIMER
 40
0.0000000116
  9
$USRTIMER
 70
     1
  9
$ANGBASE
 50
0.0
  9
$ANGDIR
 70
     0
  9
$PDMODE
 70
     0
  9
$PDSIZE
 40
0.0
  9
$PLINEWID
 40
0.0
  9
$COORDS
 70
     1
  9
$SPLFRAME
 70
     0
  9
$SPLINETYPE
 70
     6
  9
$SPLINESEGS
 70
     8
  9
$ATTDIA
 70
     0
  9
$ATTREQ
 70
     1
  9
$HANDLING
 70
     1
  9
$HANDSEED
  5
EC
  9
$SURFTAB1
 70
     6
  9
$SURFTAB2
 70
     6
  9
$SURFTYPE
 70
     6
  9
$SURFU
 70
     6
  9
$SURFV
 70
     6
  9
$UCSNAME
  2

  9
$UCSORG
 10
0.0
 20
0.0
 30
0.0
  9
$UCSXDIR
 10
1.0
 20
0.0
 30
0.0
  9
$UCSYDIR
 10
0.0
 20
1.0
 30
0.0
  9
$PUCSNAME
  2

  9
$PUCSORG
 10
0.0
 20
0.0
 30
0.0
  9
$PUCSXDIR
 10
1.0
 20
0.0
 30
0.0
  9
$PUCSYDIR
 10
0.0
 20
1.0
 30
0.0
  9
$USERI1
 70
     0
  9
$USERI2
 70
     0
  9
$USERI3
 70
     0
  9
$USERI4
 70
     0
  9
$USERI5
 70
     0
  9
$USERR1
 40
0.0
  9
$USERR2
 40
0.0
  9
$USERR3
 40
0.0
  9
$USERR4
 40
0.0
  9
$USERR5
 40
0.0
  9
$WORLDVIEW
 70
     1
  9
$SHADEDGE
 70
     3
  9
$SHADEDIF
 70
    70
  9
$TILEMODE
 70
     1
  9
$MAXACTVP
 70
    64
  9
$PINSBASE
 10
0.0
 20
0.0
 30
0.0
  9
$PLIMCHECK
 70
     0
  9
$PEXTMIN
 10
1.000000000000000E+20
 20
1.000000000000000E+20
 30
1.000000000000000E+20
  9
$PEXTMAX
 10
-1.000000000000000E+20
 20
-1.000000000000000E+20
 30
-1.000000000000000E+20
  9
$PLIMMIN
 10
0.0
 20
0.0
  9
$PLIMMAX
 10
12.0
 20
9.0
  9
$UNITMODE
 70
     0
  9
$VISRETAIN
 70
     1
  9
$PLINEGEN
 70
     0
  9
$PSLTSCALE
 70
     1
  9
$TREEDEPTH
 70
  3020
  9
$PICKSTYLE
 70
     1
  9
$CMLSTYLE
  2
STANDARD
  9
$CMLJUST
 70
     0
  9
$CMLSCALE
 40
1.0
  9
$PROXYGRAPHICS
 70
     1
  9
$MEASUREMENT
 70
     0
  0
ENDSEC
  0
SECTION
  2
CLASSES
  0
CLASS
  1
ACDBDICTIONARYWDFLT
  2
AcDbDictionaryWithDefault
  3
ObjectDBX Classes
 90
        0
280
     0
281
     0
  0
CLASS
  1
VISUALSTYLE
  2
AcDbVisualStyle
  3
ObjectDBX Classes
 90
     4095
280
     0
281
     0
  0
CLASS
  1
MATERIAL
  2
AcDbMaterial
  3
ObjectDBX Classes
 90
     1153
280
     0
281
     0
  0
CLASS
  1
DICTIONARYVAR
  2
AcDbDictionaryVar
  3
ObjectDBX Classes
 90
        0
280
     0
281
     0
  0
CLASS
  1
XRECORD
  2
AcDbXrecord
  3
AutoCAD 2000
 90
        0
280
     0
281
     0
  0
CLASS
  1
LWPOLYLINE
  2
AcDbPolyline
  3
AutoCAD 2000
 90
        0
280
     0
281
     1
  0
CLASS
  1
HATCH
  2
AcDbHatch
  3
AutoCAD 2000
 90
        0
280
     0
281
     1
  0
CLASS
  1
ACDBPLACEHOLDER
  2
AcDbPlaceHolder
  3
ObjectDBX Classes
 90
        0
280
     0
281
     0
  0
CLASS
  1
LAYOUT
  2
AcDbLayout
  3
ObjectDBX Classes
 90
        0
280
     0
281
     0
  0
ENDSEC
  0
SECTION
  2
TABLES
  0
TABLE
  2
VPORT
  5
8
330
0
100
AcDbSymbolTable
 70
     1
  0
VPORT
  5
29
330
8
100
AcDbSymbolTableRecord
100
AcDbViewportTableRecord
  2
*ACTIVE
 70
     0
 10
0.0
 20
0.0
 11
1.0
 21
1.0
 12
10.42990654205607
 22
4.5
 13
0.0
 23
0.0
 14
0.5
 24
0.5
 15
0.5
 25
0.5
 16
0.0
 26
0.0
 36
1.0
 17
0.0
 27
0.0
 37
0.0
 40
9.0
 41
1.972972972850329
 42
50.0
 43
0.0
 44
0.0
 50
0.0
 51
0.0
 71
     0
 72
   100
 73
     1
 74
     3
 75
     0
 76
     0
 77
     0
 78
     0
  0
ENDTAB
  0
TABLE
  2
LTYPE
  5
5
330
0
100
AcDbSymbolTable
 70
     4
  0
LTYPE
  5
14
330
5
100
AcDbSymbolTableRecord
100
AcDbLinetypeTableRecord
  2
BYBLOCK
 70
     0
  3

 72
    65
 73
     0
 40
0.0
  0
LTYPE
  5
15
330
5
100
AcDbSymbolTableRecord
100
AcDbLinetypeTableRecord
  2
BYLAYER
 70
     0
  3

 72
    65
 73
     0
 40
0.0
  0
LTYPE
  5
16
330
5
100
AcDbSymbolTableRecord
100
AcDbLinetypeTableRecord
  2
CONTINUOUS
 70
     0
  3
Solid line
 72
    65
 73
     0
 40
0.0
  0
LTYPE
  5
4E
330
5
100
AcDbSymbolTableRecord
100
AcDbLinetypeTableRecord
  2
NEW_LINE1
 70
     0
  3

 72
    65
 73
     4
 40
1.2
 49
0.5
 74
     4
 75
     0
340
0
 46
1.0
 50
0.0
 44
0.0
 45
0.0
 49
-0.3
 74
     4
 75
     0
340
0
 46
1.0
 50
0.0
 44
0.0
 45
0.0
 49
0.1
 74
     4
 75
     0
340
0
 46
1.0
 50
0.0
 44
0.0
 45
0.0
 49
-0.3
 74
     4
 75
     0
340
0
 46
1.0
 50
0.0
 44
0.0
 45
0.0
  0
LTYPE
  5
BE
330
5
100
AcDbSymbolTableRecord
100
AcDbLinetypeTableRecord
  2
NEW_LINE2
 70
     0
  3

 72
    65
 73
     4
 40
1.2
 49
0.5
 74
     4
 75
     0
340
0
 46
1.0
 50
0.0
 44
0.0
 45
0.0
 49
-0.3
 74
     4
 75
     0
340
0
 46
1.0
 50
0.0
 44
0.0
 45
0.0
 49
0.1
 74
     4
 75
     0
340
0
 46
1.0
 50
0.0
 44
0.0
 45
0.0
 49
-0.3
 74
     4
 75
     0
340
0
 46
1.0
 50
0.0
 44
0.0
 45
0.0
  0
LTYPE
  5
C0
330
5
100
AcDbSymbolTableRecord
100
AcDbLinetypeTableRecord
  2
NEW_LINE3
 70
     0
  3

 72
    65
 73
     4
 40
1.2
 49
0.5
 74
     4
 75
     0
340
0
 46
1.0
 50
0.0
 44
0.0
 45
0.0
 49
-0.3
 74
     4
 75
     0
340
0
 46
1.0
 50
0.0
 44
0.0
 45
0.0
 49
0.1
 74
     4
 75
     0
340
0
 46
1.0
 50
0.0
 44
0.0
 45
0.0
 49
-0.3
 74
     4
 75
     0
340
0
 46
1.0
 50
0.0
 44
0.0
 45
0.0
  0
ENDTAB
  0
TABLE
  2
LAYER
  5
2
330
0
100
AcDbSymbolTable
 70
     2
  0
LAYER
  5
10
330
2
100
AcDbSymbolTableRecord
100
AcDbLayerTableRecord
  2
0
 70
     0
 62
     7
  6
CONTINUOUS
  0
LAYER
  5
40
330
2
100
AcDbSymbolTableRecord
100
AcDbLayerTableRecord
  2
DEFAULT_2
 70
     0
 62
     7
  6
CONTINUOUS
  0
ENDTAB
  0
TABLE
  2
STYLE
  5
3
330
0
100
AcDbSymbolTable
 70
     1
  0
STYLE
  5
11
330
3
100
AcDbSymbolTableRecord
100
AcDbTextStyleTableRecord
  2
STANDARD
 70
     0
 40
0.0
 41
1.0
 50
0.0
 71
     0
 42
0.2
  3
txt
  4

  0
ENDTAB
  0
TABLE
  2
VIEW
  5
6
330
0
100
AcDbSymbolTable
 70
     0
  0
ENDTAB
  0
TABLE
  2
UCS
  5
7
330
0
100
AcDbSymbolTable
 70
     0
  0
ENDTAB
  0
TABLE
  2
APPID
  5
9
330
0
100
AcDbSymbolTable
 70
     2
  0
APPID
  5
12
330
9
100
AcDbSymbolTableRecord
100
AcDbRegAppTableRecord
  2
ACAD
 70
     0
  0
APPID
  5
3F
330
9
100
AcDbSymbolTableRecord
100
AcDbRegAppTableRecord
  2
ODA
 70
     0
  0
ENDTAB
  0
TABLE
  2
DIMSTYLE
  5
A
330
0
100
AcDbSymbolTable
 70
     1
  0
DIMSTYLE
105
27
330
A
100
AcDbSymbolTableRecord
100
AcDbDimStyleTableRecord
  2
STANDARD
 70
     0
  3

  4

  5

  6

  7

 40
1.0
 41
0.18
 42
0.0625
 43
0.38
 44
0.18
 45
0.0
 46
0.0
 47
0.0
 48
0.0
140
0.18
141
0.09
142
0.0
143
25.4
144
1.0
145
0.0
146
1.0
147
0.09
 71
     0
 72
     0
 73
     1
 74
     1
 75
     0
 76
     0
 77
     0
 78
     0
170
     0
171
     2
172
     0
173
     0
174
     0
175
     0
176
     0
177
     0
178
     0
270
     2
271
     4
272
     4
273
     2
274
     2
340
11
275
     0
280
     0
281
     0
282
     0
283
     1
284
     0
285
     0
286
     0
287
     3
288
     0
  0
ENDTAB
  0
TABLE
  2
BLOCK_RECORD
  5
1
330
0
100
AcDbSymbolTable
 70
     1
  0
BLOCK_RECORD
  5
1F
330
1
100
AcDbSymbolTableRecord
100
AcDbBlockTableRecord
  2
*MODEL_SPACE
  0
BLOCK_RECORD
  5
1B
330
1
100
AcDbSymbolTableRecord
100
AcDbBlockTableRecord
  2
*PAPER_SPACE
  0
ENDTAB
  0
ENDSEC
  0
SECTION
  2
BLOCKS
  0
BLOCK
  5
20
330
1F
100
AcDbEntity
  8
0
100
AcDbBlockBegin
  2
*MODEL_SPACE
 70
     0
 10
0.0
 20
0.0
 30
0.0
  3
*MODEL_SPACE
  1

  0
ENDBLK
  5
21
330
1F
100
AcDbEntity
  8
0
100
AcDbBlockEnd
  0
BLOCK
  5
1C
330
1B
100
AcDbEntity
 67
     1
  8
0
100
AcDbBlockBegin
  2
*PAPER_SPACE
 70
     0
 10
0.0
 20
0.0
 30
0.0
  3
*PAPER_SPACE
  1

  0
ENDBLK
  5
1D
330
1B
100
AcDbEntity
 67
     1
  8
0
100
AcDbBlockEnd
  0
ENDSEC
  0
SECTION
  2
ENTITIES
  0
SPLINE
  5
41
330
1F
100
AcDbEntity
  8
DEFAULT_2
 62
   250
100
AcDbSpline
210
0.0
220
0.0
230
1.0
 70
    24
 71
     3
 72
     8
 73
     4
 74
     0
 42
0.0000000001
 43
0.0000000001
 40
0.0
 40
0.0
 40
0.0
 40
0.0
 40
1.0
 40
1.0
 40
1.0
 40
1.0
 10
-2.4302
 20
-3.9543
 30
0.0
 10
-2.4302
 20
-3.9543
 30
0.0
 10
-2.4302
 20
-8.4422
 30
0.0
 10
-2.4302
 20
-8.4422
 30
0.0
  0
SPLINE
  5
42
330
1F
100
AcDbEntity
  8
DEFAULT_2
 62
   250
100
AcDbSpline
210
0.0
220
0.0
230
1.0
 70
    24
 71
     3
 72
     8
 73
     4
 74
     0
 42
0.0000000001
 43
0.0000000001
 40
0.0
 40
0.0
 40
0.0
 40
0.0
 40
1.0
 40
1.0
 40
1.0
 40
1.0
 10
10.4244
 20
-4.0714
 30
0.0
 10
10.4244
 20
-4.0714
 30
0.0
 10
10.4244
 20
-8.5922
 30
0.0
 10
10.4244
 20
-8.5922
 30
0.0
  0
SPLINE
  5
43
330
1F
100
AcDbEntity
  8
DEFAULT_2
 62
   250
100
AcDbSpline
210
0.0
220
0.0
230
1.0
 70
    24
 71
     3
 72
     8
 73
     4
 74
     0
 42
0.0000000001
 43
0.0000000001
 40
0.0
 40
0.0
 40
0.0
 40
0.0
 40
1.0
 40
1.0
 40
1.0
 40
1.0
 10
-6.0809
 20
-7.6907
 30
0.0
 10
-6.0809
 20
-7.6907
 30
0.0
 10
14.2376
 20
-7.6907
 30
0.0
 10
14.2376
 20
-7.6907
 30
0.0
  0
SPLINE
  5
44
330
1F
100
AcDbEntity
  8
DEFAULT_2
 62
   250
100
AcDbSpline
210
0.0
220
0.0
230
1.0
 70
    24
 71
     3
 72
     8
 73
     4
 74
     0
 42
0.0000000001
 43
0.0000000001
 40
0.0
 40
0.0
 40
0.0
 40
0.0
 40
1.0
 40
1.0
 40
1.0
 40
1.0
 10
-2.8167
 20
-3.5287
 30
0.0
 10
-2.8167
 20
-3.5287
 30
0.0
 10
-13.6493
 20
-3.5287
 30
0.0
 10
-13.6493
 20
-3.5287
 30
0.0
  0
SPLINE
  5
45
330
1F
100
AcDbEntity
  8
DEFAULT_2
 62
   250
100
AcDbSpline
210
0.0
220
0.0
230
1.0
 70
    24
 71
     3
 72
     8
 73
     4
 74
     0
 42
0.0000000001
 43
0.0000000001
 40
0.0
 40
0.0
 40
0.0
 40
0.0
 40
1.0
 40
1.0
 40
1.0
 40
1.0
 10
-3.3291
 20
-0.057
 30
0.0
 10
-3.3291
 20
-0.057
 30
0.0
 10
-9.2394
 20
-0.057
 30
0.0
 10
-9.2394
 20
-0.057
 30
0.0
  0
SPLINE
  5
46
330
1F
100
AcDbEntity
  8
DEFAULT_2
 62
   250
100
AcDbSpline
210
0.0
220
0.0
230
1.0
 70
    24
 71
     3
 72
     8
 73
     4
 74
     0
 42
0.0000000001
 43
0.0000000001
 40
0.0
 40
0.0
 40
0.0
 40
0.0
 40
1.0
 40
1.0
 40
1.0
 40
1.0
 10
-8.4974
 20
-7.1138
 30
0.0
 10
-8.4974
 20
-7.1138
 30
0.0
 10
-8.4974
 20
3.7352
 30
0.0
 10
-8.4974
 20
3.7352
 30
0.0
  0
SPLINE
  5
47
330
1F
100
AcDbEntity
  8
DEFAULT_2
 62
   250
100
AcDbSpline
210
0.0
220
0.0
230
1.0
 70
    24
 71
     3
 72
     8
 73
     4
 74
     0
 42
0.0000000001
 43
0.0000000001
 40
0.0
 40
0.0
 40
0.0
 40
0.0
 40
1.0
 40
1.0
 40
1.0
 40
1.0
 10
-6.27
 20
18.2391
 30
0.0
 10
-6.27
 20
18.2391
 30
0.0
 10
-13.6495
 20
18.2391
 30
0.0
 10
-13.6495
 20
18.2391
 30
0.0
  0
SPLINE
  5
48
330
1F
100
AcDbEntity
  8
DEFAULT_2
 62
   250
100
AcDbSpline
210
0.0
220
0.0
230
1.0
 70
    24
 71
     3
 72
     8
 73
     4
 74
     0
 42
0.0000000001
 43
0.0000000001
 40
0.0
 40
0.0
 40
0.0
 40
0.0
 40
1.0
 40
1.0
 40
1.0
 40
1.0
 10
-12.9026
 20
-3.3477
 30
0.0
 10
-12.9026
 20
-3.3477
 30
0.0
 10
-12.9026
 20
18.5513
 30
0.0
 10
-12.9026
 20
18.5513
 30
0.0
  0
SPLINE
  5
49
330
1F
100
AcDbEntity
  8
DEFAULT_2
 62
   250
100
AcDbSpline
210
0.0
220
0.0
230
1.0
 70
    24
 71
     3
 72
     8
 73
     4
 74
     0
 42
0.0000000001
 43
0.0000000001
 40
0.0
 40
0.0
 40
0.0
 40
0.0
 40
1.0
 40
1.0
 40
1.0
 40
1.0
 10
-12.9025
 20
27.89
 30
0.0
 10
-12.9025
 20
27.89
 30
0.0
 10
-12.9025
 20
18.5513
 30
0.0
 10
-12.9025
 20
18.5513
 30
0.0
  0
SPLINE
  5
4A
330
1F
100
AcDbEntity
  8
DEFAULT_2
 62
   250
100
AcDbSpline
210
0.0
220
0.0
230
1.0
 70
    24
 71
     3
 72
     8
 73
     4
 74
     0
 42
0.0000000001
 43
0.0000000001
 40
0.0
 40
0.0
 40
0.0
 40
0.0
 40
1.0
 40
1.0
 40
1.0
 40
1.0
 10
-6.7542
 20
28.2363
 30
0.0
 10
-6.7542
 20
28.2363
 30
0.0
 10
-13.5999
 20
28.2363
 30
0.0
 10
-13.5999
 20
28.2363
 30
0.0
  0
SPLINE
  5
4B
330
1F
100
AcDbEntity
  8
DEFAULT_2
 62
   250
100
AcDbSpline
210
0.0
220
0.0
230
1.0
 70
    24
 71
     3
 72
     8
 73
     4
 74
     0
 42
0.0000000001
 43
0.0000000001
 40
0.0
 40
0.0
 40
0.0
 40
0.0
 40
1.0
 40
1.0
 40
1.0
 40
1.0
 10
-12.9018
 20
27.0303
 30
0.0
 10
-12.9018
 20
27.0303
 30
0.0
 10
-12.9018
 20
27.8763
 30
0.0
 10
-12.9018
 20
27.8763
 30
0.0
  0
SPLINE
  5
4C
330
1F
100
AcDbEntity
  8
DEFAULT_2
 62
   250
100
AcDbSpline
210
0.0
220
0.0
230
1.0
 70
    24
 71
     3
 72
     8
 73
     4
 74
     0
 42
0.0000000001
 43
0.0000000001
 40
0.0
 40
0.0
 40
0.0
 40
0.0
 40
1.0
 40
1.0
 40
1.0
 40
1.0
 10
-2.2802
 20
7.1518
 30
0.0
 10
-2.2802
 20
7.1518
 30
0.0
 10
10.383
 20
7.1518
 30
0.0
 10
10.383
 20
7.1518
 30
0.0
  0
SPLINE
  5
4D
330
1F
100
AcDbEntity
  8
DEFAULT_2
  6
NEW_LINE1
 62
   250
100
AcDbSpline
210
0.0
220
0.0
230
1.0
 70
    24
 71
     3
 72
     8
 73
     4
 74
     0
 42
0.0000000001
 43
0.0000000001
 40
0.0
 40
0.0
 40
0.0
 40
0.0
 40
1.0
 40
1.0
 40
1.0
 40
1.0
 10
3.9973
 20
-4.033
 30
0.0
 10
3.9973
 20
-4.033
 30
0.0
 10
3.9973
 20
36.7174
 30
0.0
 10
3.9973
 20
36.7174
 30
0.0
  0
SPLINE
  5
4F
330
1F
100
AcDbEntity
  8
DEFAULT_2
 62
   250
100
AcDbSpline
210
0.0
220
0.0
230
1.0
 70
    11
 71
     3
 72
    80
 73
    76
 74
     0
 42
0.0000000001
 43
0.0000000001
 40
0.0
 40
0.0
 40
0.0
 40
0.0
 40
0.05
 40
0.05
 40
0.05
 40
0.05
 40
0.1
 40
0.1
 40
0.1
 40
0.1
 40
0.15
 40
0.15
 40
0.15
 40
0.15
 40
0.2
 40
0.2
 40
0.2
 40
0.2
 40
0.25
 40
0.25
 40
0.25
 40
0.25
 40
0.3
 40
0.3
 40
0.3
 40
0.3
 40
0.35
 40
0.35
 40
0.35
 40
0.35
 40
0.4
 40
0.4
 40
0.4
 40
0.4
 40
0.45
 40
0.45
 40
0.45
 40
0.45
 40
0.5
 40
0.5
 40
0.5
 40
0.5
 40
0.55
 40
0.55
 40
0.55
 40
0.55
 40
0.6
 40
0.6
 40
0.6
 40
0.6
 40
0.65
 40
0.65
 40
0.65
 40
0.65
 40
0.7
 40
0.7
 40
0.7
 40
0.7
 40
0.75
 40
0.75
 40
0.75
 40
0.75
 40
0.8
 40
0.8
 40
0.8
 40
0.8
 40
0.85
 40
0.85
 40
0.85
 40
0.85
 40
0.9
 40
0.9
 40
0.9
 40
0.9
 40
1.0
 40
1.0
 40
1.0
 40
1.0
 10
-14.8627
 20
7.9019
 30
0.0
 10
-14.8627
 20
7.9019
 30
0.0
 10
-14.8434
 20
7.6555
 30
0.0
 10
-14.8434
 20
7.6555
 30
0.0
 10
-14.8434
 20
7.6555
 30
0.0
 10
-14.9408
 20
7.6334
 30
0.0
 10
-15.0118
 20
7.6023
 30
0.0
 10
-15.0555
 20
7.5619
 30
0.0
 10
-15.0555
 20
7.5619
 30
0.0
 10
-15.1266
 20
7.4946
 30
0.0
 10
-15.1619
 20
7.4118
 30
0.0
 10
-15.1619
 20
7.3135
 30
0.0
 10
-15.1619
 20
7.3135
 30
0.0
 10
-15.1619
 20
7.2345
 30
0.0
 10
-15.1397
 20
7.1654
 30
0.0
 10
-15.0955
 20
7.1056
 30
0.0
 10
-15.0955
 20
7.1056
 30
0.0
 10
-15.0386
 20
7.0275
 30
0.0
 10
-14.9554
 20
6.9659
 30
0.0
 10
-14.8462
 20
6.9208
 30
0.0
 10
-14.8462
 20
6.9208
 30
0.0
 10
-14.7371
 20
6.8761
 30
0.0
 10
-14.5814
 20
6.8526
 30
0.0
 10
-14.3792
 20
6.8507
 30
0.0
 10
-14.3792
 20
6.8507
 30
0.0
 10
-14.4699
 20
6.9104
 30
0.0
 10
-14.5377
 20
6.9833
 30
0.0
 10
-14.5819
 20
7.0699
 30
0.0
 10
-14.5819
 20
7.0699
 30
0.0
 10
-14.6256
 20
7.1559
 30
0.0
 10
-14.6477
 20
7.2467
 30
0.0
 10
-14.6477
 20
7.3413
 30
0.0
 10
-14.6477
 20
7.3413
 30
0.0
 10
-14.6477
 20
7.5068
 30
0.0
 10
-14.5871
 20
7.6475
 30
0.0
 10
-14.4652
 20
7.7637
 30
0.0
 10
-14.4652
 20
7.7637
 30
0.0
 10
-14.3434
 20
7.8798
 30
0.0
 10
-14.1863
 20
7.9382
 30
0.0
 10
-13.9935
 20
7.9382
 30
0.0
 10
-13.9935
 20
7.9382
 30
0.0
 10
-13.8665
 20
7.9382
 30
0.0
 10
-13.7489
 20
7.9104
 30
0.0
 10
-13.6397
 20
7.8558
 30
0.0
 10
-13.6397
 20
7.8558
 30
0.0
 10
-13.5311
 20
7.8013
 30
0.0
 10
-13.4474
 20
7.726
 30
0.0
 10
-13.3895
 20
7.6305
 30
0.0
 10
-13.3895
 20
7.6305
 30
0.0
 10
-13.3317
 20
7.5351
 30
0.0
 10
-13.303
 20
7.4269
 30
0.0
 10
-13.303
 20
7.3055
 30
0.0
 10
-13.303
 20
7.3055
 30
0.0
 10
-13.303
 20
7.0986
 30
0.0
 10
-13.3787
 20
6.9302
 30
0.0
 10
-13.5311
 20
6.7999
 30
0.0
 10
-13.5311
 20
6.7999
 30
0.0
 10
-13.683
 20
6.6691
 30
0.0
 10
-13.9337
 20
6.6042
 30
0.0
 10
-14.2827
 20
6.6042
 30
0.0
 10
-14.2827
 20
6.6042
 30
0.0
 10
-14.6731
 20
6.6042
 30
0.0
 10
-14.9568
 20
6.6762
 30
0.0
 10
-15.1341
 20
6.8206
 30
0.0
 10
-15.1341
 20
6.8206
 30
0.0
 10
-15.2884
 20
6.9462
 30
0.0
 10
-15.366
 20
7.1155
 30
0.0
 10
-15.366
 20
7.329
 30
0.0
 10
-15.366
 20
7.329
 30
0.0
 10
-15.366
 20
7.4876
 30
0.0
 10
-15.3213
 20
7.6178
 30
0.0
 10
-15.2319
 20
7.7194
 30
0.0
 10
-15.2319
 20
7.7194
 30
0.0
 10
-15.143
 20
7.821
 30
0.0
 10
-15.0198
 20
7.8817
 30
0.0
 10
-14.8627
 20
7.9019
 30
0.0
  0
SPLINE
  5
50
330
1F
100
AcDbEntity
  8
DEFAULT_2
 62
   250
100
AcDbSpline
210
0.0
220
0.0
230
1.0
 70
    11
 71
     3
 72
    40
 73
    36
 74
     0
 42
0.0000000001
 43
0.0000000001
 40
0.0
 40
0.0
 40
0.0
 40
0.0
 40
0.1
 40
0.1
 40
0.1
 40
0.1
 40
0.2
 40
0.2
 40
0.2
 40
0.2
 40
0.3
 40
0.3
 40
0.3
 40
0.3
 40
0.4
 40
0.4
 40
0.4
 40
0.4
 40
0.5
 40
0.5
 40
0.5
 40
0.5
 40
0.6
 40
0.6
 40
0.6
 40
0.6
 40
0.7
 40
0.7
 40
0.7
 40
0.7
 40
0.8
 40
0.8
 40
0.8
 40
0.8
 40
1.0
 40
1.0
 40
1.0
 40
1.0
 10
-13.9921
 20
6.8892
 30
0.0
 10
-13.9064
 20
6.8892
 30
0.0
 10
-13.8246
 20
6.9076
 30
0.0
 10
-13.7465
 20
6.9438
 30
0.0
 10
-13.7465
 20
6.9438
 30
0.0
 10
-13.6684
 20
6.98
 30
0.0
 10
-13.6092
 20
7.0308
 30
0.0
 10
-13.5683
 20
7.0957
 30
0.0
 10
-13.5683
 20
7.0957
 30
0.0
 10
-13.5273
 20
7.1611
 30
0.0
 10
-13.5066
 20
7.2298
 30
0.0
 10
-13.5066
 20
7.3013
 30
0.0
 10
-13.5066
 20
7.3013
 30
0.0
 10
-13.5066
 20
7.4062
 30
0.0
 10
-13.549
 20
7.496
 30
0.0
 10
-13.6336
 20
7.5713
 30
0.0
 10
-13.6336
 20
7.5713
 30
0.0
 10
-13.7183
 20
7.6465
 30
0.0
 10
-13.8331
 20
7.6842
 30
0.0
 10
-13.9779
 20
7.6842
 30
0.0
 10
-13.9779
 20
7.6842
 30
0.0
 10
-14.1176
 20
7.6842
 30
0.0
 10
-14.2277
 20
7.647
 30
0.0
 10
-14.3081
 20
7.5727
 30
0.0
 10
-14.3081
 20
7.5727
 30
0.0
 10
-14.3886
 20
7.4984
 30
0.0
 10
-14.4286
 20
7.4048
 30
0.0
 10
-14.4286
 20
7.2919
 30
0.0
 10
-14.4286
 20
7.2919
 30
0.0
 10
-14.4286
 20
7.1795
 30
0.0
 10
-14.3886
 20
7.0844
 30
0.0
 10
-14.3081
 20
7.0064
 30
0.0
 10
-14.3081
 20
7.0064
 30
0.0
 10
-14.2277
 20
6.9283
 30
0.0
 10
-14.1223
 20
6.8892
 30
0.0
 10
-13.9921
 20
6.8892
 30
0.0
  0
SPLINE
  5
51
330
1F
100
AcDbEntity
  8
DEFAULT_2
 62
   250
100
AcDbSpline
210
0.0
220
0.0
230
1.0
 70
    11
 71
     3
 72
    92
 73
    88
 74
     0
 42
0.0000000001
 43
0.0000000001
 40
0.0
 40
0.0
 40
0.0
 40
0.0
 40
0.0434782608695652
 40
0.0434782608695652
 40
0.0434782608695652
 40
0.0434782608695652
 40
0.0869565217391304
 40
0.0869565217391304
 40
0.0869565217391304
 40
0.0869565217391304
 40
0.1304347826086956
 40
0.1304347826086956
 40
0.1304347826086956
 40
0.1304347826086956
 40
0.1739130434782609
 40
0.1739130434782609
 40
0.1739130434782609
 40
0.1739130434782609
 40
0.2173913043478261
 40
0.2173913043478261
 40
0.2173913043478261
 40
0.2173913043478261
 40
0.2608695652173913
 40
0.2608695652173913
 40
0.2608695652173913
 40
0.2608695652173913
 40
0.3043478260869565
 40
0.3043478260869565
 40
0.3043478260869565
 40
0.3043478260869565
 40
0.3478260869565217
 40
0.3478260869565217
 40
0.3478260869565217
 40
0.3478260869565217
 40
0.391304347826087
 40
0.391304347826087
 40
0.391304347826087
 40
0.391304347826087
 40
0.4347826086956522
 40
0.4347826086956522
 40
0.4347826086956522
 40
0.4347826086956522
 40
0.4782608695652174
 40
0.4782608695652174
 40
0.4782608695652174
 40
0.4782608695652174
 40
0.5217391304347826
 40
0.5217391304347826
 40
0.5217391304347826
 40
0.5217391304347826
 40
0.5652173913043478
 40
0.5652173913043478
 40
0.5652173913043478
 40
0.5652173913043478
 40
0.6086956521739131
 40
0.6086956521739131
 40
0.6086956521739131
 40
0.6086956521739131
 40
0.6521739130434783
 40
0.6521739130434783
 40
0.6521739130434783
 40
0.6521739130434783
 40
0.6956521739130435
 40
0.6956521739130435
 40
0.6956521739130435
 40
0.6956521739130435
 40
0.7391304347826086
 40
0.7391304347826086
 40
0.7391304347826086
 40
0.7391304347826086
 40
0.782608695652174
 40
0.782608695652174
 40
0.782608695652174
 40
0.782608695652174
 40
0.8260869565217391
 40
0.8260869565217391
 40
0.8260869565217391
 40
0.8260869565217391
 40
0.8695652173913043
 40
0.8695652173913043
 40
0.8695652173913043
 40
0.8695652173913043
 40
0.9130434782608695
 40
0.9130434782608695
 40
0.9130434782608695
 40
0.9130434782608695
 40
1.0
 40
1.0
 40
1.0
 40
1.0
 10
-13.8044
 20
8.2218
 30
0.0
 10
-13.8044
 20
8.2218
 30
0.0
 10
-13.8265
 20
8.4603
 30
0.0
 10
-13.8265
 20
8.4603
 30
0.0
 10
-13.8265
 20
8.4603
 30
0.0
 10
-13.7145
 20
8.4805
 30
0.0
 10
-13.6332
 20
8.5191
 30
0.0
 10
-13.5824
 20
8.576
 30
0.0
 10
-13.5824
 20
8.576
 30
0.0
 10
-13.532
 20
8.6329
 30
0.0
 10
-13.5066
 20
8.7058
 30
0.0
 10
-13.5066
 20
8.7952
 30
0.0
 10
-13.5066
 20
8.7952
 30
0.0
 10
-13.5066
 20
8.8714
 30
0.0
 10
-13.524
 20
8.9381
 30
0.0
 10
-13.5593
 20
8.9955
 30
0.0
 10
-13.5593
 20
8.9955
 30
0.0
 10
-13.5941
 20
9.0529
 30
0.0
 10
-13.6407
 20
9.1
 30
0.0
 10
-13.699
 20
9.1366
 30
0.0
 10
-13.699
 20
9.1366
 30
0.0
 10
-13.7573
 20
9.1738
 30
0.0
 10
-13.8364
 20
9.2044
 30
0.0
 10
-13.9351
 20
9.2293
 30
0.0
 10
-13.9351
 20
9.2293
 30
0.0
 10
-14.0344
 20
9.2538
 30
0.0
 10
-14.1355
 20
9.2665
 30
0.0
 10
-14.2385
 20
9.2665
 30
0.0
 10
-14.2385
 20
9.2665
 30
0.0
 10
-14.2493
 20
9.2665
 30
0.0
 10
-14.2663
 20
9.266
 30
0.0
 10
-14.2879
 20
9.2651
 30
0.0
 10
-14.2879
 20
9.2651
 30
0.0
 10
-14.2094
 20
9.2152
 30
0.0
 10
-14.1449
 20
9.1475
 30
0.0
 10
-14.096
 20
9.0619
 30
0.0
 10
-14.096
 20
9.0619
 30
0.0
 10
-14.0466
 20
8.9758
 30
0.0
 10
-14.0222
 20
8.8826
 30
0.0
 10
-14.0222
 20
8.7829
 30
0.0
 10
-14.0222
 20
8.7829
 30
0.0
 10
-14.0222
 20
8.6155
 30
0.0
 10
-14.0828
 20
8.4739
 30
0.0
 10
-14.2042
 20
8.3582
 30
0.0
 10
-14.2042
 20
8.3582
 30
0.0
 10
-14.3255
 20
8.2425
 30
0.0
 10
-14.485
 20
8.1846
 30
0.0
 10
-14.6835
 20
8.1846
 30
0.0
 10
-14.6835
 20
8.1846
 30
0.0
 10
-14.8886
 20
8.1846
 30
0.0
 10
-15.0532
 20
8.2448
 30
0.0
 10
-15.1783
 20
8.3657
 30
0.0
 10
-15.1783
 20
8.3657
 30
0.0
 10
-15.3034
 20
8.4866
 30
0.0
 10
-15.366
 20
8.6381
 30
0.0
 10
-15.366
 20
8.8201
 30
0.0
 10
-15.366
 20
8.8201
 30
0.0
 10
-15.366
 20
8.9513
 30
0.0
 10
-15.3302
 20
9.0713
 30
0.0
 10
-15.2597
 20
9.1804
 30
0.0
 10
-15.2597
 20
9.1804
 30
0.0
 10
-15.1891
 20
9.289
 30
0.0
 10
-15.088
 20
9.3718
 30
0.0
 10
-14.9572
 20
9.4283
 30
0.0
 10
-14.9572
 20
9.4283
 30
0.0
 10
-14.8265
 20
9.4847
 30
0.0
 10
-14.6369
 20
9.5129
 30
0.0
 10
-14.3886
 20
9.5129
 30
0.0
 10
-14.3886
 20
9.5129
 30
0.0
 10
-14.1308
 20
9.5129
 30
0.0
 10
-13.9253
 20
9.4852
 30
0.0
 10
-13.7719
 20
9.4292
 30
0.0
 10
-13.7719
 20
9.4292
 30
0.0
 10
-13.619
 20
9.3728
 30
0.0
 10
-13.5029
 20
9.2895
 30
0.0
 10
-13.4229
 20
9.179
 30
0.0
 10
-13.4229
 20
9.179
 30
0.0
 10
-13.3429
 20
9.068
 30
0.0
 10
-13.303
 20
8.9386
 30
0.0
 10
-13.303
 20
8.7895
 30
0.0
 10
-13.303
 20
8.7895
 30
0.0
 10
-13.303
 20
8.6315
 30
0.0
 10
-13.3467
 20
8.5026
 30
0.0
 10
-13.4347
 20
8.4024
 30
0.0
 10
-13.4347
 20
8.4024
 30
0.0
 10
-13.5222
 20
8.3022
 30
0.0
 10
-13.6454
 20
8.242
 30
0.0
 10
-13.8044
 20
8.2218
 30
0.0
  0
SPLINE
  5
52
330
1F
100
AcDbEntity
  8
DEFAULT_2
 62
   250
100
AcDbSpline
210
0.0
220
0.0
230
1.0
 70
    11
 71
     3
 72
    36
 73
    32
 74
     0
 42
0.0000000001
 43
0.0000000001
 40
0.0
 40
0.0
 40
0.0
 40
0.0
 40
0.1111111111111111
 40
0.1111111111111111
 40
0.1111111111111111
 40
0.1111111111111111
 40
0.2222222222222222
 40
0.2222222222222222
 40
0.2222222222222222
 40
0.2222222222222222
 40
0.3333333333333333
 40
0.3333333333333333
 40
0.3333333333333333
 40
0.3333333333333333
 40
0.4444444444444444
 40
0.4444444444444444
 40
0.4444444444444444
 40
0.4444444444444444
 40
0.5555555555555556
 40
0.5555555555555556
 40
0.5555555555555556
 40
0.5555555555555556
 40
0.6666666666666666
 40
0.6666666666666666
 40
0.6666666666666666
 40
0.6666666666666666
 40
0.7777777777777778
 40
0.7777777777777778
 40
0.7777777777777778
 40
0.7777777777777778
 40
1.0
 40
1.0
 40
1.0
 40
1.0
 10
-14.6962
 20
9.2373
 30
0.0
 10
-14.8382
 20
9.2373
 30
0.0
 10
-14.9516
 20
9.1997
 30
0.0
 10
-15.0349
 20
9.1239
 30
0.0
 10
-15.0349
 20
9.1239
 30
0.0
 10
-15.1186
 20
9.0477
 30
0.0
 10
-15.1604
 20
8.957
 30
0.0
 10
-15.1604
 20
8.8502
 30
0.0
 10
-15.1604
 20
8.8502
 30
0.0
 10
-15.1604
 20
8.7401
 30
0.0
 10
-15.1153
 20
8.6442
 30
0.0
 10
-15.0254
 20
8.5623
 30
0.0
 10
-15.0254
 20
8.5623
 30
0.0
 10
-14.9351
 20
8.4805
 30
0.0
 10
-14.8185
 20
8.4396
 30
0.0
 10
-14.6755
 20
8.4396
 30
0.0
 10
-14.6755
 20
8.4396
 30
0.0
 10
-14.5466
 20
8.4396
 30
0.0
 10
-14.4422
 20
8.4786
 30
0.0
 10
-14.3618
 20
8.5562
 30
0.0
 10
-14.3618
 20
8.5562
 30
0.0
 10
-14.2813
 20
8.6338
 30
0.0
 10
-14.2413
 20
8.7293
 30
0.0
 10
-14.2413
 20
8.8431
 30
0.0
 10
-14.2413
 20
8.8431
 30
0.0
 10
-14.2413
 20
8.9584
 30
0.0
 10
-14.2813
 20
9.0524
 30
0.0
 10
-14.3618
 20
9.1263
 30
0.0
 10
-14.3618
 20
9.1263
 30
0.0
 10
-14.4422
 20
9.2006
 30
0.0
 10
-14.5537
 20
9.2373
 30
0.0
 10
-14.6962
 20
9.2373
 30
0.0
  0
SPLINE
  5
53
330
1F
100
AcDbEntity
  8
DEFAULT_2
 62
   250
100
AcDbSpline
210
0.0
220
0.0
230
1.0
 70
    11
 71
     3
 72
    20
 73
    16
 74
     0
 42
0.0000000001
 43
0.0000000001
 40
0.0
 40
0.0
 40
0.0
 40
0.0
 40
0.2
 40
0.2
 40
0.2
 40
0.2
 40
0.4
 40
0.4
 40
0.4
 40
0.4
 40
0.6
 40
0.6
 40
0.6
 40
0.6
 40
1.0
 40
1.0
 40
1.0
 40
1.0
 10
-5.2753
 20
-7.2531
 30
0.0
 10
-5.2753
 20
-7.2531
 30
0.0
 10
-2.5652
 20
-7.6356
 30
0.0
 10
-2.5652
 20
-7.6356
 30
0.0
 10
-2.5652
 20
-7.6356
 30
0.0
 10
-2.5652
 20
-7.6356
 30
0.0
 10
-2.5652
 20
-7.7205
 30
0.0
 10
-2.5652
 20
-7.7205
 30
0.0
 10
-2.5652
 20
-7.7205
 30
0.0
 10
-2.5652
 20
-7.7205
 30
0.0
 10
-5.2753
 20
-8.1284
 30
0.0
 10
-5.2753
 20
-8.1284
 30
0.0
 10
-5.2753
 20
-8.1284
 30
0.0
 10
-5.2753
 20
-8.1284
 30
0.0
 10
-5.2753
 20
-7.2531
 30
0.0
 10
-5.2753
 20
-7.2531
 30
0.0
  0
SPLINE
  5
54
330
1F
100
AcDbEntity
  8
DEFAULT_2
 62
   250
100
AcDbSpline
210
0.0
220
0.0
230
1.0
 70
    11
 71
     3
 72
    20
 73
    16
 74
     0
 42
0.0000000001
 43
0.0000000001
 40
0.0
 40
0.0
 40
0.0
 40
0.0
 40
0.2
 40
0.2
 40
0.2
 40
0.2
 40
0.4
 40
0.4
 40
0.4
 40
0.4
 40
0.6
 40
0.6
 40
0.6
 40
0.6
 40
1.0
 40
1.0
 40
1.0
 40
1.0
 10
13.1992
 20
-8.1284
 30
0.0
 10
13.1992
 20
-8.1284
 30
0.0
 10
10.4891
 20
-7.7459
 30
0.0
 10
10.4891
 20
-7.7459
 30
0.0
 10
10.4891
 20
-7.7459
 30
0.0
 10
10.4891
 20
-7.7459
 30
0.0
 10
10.4891
 20
-7.661
 30
0.0
 10
10.4891
 20
-7.661
 30
0.0
 10
10.4891
 20
-7.661
 30
0.0
 10
10.4891
 20
-7.661
 30
0.0
 10
13.1992
 20
-7.2531
 30
0.0
 10
13.1992
 20
-7.2531
 30
0.0
 10
13.1992
 20
-7.2531
 30
0.0
 10
13.1992
 20
-7.2531
 30
0.0
 10
13.1992
 20
-8.1284
 30
0.0
 10
13.1992
 20
-8.1284
 30
0.0
  0
SPLINE
  5
55
330
1F
100
AcDbEntity
  8
DEFAULT_2
 62
   250
100
AcDbSpline
210
0.0
220
0.0
230
1.0
 70
    11
 71
     3
 72
   120
 73
   116
 74
     0
 42
0.0000000001
 43
0.0000000001
 40
0.0
 40
0.0
 40
0.0
 40
0.0
 40
0.0333333333333333
 40
0.0333333333333333
 40
0.0333333333333333
 40
0.0333333333333333
 40
0.0666666666666667
 40
0.0666666666666667
 40
0.0666666666666667
 40
0.0666666666666667
 40
0.1
 40
0.1
 40
0.1
 40
0.1
 40
0.1333333333333333
 40
0.1333333333333333
 40
0.1333333333333333
 40
0.1333333333333333
 40
0.1666666666666667
 40
0.1666666666666667
 40
0.1666666666666667
 40
0.1666666666666667
 40
0.2
 40
0.2
 40
0.2
 40
0.2
 40
0.2333333333333333
 40
0.2333333333333333
 40
0.2333333333333333
 40
0.2333333333333333
 40
0.2666666666666667
 40
0.2666666666666667
 40
0.2666666666666667
 40
0.2666666666666667
 40
0.3
 40
0.3
 40
0.3
 40
0.3
 40
0.3333333333333333
 40
0.3333333333333333
 40
0.3333333333333333
 40
0.3333333333333333
 40
0.3666666666666666
 40
0.3666666666666666
 40
0.3666666666666666
 40
0.3666666666666666
 40
0.4
 40
0.4
 40
0.4
 40
0.4
 40
0.4333333333333333
 40
0.4333333333333333
 40
0.4333333333333333
 40
0.4333333333333333
 40
0.4666666666666667
 40
0.4666666666666667
 40
0.4666666666666667
 40
0.4666666666666667
 40
0.5
 40
0.5
 40
0.5
 40
0.5
 40
0.5333333333333333
 40
0.5333333333333333
 40
0.5333333333333333
 40
0.5333333333333333
 40
0.5666666666666667
 40
0.5666666666666667
 40
0.5666666666666667
 40
0.5666666666666667
 40
0.6
 40
0.6
 40
0.6
 40
0.6
 40
0.6333333333333333
 40
0.6333333333333333
 40
0.6333333333333333
 40
0.6333333333333333
 40
0.6666666666666666
 40
0.6666666666666666
 40
0.6666666666666666
 40
0.6666666666666666
 40
0.7
 40
0.7
 40
0.7
 40
0.7
 40
0.7333333333333333
 40
0.7333333333333333
 40
0.7333333333333333
 40
0.7333333333333333
 40
0.7666666666666667
 40
0.7666666666666667
 40
0.7666666666666667
 40
0.7666666666666667
 40
0.8
 40
0.8
 40
0.8
 40
0.8
 40
0.8333333333333334
 40
0.8333333333333334
 40
0.8333333333333334
 40
0.8333333333333334
 40
0.8666666666666667
 40
0.8666666666666667
 40
0.8666666666666667
 40
0.8666666666666667
 40
0.9
 40
0.9
 40
0.9
 40
0.9
 40
0.9333333333333333
 40
0.9333333333333333
 40
0.9333333333333333
 40
0.9333333333333333
 40
1.0
 40
1.0
 40
1.0
 40
1.0
 10
1.8175
 20
-6.4193
 30
0.0
 10
1.8175
 20
-6.4193
 30
0.0
 10
1.8175
 20
-6.1827
 30
0.0
 10
1.8175
 20
-6.1827
 30
0.0
 10
1.8175
 20
-6.1827
 30
0.0
 10
1.8175
 20
-6.1827
 30
0.0
 10
2.6731
 20
-6.1813
 30
0.0
 10
2.6731
 20
-6.1813
 30
0.0
 10
2.6731
 20
-6.1813
 30
0.0
 10
2.6731
 20
-6.1813
 30
0.0
 10
2.6731
 20
-6.9306
 30
0.0
 10
2.6731
 20
-6.9306
 30
0.0
 10
2.6731
 20
-6.9306
 30
0.0
 10
2.5419
 20
-7.0355
 30
0.0
 10
2.4064
 20
-7.1141
 30
0.0
 10
2.2667
 20
-7.1672
 30
0.0
 10
2.2667
 20
-7.1672
 30
0.0
 10
2.127
 20
-7.2199
 30
0.0
 10
1.9836
 20
-7.2462
 30
0.0
 10
1.8368
 20
-7.2462
 30
0.0
 10
1.8368
 20
-7.2462
 30
0.0
 10
1.6383
 20
-7.2462
 30
0.0
 10
1.4577
 20
-7.2039
 30
0.0
 10
1.2959
 20
-7.1188
 30
0.0
 10
1.2959
 20
-7.1188
 30
0.0
 10
1.1336
 20
-7.0341
 30
0.0
 10
1.0113
 20
-6.9109
 30
0.0
 10
0.9285
 20
-6.7505
 30
0.0
 10
0.9285
 20
-6.7505
 30
0.0
 10
0.8457
 20
-6.5896
 30
0.0
 10
0.8043
 20
-6.4099
 30
0.0
 10
0.8043
 20
-6.2114
 30
0.0
 10
0.8043
 20
-6.2114
 30
0.0
 10
0.8043
 20
-6.0148
 30
0.0
 10
0.8457
 20
-5.8314
 30
0.0
 10
0.9281
 20
-5.6611
 30
0.0
 10
0.9281
 20
-5.6611
 30
0.0
 10
1.0099
 20
-5.4904
 30
0.0
 10
1.1284
 20
-5.3638
 30
0.0
 10
1.2827
 20
-5.281
 30
0.0
 10
1.2827
 20
-5.281
 30
0.0
 10
1.437
 20
-5.1987
 30
0.0
 10
1.6148
 20
-5.1573
 30
0.0
 10
1.8161
 20
-5.1573
 30
0.0
 10
1.8161
 20
-5.1573
 30
0.0
 10
1.9619
 20
-5.1573
 30
0.0
 10
2.0941
 20
-5.1809
 30
0.0
 10
2.2122
 20
-5.2284
 30
0.0
 10
2.2122
 20
-5.2284
 30
0.0
 10
2.3302
 20
-5.2754
 30
0.0
 10
2.4229
 20
-5.3413
 30
0.0
 10
2.4897
 20
-5.4259
 30
0.0
 10
2.4897
 20
-5.4259
 30
0.0
 10
2.5569
 20
-5.5106
 30
0.0
 10
2.6077
 20
-5.6206
 30
0.0
 10
2.643
 20
-5.7566
 30
0.0
 10
2.643
 20
-5.7566
 30
0.0
 10
2.643
 20
-5.7566
 30
0.0
 10
2.4017
 20
-5.8229
 30
0.0
 10
2.4017
 20
-5.8229
 30
0.0
 10
2.4017
 20
-5.8229
 30
0.0
 10
2.3711
 20
-5.7199
 30
0.0
 10
2.3335
 20
-5.639
 30
0.0
 10
2.2888
 20
-5.5802
 30
0.0
 10
2.2888
 20
-5.5802
 30
0.0
 10
2.2437
 20
-5.5214
 30
0.0
 10
2.1792
 20
-5.4744
 30
0.0
 10
2.0955
 20
-5.4391
 30
0.0
 10
2.0955
 20
-5.4391
 30
0.0
 10
2.0122
 20
-5.4038
 30
0.0
 10
1.9191
 20
-5.3859
 30
0.0
 10
1.8175
 20
-5.3859
 30
0.0
 10
1.8175
 20
-5.3859
 30
0.0
 10
1.6952
 20
-5.3859
 30
0.0
 10
1.5894
 20
-5.4048
 30
0.0
 10
1.5005
 20
-5.4419
 30
0.0
 10
1.5005
 20
-5.4419
 30
0.0
 10
1.4111
 20
-5.4791
 30
0.0
 10
1.3396
 20
-5.528
 30
0.0
 10
1.2846
 20
-5.5887
 30
0.0
 10
1.2846
 20
-5.5887
 30
0.0
 10
1.23
 20
-5.6493
 30
0.0
 10
1.1877
 20
-5.7157
 30
0.0
 10
1.1571
 20
-5.7886
 30
0.0
 10
1.1571
 20
-5.7886
 30
0.0
 10
1.1059
 20
-5.9132
 30
0.0
 10
1.08
 20
-6.0487
 30
0.0
 10
1.08
 20
-6.195
 30
0.0
 10
1.08
 20
-6.195
 30
0.0
 10
1.08
 20
-6.3751
 30
0.0
 10
1.111
 20
-6.5256
 30
0.0
 10
1.1731
 20
-6.647
 30
0.0
 10
1.1731
 20
-6.647
 30
0.0
 10
1.2352
 20
-6.7683
 30
0.0
 10
1.3255
 20
-6.8582
 30
0.0
 10
1.444
 20
-6.917
 30
0.0
 10
1.444
 20
-6.917
 30
0.0
 10
1.5626
 20
-6.9758
 30
0.0
 10
1.6882
 20
-7.0054
 30
0.0
 10
1.8213
 20
-7.0054
 30
0.0
 10
1.8213
 20
-7.0054
 30
0.0
 10
1.9375
 20
-7.0054
 30
0.0
 10
2.0503
 20
-6.9828
 30
0.0
 10
2.1604
 20
-6.9381
 30
0.0
 10
2.1604
 20
-6.9381
 30
0.0
 10
2.271
 20
-6.8939
 30
0.0
 10
2.3542
 20
-6.8464
 30
0.0
 10
2.4111
 20
-6.7956
 30
0.0
 10
2.4111
 20
-6.7956
 30
0.0
 10
2.4111
 20
-6.7956
 30
0.0
 10
2.4111
 20
-6.4193
 30
0.0
 10
2.4111
 20
-6.4193
 30
0.0
 10
2.4111
 20
-6.4193
 30
0.0
 10
2.4111
 20
-6.4193
 30
0.0
 10
1.8175
 20
-6.4193
 30
0.0
 10
1.8175
 20
-6.4193
 30
0.0
  0
SPLINE
  5
56
330
1F
100
AcDbEntity
  8
DEFAULT_2
 62
   250
100
AcDbSpline
210
0.0
220
0.0
230
1.0
 70
    11
 71
     3
 72
    92
 73
    88
 74
     0
 42
0.0000000001
 43
0.0000000001
 40
0.0
 40
0.0
 40
0.0
 40
0.0
 40
0.0434782608695652
 40
0.0434782608695652
 40
0.0434782608695652
 40
0.0434782608695652
 40
0.0869565217391304
 40
0.0869565217391304
 40
0.0869565217391304
 40
0.0869565217391304
 40
0.1304347826086956
 40
0.1304347826086956
 40
0.1304347826086956
 40
0.1304347826086956
 40
0.1739130434782609
 40
0.1739130434782609
 40
0.1739130434782609
 40
0.1739130434782609
 40
0.2173913043478261
 40
0.2173913043478261
 40
0.2173913043478261
 40
0.2173913043478261
 40
0.2608695652173913
 40
0.2608695652173913
 40
0.2608695652173913
 40
0.2608695652173913
 40
0.3043478260869565
 40
0.3043478260869565
 40
0.3043478260869565
 40
0.3043478260869565
 40
0.3478260869565217
 40
0.3478260869565217
 40
0.3478260869565217
 40
0.3478260869565217
 40
0.391304347826087
 40
0.391304347826087
 40
0.391304347826087
 40
0.391304347826087
 40
0.4347826086956522
 40
0.4347826086956522
 40
0.4347826086956522
 40
0.4347826086956522
 40
0.4782608695652174
 40
0.4782608695652174
 40
0.4782608695652174
 40
0.4782608695652174
 40
0.5217391304347826
 40
0.5217391304347826
 40
0.5217391304347826
 40
0.5217391304347826
 40
0.5652173913043478
 40
0.5652173913043478
 40
0.5652173913043478
 40
0.5652173913043478
 40
0.6086956521739131
 40
0.6086956521739131
 40
0.6086956521739131
 40
0.6086956521739131
 40
0.6521739130434783
 40
0.6521739130434783
 40
0.6521739130434783
 40
0.6521739130434783
 40
0.6956521739130435
 40
0.6956521739130435
 40
0.6956521739130435
 40
0.6956521739130435
 40
0.7391304347826086
 40
0.7391304347826086
 40
0.7391304347826086
 40
0.7391304347826086
 40
0.782608695652174
 40
0.782608695652174
 40
0.782608695652174
 40
0.782608695652174
 40
0.8260869565217391
 40
0.8260869565217391
 40
0.8260869565217391
 40
0.8260869565217391
 40
0.8695652173913043
 40
0.8695652173913043
 40
0.8695652173913043
 40
0.8695652173913043
 40
0.9130434782608695
 40
0.9130434782608695
 40
0.9130434782608695
 40
0.9130434782608695
 40
1.0
 40
1.0
 40
1.0
 40
1.0
 10
3.7507
 20
-6.6827
 30
0.0
 10
3.7507
 20
-6.6827
 30
0.0
 10
4.0113
 20
-6.6606
 30
0.0
 10
4.0113
 20
-6.6606
 30
0.0
 10
4.0113
 20
-6.6606
 30
0.0
 10
4.0306
 20
-6.7876
 30
0.0
 10
4.0753
 20
-6.8826
 30
0.0
 10
4.1454
 20
-6.9466
 30
0.0
 10
4.1454
 20
-6.9466
 30
0.0
 10
4.2159
 20
-7.0106
 30
0.0
 10
4.3006
 20
-7.0426
 30
0.0
 10
4.3998
 20
-7.0426
 30
0.0
 10
4.3998
 20
-7.0426
 30
0.0
 10
4.5193
 20
-7.0426
 30
0.0
 10
4.6204
 20
-6.9974
 30
0.0
 10
4.7027
 20
-6.9076
 30
0.0
 10
4.7027
 20
-6.9076
 30
0.0
 10
4.7855
 20
-6.8173
 30
0.0
 10
4.8269
 20
-6.6978
 30
0.0
 10
4.8269
 20
-6.5492
 30
0.0
 10
4.8269
 20
-6.5492
 30
0.0
 10
4.8269
 20
-6.4076
 30
0.0
 10
4.7874
 20
-6.2961
 30
0.0
 10
4.7079
 20
-6.2143
 30
0.0
 10
4.7079
 20
-6.2143
 30
0.0
 10
4.6284
 20
-6.1324
 30
0.0
 10
4.5245
 20
-6.0915
 30
0.0
 10
4.3956
 20
-6.0915
 30
0.0
 10
4.3956
 20
-6.0915
 30
0.0
 10
4.3156
 20
-6.0915
 30
0.0
 10
4.2437
 20
-6.1098
 30
0.0
 10
4.1792
 20
-6.146
 30
0.0
 10
4.1792
 20
-6.146
 30
0.0
 10
4.1148
 20
-6.1823
 30
0.0
 10
4.0645
 20
-6.2293
 30
0.0
 10
4.0278
 20
-6.2872
 30
0.0
 10
4.0278
 20
-6.2872
 30
0.0
 10
4.0278
 20
-6.2872
 30
0.0
 10
3.7949
 20
-6.2571
 30
0.0
 10
3.7949
 20
-6.2571
 30
0.0
 10
3.7949
 20
-6.2571
 30
0.0
 10
3.7949
 20
-6.2571
 30
0.0
 10
3.9906
 20
-5.2194
 30
0.0
 10
3.9906
 20
-5.2194
 30
0.0
 10
3.9906
 20
-5.2194
 30
0.0
 10
3.9906
 20
-5.2194
 30
0.0
 10
4.9953
 20
-5.2194
 30
0.0
 10
4.9953
 20
-5.2194
 30
0.0
 10
4.9953
 20
-5.2194
 30
0.0
 10
4.9953
 20
-5.2194
 30
0.0
 10
4.9953
 20
-5.4565
 30
0.0
 10
4.9953
 20
-5.4565
 30
0.0
 10
4.9953
 20
-5.4565
 30
0.0
 10
4.9953
 20
-5.4565
 30
0.0
 10
4.1891
 20
-5.4565
 30
0.0
 10
4.1891
 20
-5.4565
 30
0.0
 10
4.1891
 20
-5.4565
 30
0.0
 10
4.1891
 20
-5.4565
 30
0.0
 10
4.08
 20
-5.9993
 30
0.0
 10
4.08
 20
-5.9993
 30
0.0
 10
4.08
 20
-5.9993
 30
0.0
 10
4.2013
 20
-5.9146
 30
0.0
 10
4.3288
 20
-5.8723
 30
0.0
 10
4.4619
 20
-5.8723
 30
0.0
 10
4.4619
 20
-5.8723
 30
0.0
 10
4.6383
 20
-5.8723
 30
0.0
 10
4.7869
 20
-5.9334
 30
0.0
 10
4.9083
 20
-6.0557
 30
0.0
 10
4.9083
 20
-6.0557
 30
0.0
 10
5.0296
 20
-6.178
 30
0.0
 10
5.0903
 20
-6.3351
 30
0.0
 10
5.0903
 20
-6.527
 30
0.0
 10
5.0903
 20
-6.527
 30
0.0
 10
5.0903
 20
-6.71
 30
0.0
 10
5.0367
 20
-6.8681
 30
0.0
 10
4.9304
 20
-7.0012
 30
0.0
 10
4.9304
 20
-7.0012
 30
0.0
 10
4.8006
 20
-7.1644
 30
0.0
 10
4.6237
 20
-7.2462
 30
0.0
 10
4.3998
 20
-7.2462
 30
0.0
 10
4.3998
 20
-7.2462
 30
0.0
 10
4.2159
 20
-7.2462
 30
0.0
 10
4.0659
 20
-7.195
 30
0.0
 10
3.9497
 20
-7.092
 30
0.0
 10
3.9497
 20
-7.092
 30
0.0
 10
3.8335
 20
-6.9889
 30
0.0
 10
3.7672
 20
-6.8525
 30
0.0
 10
3.7507
 20
-6.6827
 30
0.0
  0
SPLINE
  5
57
330
1F
100
AcDbEntity
  8
DEFAULT_2
 62
   250
100
AcDbSpline
210
0.0
220
0.0
230
1.0
 70
    11
 71
     3
 72
    20
 73
    16
 74
     0
 42
0.0000000001
 43
0.0000000001
 40
0.0
 40
0.0
 40
0.0
 40
0.0
 40
0.2
 40
0.2
 40
0.2
 40
0.2
 40
0.4
 40
0.4
 40
0.4
 40
0.4
 40
0.6
 40
0.6
 40
0.6
 40
0.6
 40
1.0
 40
1.0
 40
1.0
 40
1.0
 10
5.2032
 20
-7.2462
 30
0.0
 10
5.2032
 20
-7.2462
 30
0.0
 10
5.7888
 20
-5.1573
 30
0.0
 10
5.7888
 20
-5.1573
 30
0.0
 10
5.7888
 20
-5.1573
 30
0.0
 10
5.7888
 20
-5.1573
 30
0.0
 10
5.9873
 20
-5.1573
 30
0.0
 10
5.9873
 20
-5.1573
 30
0.0
 10
5.9873
 20
-5.1573
 30
0.0
 10
5.9873
 20
-5.1573
 30
0.0
 10
5.4031
 20
-7.2462
 30
0.0
 10
5.4031
 20
-7.2462
 30
0.0
 10
5.4031
 20
-7.2462
 30
0.0
 10
5.4031
 20
-7.2462
 30
0.0
 10
5.2032
 20
-7.2462
 30
0.0
 10
5.2032
 20
-7.2462
 30
0.0
  0
SPLINE
  5
58
330
1F
100
AcDbEntity
  8
DEFAULT_2
 62
   250
100
AcDbSpline
210
0.0
220
0.0
230
1.0
 70
    11
 71
     3
 72
    48
 73
    44
 74
     0
 42
0.0000000001
 43
0.0000000001
 40
0.0
 40
0.0
 40
0.0
 40
0.0
 40
0.0833333333333333
 40
0.0833333333333333
 40
0.0833333333333333
 40
0.0833333333333333
 40
0.1666666666666667
 40
0.1666666666666667
 40
0.1666666666666667
 40
0.1666666666666667
 40
0.25
 40
0.25
 40
0.25
 40
0.25
 40
0.3333333333333333
 40
0.3333333333333333
 40
0.3333333333333333
 40
0.3333333333333333
 40
0.4166666666666667
 40
0.4166666666666667
 40
0.4166666666666667
 40
0.4166666666666667
 40
0.5
 40
0.5
 40
0.5
 40
0.5
 40
0.5833333333333334
 40
0.5833333333333334
 40
0.5833333333333334
 40
0.5833333333333334
 40
0.6666666666666666
 40
0.6666666666666666
 40
0.6666666666666666
 40
0.6666666666666666
 40
0.75
 40
0.75
 40
0.75
 40
0.75
 40
0.8333333333333334
 40
0.8333333333333334
 40
0.8333333333333334
 40
0.8333333333333334
 40
1.0
 40
1.0
 40
1.0
 40
1.0
 10
6.8993
 20
-7.2119
 30
0.0
 10
6.8993
 20
-7.2119
 30
0.0
 10
6.8993
 20
-6.7284
 30
0.0
 10
6.8993
 20
-6.7284
 30
0.0
 10
6.8993
 20
-6.7284
 30
0.0
 10
6.8993
 20
-6.7284
 30
0.0
 10
6.023
 20
-6.7284
 30
0.0
 10
6.023
 20
-6.7284
 30
0.0
 10
6.023
 20
-6.7284
 30
0.0
 10
6.023
 20
-6.7284
 30
0.0
 10
6.023
 20
-6.5007
 30
0.0
 10
6.023
 20
-6.5007
 30
0.0
 10
6.023
 20
-6.5007
 30
0.0
 10
6.023
 20
-6.5007
 30
0.0
 10
6.945
 20
-5.1917
 30
0.0
 10
6.945
 20
-5.1917
 30
0.0
 10
6.945
 20
-5.1917
 30
0.0
 10
6.945
 20
-5.1917
 30
0.0
 10
7.1477
 20
-5.1917
 30
0.0
 10
7.1477
 20
-5.1917
 30
0.0
 10
7.1477
 20
-5.1917
 30
0.0
 10
7.1477
 20
-5.1917
 30
0.0
 10
7.1477
 20
-6.5007
 30
0.0
 10
7.1477
 20
-6.5007
 30
0.0
 10
7.1477
 20
-6.5007
 30
0.0
 10
7.1477
 20
-6.5007
 30
0.0
 10
7.4205
 20
-6.5007
 30
0.0
 10
7.4205
 20
-6.5007
 30
0.0
 10
7.4205
 20
-6.5007
 30
0.0
 10
7.4205
 20
-6.5007
 30
0.0
 10
7.4205
 20
-6.7284
 30
0.0
 10
7.4205
 20
-6.7284
 30
0.0
 10
7.4205
 20
-6.7284
 30
0.0
 10
7.4205
 20
-6.7284
 30
0.0
 10
7.1477
 20
-6.7284
 30
0.0
 10
7.1477
 20
-6.7284
 30
0.0
 10
7.1477
 20
-6.7284
 30
0.0
 10
7.1477
 20
-6.7284
 30
0.0
 10
7.1477
 20
-7.2119
 30
0.0
 10
7.1477
 20
-7.2119
 30
0.0
 10
7.1477
 20
-7.2119
 30
0.0
 10
7.1477
 20
-7.2119
 30
0.0
 10
6.8993
 20
-7.2119
 30
0.0
 10
6.8993
 20
-7.2119
 30
0.0
  0
SPLINE
  5
59
330
1F
100
AcDbEntity
  8
DEFAULT_2
 62
   250
100
AcDbSpline
210
0.0
220
0.0
230
1.0
 70
    11
 71
     3
 72
    16
 73
    12
 74
     0
 42
0.0000000001
 43
0.0000000001
 40
0.0
 40
0.0
 40
0.0
 40
0.0
 40
0.25
 40
0.25
 40
0.25
 40
0.25
 40
0.5
 40
0.5
 40
0.5
 40
0.5
 40
1.0
 40
1.0
 40
1.0
 40
1.0
 10
6.8993
 20
-6.5007
 30
0.0
 10
6.8993
 20
-6.5007
 30
0.0
 10
6.8993
 20
-5.5901
 30
0.0
 10
6.8993
 20
-5.5901
 30
0.0
 10
6.8993
 20
-5.5901
 30
0.0
 10
6.8993
 20
-5.5901
 30
0.0
 10
6.2672
 20
-6.5007
 30
0.0
 10
6.2672
 20
-6.5007
 30
0.0
 10
6.2672
 20
-6.5007
 30
0.0
 10
6.2672
 20
-6.5007
 30
0.0
 10
6.8993
 20
-6.5007
 30
0.0
 10
6.8993
 20
-6.5007
 30
0.0
  0
SPLINE
  5
5A
330
1F
100
AcDbEntity
  8
DEFAULT_2
 62
   250
100
AcDbSpline
210
0.0
220
0.0
230
1.0
 70
    11
 71
     3
 72
    28
 73
    24
 74
     0
 42
0.0000000001
 43
0.0000000001
 40
0.0
 40
0.0
 40
0.0
 40
0.0
 40
0.1428571428571428
 40
0.1428571428571428
 40
0.1428571428571428
 40
0.1428571428571428
 40
0.2857142857142857
 40
0.2857142857142857
 40
0.2857142857142857
 40
0.2857142857142857
 40
0.4285714285714285
 40
0.4285714285714285
 40
0.4285714285714285
 40
0.4285714285714285
 40
0.5714285714285714
 40
0.5714285714285714
 40
0.5714285714285714
 40
0.5714285714285714
 40
0.7142857142857143
 40
0.7142857142857143
 40
0.7142857142857143
 40
0.7142857142857143
 40
1.0
 40
1.0
 40
1.0
 40
1.0
 10
7.7554
 20
-5.9071
 30
0.0
 10
7.7554
 20
-5.9071
 30
0.0
 10
7.6863
 20
-5.5223
 30
0.0
 10
7.6863
 20
-5.5223
 30
0.0
 10
7.6863
 20
-5.5223
 30
0.0
 10
7.6863
 20
-5.5223
 30
0.0
 10
7.6863
 20
-5.1917
 30
0.0
 10
7.6863
 20
-5.1917
 30
0.0
 10
7.6863
 20
-5.1917
 30
0.0
 10
7.6863
 20
-5.1917
 30
0.0
 10
7.9689
 20
-5.1917
 30
0.0
 10
7.9689
 20
-5.1917
 30
0.0
 10
7.9689
 20
-5.1917
 30
0.0
 10
7.9689
 20
-5.1917
 30
0.0
 10
7.9689
 20
-5.5223
 30
0.0
 10
7.9689
 20
-5.5223
 30
0.0
 10
7.9689
 20
-5.5223
 30
0.0
 10
7.9689
 20
-5.5223
 30
0.0
 10
7.9069
 20
-5.9071
 30
0.0
 10
7.9069
 20
-5.9071
 30
0.0
 10
7.9069
 20
-5.9071
 30
0.0
 10
7.9069
 20
-5.9071
 30
0.0
 10
7.7554
 20
-5.9071
 30
0.0
 10
7.7554
 20
-5.9071
 30
0.0
  0
SPLINE
  5
5B
330
1F
100
AcDbEntity
  8
DEFAULT_2
 62
   250
100
AcDbSpline
210
0.0
220
0.0
230
1.0
 70
    11
 71
     3
 72
    28
 73
    24
 74
     0
 42
0.0000000001
 43
0.0000000001
 40
0.0
 40
0.0
 40
0.0
 40
0.0
 40
0.1428571428571428
 40
0.1428571428571428
 40
0.1428571428571428
 40
0.1428571428571428
 40
0.2857142857142857
 40
0.2857142857142857
 40
0.2857142857142857
 40
0.2857142857142857
 40
0.4285714285714285
 40
0.4285714285714285
 40
0.4285714285714285
 40
0.4285714285714285
 40
0.5714285714285714
 40
0.5714285714285714
 40
0.5714285714285714
 40
0.5714285714285714
 40
0.7142857142857143
 40
0.7142857142857143
 40
0.7142857142857143
 40
0.7142857142857143
 40
1.0
 40
1.0
 40
1.0
 40
1.0
 10
8.2117
 20
-5.9071
 30
0.0
 10
8.2117
 20
-5.9071
 30
0.0
 10
8.1439
 20
-5.5223
 30
0.0
 10
8.1439
 20
-5.5223
 30
0.0
 10
8.1439
 20
-5.5223
 30
0.0
 10
8.1439
 20
-5.5223
 30
0.0
 10
8.1439
 20
-5.1917
 30
0.0
 10
8.1439
 20
-5.1917
 30
0.0
 10
8.1439
 20
-5.1917
 30
0.0
 10
8.1439
 20
-5.1917
 30
0.0
 10
8.4266
 20
-5.1917
 30
0.0
 10
8.4266
 20
-5.1917
 30
0.0
 10
8.4266
 20
-5.1917
 30
0.0
 10
8.4266
 20
-5.1917
 30
0.0
 10
8.4266
 20
-5.5223
 30
0.0
 10
8.4266
 20
-5.5223
 30
0.0
 10
8.4266
 20
-5.5223
 30
0.0
 10
8.4266
 20
-5.5223
 30
0.0
 10
8.3603
 20
-5.9071
 30
0.0
 10
8.3603
 20
-5.9071
 30
0.0
 10
8.3603
 20
-5.9071
 30
0.0
 10
8.3603
 20
-5.9071
 30
0.0
 10
8.2117
 20
-5.9071
 30
0.0
 10
8.2117
 20
-5.9071
 30
0.0
  0
SPLINE
  5
5C
330
1F
100
AcDbEntity
  8
DEFAULT_2
 62
   250
100
AcDbSpline
210
0.0
220
0.0
230
1.0
 70
    11
 71
     3
 72
    84
 73
    80
 74
     0
 42
0.0000000001
 43
0.0000000001
 40
0.0
 40
0.0
 40
0.0
 40
0.0
 40
0.0476190476190476
 40
0.0476190476190476
 40
0.0476190476190476
 40
0.0476190476190476
 40
0.0952380952380952
 40
0.0952380952380952
 40
0.0952380952380952
 40
0.0952380952380952
 40
0.1428571428571428
 40
0.1428571428571428
 40
0.1428571428571428
 40
0.1428571428571428
 40
0.1904761904761905
 40
0.1904761904761905
 40
0.1904761904761905
 40
0.1904761904761905
 40
0.2380952380952381
 40
0.2380952380952381
 40
0.2380952380952381
 40
0.2380952380952381
 40
0.2857142857142857
 40
0.2857142857142857
 40
0.2857142857142857
 40
0.2857142857142857
 40
0.3333333333333333
 40
0.3333333333333333
 40
0.3333333333333333
 40
0.3333333333333333
 40
0.3809523809523809
 40
0.3809523809523809
 40
0.3809523809523809
 40
0.3809523809523809
 40
0.4285714285714285
 40
0.4285714285714285
 40
0.4285714285714285
 40
0.4285714285714285
 40
0.4761904761904762
 40
0.4761904761904762
 40
0.4761904761904762
 40
0.4761904761904762
 40
0.5238095238095238
 40
0.5238095238095238
 40
0.5238095238095238
 40
0.5238095238095238
 40
0.5714285714285714
 40
0.5714285714285714
 40
0.5714285714285714
 40
0.5714285714285714
 40
0.6190476190476191
 40
0.6190476190476191
 40
0.6190476190476191
 40
0.6190476190476191
 40
0.6666666666666666
 40
0.6666666666666666
 40
0.6666666666666666
 40
0.6666666666666666
 40
0.7142857142857143
 40
0.7142857142857143
 40
0.7142857142857143
 40
0.7142857142857143
 40
0.7619047619047619
 40
0.7619047619047619
 40
0.7619047619047619
 40
0.7619047619047619
 40
0.8095238095238095
 40
0.8095238095238095
 40
0.8095238095238095
 40
0.8095238095238095
 40
0.8571428571428571
 40
0.8571428571428571
 40
0.8571428571428571
 40
0.8571428571428571
 40
0.9047619047619048
 40
0.9047619047619048
 40
0.9047619047619048
 40
0.9047619047619048
 40
1.0
 40
1.0
 40
1.0
 40
1.0
 10
3.5576
 20
9.5355
 30
0.0
 10
3.5576
 20
9.5355
 30
0.0
 10
3.789
 20
9.7946
 30
0.0
 10
3.789
 20
9.7946
 30
0.0
 10
3.789
 20
9.7946
 30
0.0
 10
3.789
 20
9.7946
 30
0.0
 10
3.9254
 20
9.6789
 30
0.0
 10
3.9254
 20
9.6789
 30
0.0
 10
3.9254
 20
9.6789
 30
0.0
 10
3.9254
 20
9.6789
 30
0.0
 10
3.6832
 20
9.4061
 30
0.0
 10
3.6832
 20
9.4061
 30
0.0
 10
3.6832
 20
9.4061
 30
0.0
 10
3.7622
 20
9.2885
 30
0.0
 10
3.8153
 20
9.1855
 30
0.0
 10
3.8431
 20
9.0976
 30
0.0
 10
3.8431
 20
9.0976
 30
0.0
 10
3.8798
 20
8.9818
 30
0.0
 10
3.8981
 20
8.852
 30
0.0
 10
3.8981
 20
8.709
 30
0.0
 10
3.8981
 20
8.709
 30
0.0
 10
3.8981
 20
8.5021
 30
0.0
 10
3.8563
 20
8.3177
 30
0.0
 10
3.7725
 20
8.1564
 30
0.0
 10
3.7725
 20
8.1564
 30
0.0
 10
3.6888
 20
7.9945
 30
0.0
 10
3.5717
 20
7.8723
 30
0.0
 10
3.4207
 20
7.7895
 30
0.0
 10
3.4207
 20
7.7895
 30
0.0
 10
3.2692
 20
7.7072
 30
0.0
 10
3.1089
 20
7.6658
 30
0.0
 10
2.9391
 20
7.6658
 30
0.0
 10
2.9391
 20
7.6658
 30
0.0
 10
2.8121
 20
7.6658
 30
0.0
 10
2.6973
 20
7.6836
 30
0.0
 10
2.5943
 20
7.7194
 30
0.0
 10
2.5943
 20
7.7194
 30
0.0
 10
2.5153
 20
7.7471
 30
0.0
 10
2.4231
 20
7.7998
 30
0.0
 10
2.3172
 20
7.8779
 30
0.0
 10
2.3172
 20
7.8779
 30
0.0
 10
2.3172
 20
7.8779
 30
0.0
 10
2.0858
 20
7.6187
 30
0.0
 10
2.0858
 20
7.6187
 30
0.0
 10
2.0858
 20
7.6187
 30
0.0
 10
2.0858
 20
7.6187
 30
0.0
 10
1.9494
 20
7.7344
 30
0.0
 10
1.9494
 20
7.7344
 30
0.0
 10
1.9494
 20
7.7344
 30
0.0
 10
1.9494
 20
7.7344
 30
0.0
 10
2.1921
 20
8.0058
 30
0.0
 10
2.1921
 20
8.0058
 30
0.0
 10
2.1921
 20
8.0058
 30
0.0
 10
2.1018
 20
8.1427
 30
0.0
 10
2.0416
 20
8.2598
 30
0.0
 10
2.0115
 20
8.3567
 30
0.0
 10
2.0115
 20
8.3567
 30
0.0
 10
1.9814
 20
8.4536
 30
0.0
 10
1.9659
 20
8.5703
 30
0.0
 10
1.9659
 20
8.7062
 30
0.0
 10
1.9659
 20
8.7062
 30
0.0
 10
1.9659
 20
8.9136
 30
0.0
 10
2.0073
 20
9.0985
 30
0.0
 10
2.09
 20
9.2608
 30
0.0
 10
2.09
 20
9.2608
 30
0.0
 10
2.1728
 20
9.4231
 30
0.0
 10
2.2885
 20
9.5458
 30
0.0
 10
2.4381
 20
9.6295
 30
0.0
 10
2.4381
 20
9.6295
 30
0.0
 10
2.5872
 20
9.7128
 30
0.0
 10
2.7533
 20
9.7547
 30
0.0
 10
2.9362
 20
9.7547
 30
0.0
 10
2.9362
 20
9.7547
 30
0.0
 10
3.0595
 20
9.7547
 30
0.0
 10
3.1672
 20
9.7387
 30
0.0
 10
3.2594
 20
9.7057
 30
0.0
 10
3.2594
 20
9.7057
 30
0.0
 10
3.3516
 20
9.6733
 30
0.0
 10
3.4513
 20
9.6164
 30
0.0
 10
3.5576
 20
9.5355
 30
0.0
  0
SPLINE
  5
5D
330
1F
100
AcDbEntity
  8
DEFAULT_2
 62
   250
100
AcDbSpline
210
0.0
220
0.0
230
1.0
 70
    11
 71
     3
 72
    32
 73
    28
 74
     0
 42
0.0000000001
 43
0.0000000001
 40
0.0
 40
0.0
 40
0.0
 40
0.0
 40
0.125
 40
0.125
 40
0.125
 40
0.125
 40
0.25
 40
0.25
 40
0.25
 40
0.25
 40
0.375
 40
0.375
 40
0.375
 40
0.375
 40
0.5
 40
0.5
 40
0.5
 40
0.5
 40
0.625
 40
0.625
 40
0.625
 40
0.625
 40
0.75
 40
0.75
 40
0.75
 40
0.75
 40
1.0
 40
1.0
 40
1.0
 40
1.0
 10
3.3925
 20
9.3497
 30
0.0
 10
3.3059
 20
9.4174
 30
0.0
 10
3.2302
 20
9.464
 30
0.0
 10
3.1658
 20
9.4889
 30
0.0
 10
3.1658
 20
9.4889
 30
0.0
 10
3.1009
 20
9.5134
 30
0.0
 10
3.0247
 20
9.5261
 30
0.0
 10
2.9376
 20
9.5261
 30
0.0
 10
2.9376
 20
9.5261
 30
0.0
 10
2.7363
 20
9.5261
 30
0.0
 10
2.5703
 20
9.4579
 30
0.0
 10
2.4386
 20
9.3215
 30
0.0
 10
2.4386
 20
9.3215
 30
0.0
 10
2.3073
 20
9.185
 30
0.0
 10
2.2415
 20
8.9814
 30
0.0
 10
2.2415
 20
8.71
 30
0.0
 10
2.2415
 20
8.71
 30
0.0
 10
2.2415
 20
8.6037
 30
0.0
 10
2.2518
 20
8.5091
 30
0.0
 10
2.2721
 20
8.4263
 30
0.0
 10
2.2721
 20
8.4263
 30
0.0
 10
2.2867
 20
8.3647
 30
0.0
 10
2.3172
 20
8.289
 30
0.0
 10
2.3643
 20
8.1992
 30
0.0
 10
2.3643
 20
8.1992
 30
0.0
 10
2.3643
 20
8.1992
 30
0.0
 10
3.3925
 20
9.3497
 30
0.0
 10
3.3925
 20
9.3497
 30
0.0
  0
SPLINE
  5
5E
330
1F
100
AcDbEntity
  8
DEFAULT_2
 62
   250
100
AcDbSpline
210
0.0
220
0.0
230
1.0
 70
    11
 71
     3
 72
    28
 73
    24
 74
     0
 42
0.0000000001
 43
0.0000000001
 40
0.0
 40
0.0
 40
0.0
 40
0.0
 40
0.1428571428571428
 40
0.1428571428571428
 40
0.1428571428571428
 40
0.1428571428571428
 40
0.2857142857142857
 40
0.2857142857142857
 40
0.2857142857142857
 40
0.2857142857142857
 40
0.4285714285714285
 40
0.4285714285714285
 40
0.4285714285714285
 40
0.4285714285714285
 40
0.5714285714285714
 40
0.5714285714285714
 40
0.5714285714285714
 40
0.5714285714285714
 40
0.7142857142857143
 40
0.7142857142857143
 40
0.7142857142857143
 40
0.7142857142857143
 40
1.0
 40
1.0
 40
1.0
 40
1.0
 10
3.5054
 20
9.2076
 30
0.0
 10
3.5054
 20
9.2076
 30
0.0
 10
2.4814
 20
8.0613
 30
0.0
 10
2.4814
 20
8.0613
 30
0.0
 10
2.4814
 20
8.0613
 30
0.0
 10
2.5519
 20
8.0035
 30
0.0
 10
2.6173
 20
7.963
 30
0.0
 10
2.6771
 20
7.94
 30
0.0
 10
2.6771
 20
7.94
 30
0.0
 10
2.7551
 20
7.9094
 30
0.0
 10
2.8398
 20
7.8944
 30
0.0
 10
2.9306
 20
7.8944
 30
0.0
 10
2.9306
 20
7.8944
 30
0.0
 10
3.131
 20
7.8944
 30
0.0
 10
3.2961
 20
7.9649
 30
0.0
 10
3.4268
 20
8.1065
 30
0.0
 10
3.4268
 20
8.1065
 30
0.0
 10
3.5571
 20
8.2481
 30
0.0
 10
3.6225
 20
8.4466
 30
0.0
 10
3.6225
 20
8.702
 30
0.0
 10
3.6225
 20
8.702
 30
0.0
 10
3.6225
 20
8.8929
 30
0.0
 10
3.5835
 20
9.0618
 30
0.0
 10
3.5054
 20
9.2076
 30
0.0
  0
SPLINE
  5
5F
330
1F
100
AcDbEntity
  8
DEFAULT_2
 62
   250
100
AcDbSpline
210
0.0
220
0.0
230
1.0
 70
    11
 71
     3
 72
    48
 73
    44
 74
     0
 42
0.0000000001
 43
0.0000000001
 40
0.0
 40
0.0
 40
0.0
 40
0.0
 40
0.0833333333333333
 40
0.0833333333333333
 40
0.0833333333333333
 40
0.0833333333333333
 40
0.1666666666666667
 40
0.1666666666666667
 40
0.1666666666666667
 40
0.1666666666666667
 40
0.25
 40
0.25
 40
0.25
 40
0.25
 40
0.3333333333333333
 40
0.3333333333333333
 40
0.3333333333333333
 40
0.3333333333333333
 40
0.4166666666666667
 40
0.4166666666666667
 40
0.4166666666666667
 40
0.4166666666666667
 40
0.5
 40
0.5
 40
0.5
 40
0.5
 40
0.5833333333333334
 40
0.5833333333333334
 40
0.5833333333333334
 40
0.5833333333333334
 40
0.6666666666666666
 40
0.6666666666666666
 40
0.6666666666666666
 40
0.6666666666666666
 40
0.75
 40
0.75
 40
0.75
 40
0.75
 40
0.8333333333333334
 40
0.8333333333333334
 40
0.8333333333333334
 40
0.8333333333333334
 40
1.0
 40
1.0
 40
1.0
 40
1.0
 10
4.9423
 20
7.7001
 30
0.0
 10
4.9423
 20
7.7001
 30
0.0
 10
4.9423
 20
8.1836
 30
0.0
 10
4.9423
 20
8.1836
 30
0.0
 10
4.9423
 20
8.1836
 30
0.0
 10
4.9423
 20
8.1836
 30
0.0
 10
4.066
 20
8.1836
 30
0.0
 10
4.066
 20
8.1836
 30
0.0
 10
4.066
 20
8.1836
 30
0.0
 10
4.066
 20
8.1836
 30
0.0
 10
4.066
 20
8.4113
 30
0.0
 10
4.066
 20
8.4113
 30
0.0
 10
4.066
 20
8.4113
 30
0.0
 10
4.066
 20
8.4113
 30
0.0
 10
4.988
 20
9.7203
 30
0.0
 10
4.988
 20
9.7203
 30
0.0
 10
4.988
 20
9.7203
 30
0.0
 10
4.988
 20
9.7203
 30
0.0
 10
5.1907
 20
9.7203
 30
0.0
 10
5.1907
 20
9.7203
 30
0.0
 10
5.1907
 20
9.7203
 30
0.0
 10
5.1907
 20
9.7203
 30
0.0
 10
5.1907
 20
8.4113
 30
0.0
 10
5.1907
 20
8.4113
 30
0.0
 10
5.1907
 20
8.4113
 30
0.0
 10
5.1907
 20
8.4113
 30
0.0
 10
5.4635
 20
8.4113
 30
0.0
 10
5.4635
 20
8.4113
 30
0.0
 10
5.4635
 20
8.4113
 30
0.0
 10
5.4635
 20
8.4113
 30
0.0
 10
5.4635
 20
8.1836
 30
0.0
 10
5.4635
 20
8.1836
 30
0.0
 10
5.4635
 20
8.1836
 30
0.0
 10
5.4635
 20
8.1836
 30
0.0
 10
5.1907
 20
8.1836
 30
0.0
 10
5.1907
 20
8.1836
 30
0.0
 10
5.1907
 20
8.1836
 30
0.0
 10
5.1907
 20
8.1836
 30
0.0
 10
5.1907
 20
7.7001
 30
0.0
 10
5.1907
 20
7.7001
 30
0.0
 10
5.1907
 20
7.7001
 30
0.0
 10
5.1907
 20
7.7001
 30
0.0
 10
4.9423
 20
7.7001
 30
0.0
 10
4.9423
 20
7.7001
 30
0.0
  0
SPLINE
  5
60
330
1F
100
AcDbEntity
  8
DEFAULT_2
 62
   250
100
AcDbSpline
210
0.0
220
0.0
230
1.0
 70
    11
 71
     3
 72
    16
 73
    12
 74
     0
 42
0.0000000001
 43
0.0000000001
 40
0.0
 40
0.0
 40
0.0
 40
0.0
 40
0.25
 40
0.25
 40
0.25
 40
0.25
 40
0.5
 40
0.5
 40
0.5
 40
0.5
 40
1.0
 40
1.0
 40
1.0
 40
1.0
 10
4.9423
 20
8.4113
 30
0.0
 10
4.9423
 20
8.4113
 30
0.0
 10
4.9423
 20
9.3219
 30
0.0
 10
4.9423
 20
9.3219
 30
0.0
 10
4.9423
 20
9.3219
 30
0.0
 10
4.9423
 20
9.3219
 30
0.0
 10
4.3102
 20
8.4113
 30
0.0
 10
4.3102
 20
8.4113
 30
0.0
 10
4.3102
 20
8.4113
 30
0.0
 10
4.3102
 20
8.4113
 30
0.0
 10
4.9423
 20
8.4113
 30
0.0
 10
4.9423
 20
8.4113
 30
0.0
  0
SPLINE
  5
61
330
1F
100
AcDbEntity
  8
DEFAULT_2
 62
   250
100
AcDbSpline
210
0.0
220
0.0
230
1.0
 70
    11
 71
     3
 72
   124
 73
   120
 74
     0
 42
0.0000000001
 43
0.0000000001
 40
0.0
 40
0.0
 40
0.0
 40
0.0
 40
0.032258064516129
 40
0.032258064516129
 40
0.032258064516129
 40
0.032258064516129
 40
0.0645161290322581
 40
0.0645161290322581
 40
0.0645161290322581
 40
0.0645161290322581
 40
0.0967741935483871
 40
0.0967741935483871
 40
0.0967741935483871
 40
0.0967741935483871
 40
0.1290322580645161
 40
0.1290322580645161
 40
0.1290322580645161
 40
0.1290322580645161
 40
0.1612903225806452
 40
0.1612903225806452
 40
0.1612903225806452
 40
0.1612903225806452
 40
0.1935483870967742
 40
0.1935483870967742
 40
0.1935483870967742
 40
0.1935483870967742
 40
0.2258064516129032
 40
0.2258064516129032
 40
0.2258064516129032
 40
0.2258064516129032
 40
0.2580645161290323
 40
0.2580645161290323
 40
0.2580645161290323
 40
0.2580645161290323
 40
0.2903225806451613
 40
0.2903225806451613
 40
0.2903225806451613
 40
0.2903225806451613
 40
0.3225806451612903
 40
0.3225806451612903
 40
0.3225806451612903
 40
0.3225806451612903
 40
0.3548387096774194
 40
0.3548387096774194
 40
0.3548387096774194
 40
0.3548387096774194
 40
0.3870967741935484
 40
0.3870967741935484
 40
0.3870967741935484
 40
0.3870967741935484
 40
0.4193548387096774
 40
0.4193548387096774
 40
0.4193548387096774
 40
0.4193548387096774
 40
0.4516129032258064
 40
0.4516129032258064
 40
0.4516129032258064
 40
0.4516129032258064
 40
0.4838709677419355
 40
0.4838709677419355
 40
0.4838709677419355
 40
0.4838709677419355
 40
0.5161290322580645
 40
0.5161290322580645
 40
0.5161290322580645
 40
0.5161290322580645
 40
0.5483870967741935
 40
0.5483870967741935
 40
0.5483870967741935
 40
0.5483870967741935
 40
0.5806451612903226
 40
0.5806451612903226
 40
0.5806451612903226
 40
0.5806451612903226
 40
0.6129032258064516
 40
0.6129032258064516
 40
0.6129032258064516
 40
0.6129032258064516
 40
0.6451612903225806
 40
0.6451612903225806
 40
0.6451612903225806
 40
0.6451612903225806
 40
0.6774193548387096
 40
0.6774193548387096
 40
0.6774193548387096
 40
0.6774193548387096
 40
0.7096774193548387
 40
0.7096774193548387
 40
0.7096774193548387
 40
0.7096774193548387
 40
0.7419354838709677
 40
0.7419354838709677
 40
0.7419354838709677
 40
0.7419354838709677
 40
0.7741935483870968
 40
0.7741935483870968
 40
0.7741935483870968
 40
0.7741935483870968
 40
0.8064516129032258
 40
0.8064516129032258
 40
0.8064516129032258
 40
0.8064516129032258
 40
0.8387096774193549
 40
0.8387096774193549
 40
0.8387096774193549
 40
0.8387096774193549
 40
0.8709677419354839
 40
0.8709677419354839
 40
0.8709677419354839
 40
0.8709677419354839
 40
0.9032258064516129
 40
0.9032258064516129
 40
0.9032258064516129
 40
0.9032258064516129
 40
0.9354838709677419
 40
0.9354838709677419
 40
0.9354838709677419
 40
0.9354838709677419
 40
1.0
 40
1.0
 40
1.0
 40
1.0
 10
5.7184
 20
8.2335
 30
0.0
 10
5.7184
 20
8.2335
 30
0.0
 10
5.9663
 20
8.2664
 30
0.0
 10
5.9663
 20
8.2664
 30
0.0
 10
5.9663
 20
8.2664
 30
0.0
 10
5.995
 20
8.1258
 30
0.0
 10
6.0435
 20
8.0247
 30
0.0
 10
6.1117
 20
7.9626
 30
0.0
 10
6.1117
 20
7.9626
 30
0.0
 10
6.1803
 20
7.9005
 30
0.0
 10
6.2636
 20
7.8694
 30
0.0
 10
6.3619
 20
7.8694
 30
0.0
 10
6.3619
 20
7.8694
 30
0.0
 10
6.4785
 20
7.8694
 30
0.0
 10
6.5773
 20
7.9099
 30
0.0
 10
6.6578
 20
7.9908
 30
0.0
 10
6.6578
 20
7.9908
 30
0.0
 10
6.7377
 20
8.0717
 30
0.0
 10
6.7782
 20
8.1719
 30
0.0
 10
6.7782
 20
8.2914
 30
0.0
 10
6.7782
 20
8.2914
 30
0.0
 10
6.7782
 20
8.4052
 30
0.0
 10
6.741
 20
8.4993
 30
0.0
 10
6.6667
 20
8.5731
 30
0.0
 10
6.6667
 20
8.5731
 30
0.0
 10
6.5919
 20
8.6469
 30
0.0
 10
6.4974
 20
8.6841
 30
0.0
 10
6.3826
 20
8.6841
 30
0.0
 10
6.3826
 20
8.6841
 30
0.0
 10
6.3356
 20
8.6841
 30
0.0
 10
6.2772
 20
8.6747
 30
0.0
 10
6.2076
 20
8.6564
 30
0.0
 10
6.2076
 20
8.6564
 30
0.0
 10
6.2076
 20
8.6564
 30
0.0
 10
6.2354
 20
8.8741
 30
0.0
 10
6.2354
 20
8.8741
 30
0.0
 10
6.2354
 20
8.8741
 30
0.0
 10
6.2518
 20
8.8723
 30
0.0
 10
6.265
 20
8.8713
 30
0.0
 10
6.2753
 20
8.8713
 30
0.0
 10
6.2753
 20
8.8713
 30
0.0
 10
6.3807
 20
8.8713
 30
0.0
 10
6.4757
 20
8.8991
 30
0.0
 10
6.5604
 20
8.9541
 30
0.0
 10
6.5604
 20
8.9541
 30
0.0
 10
6.6451
 20
9.0091
 30
0.0
 10
6.6874
 20
9.0943
 30
0.0
 10
6.6874
 20
9.209
 30
0.0
 10
6.6874
 20
9.209
 30
0.0
 10
6.6874
 20
9.2998
 30
0.0
 10
6.6563
 20
9.3755
 30
0.0
 10
6.5947
 20
9.4348
 30
0.0
 10
6.5947
 20
9.4348
 30
0.0
 10
6.5331
 20
9.4945
 30
0.0
 10
6.4536
 20
9.5247
 30
0.0
 10
6.3562
 20
9.5247
 30
0.0
 10
6.3562
 20
9.5247
 30
0.0
 10
6.2598
 20
9.5247
 30
0.0
 10
6.1794
 20
9.4941
 30
0.0
 10
6.1154
 20
9.4339
 30
0.0
 10
6.1154
 20
9.4339
 30
0.0
 10
6.051
 20
9.3732
 30
0.0
 10
6.0096
 20
9.2819
 30
0.0
 10
5.9912
 20
9.1606
 30
0.0
 10
5.9912
 20
9.1606
 30
0.0
 10
5.9912
 20
9.1606
 30
0.0
 10
5.7434
 20
9.2048
 30
0.0
 10
5.7434
 20
9.2048
 30
0.0
 10
5.7434
 20
9.2048
 30
0.0
 10
5.7735
 20
9.3713
 30
0.0
 10
5.8426
 20
9.5002
 30
0.0
 10
5.9499
 20
9.5914
 30
0.0
 10
5.9499
 20
9.5914
 30
0.0
 10
6.0576
 20
9.6827
 30
0.0
 10
6.1912
 20
9.7288
 30
0.0
 10
6.3511
 20
9.7288
 30
0.0
 10
6.3511
 20
9.7288
 30
0.0
 10
6.4611
 20
9.7288
 30
0.0
 10
6.5627
 20
9.7048
 30
0.0
 10
6.6554
 20
9.6578
 30
0.0
 10
6.6554
 20
9.6578
 30
0.0
 10
6.7481
 20
9.6103
 30
0.0
 10
6.8191
 20
9.5458
 30
0.0
 10
6.8685
 20
9.464
 30
0.0
 10
6.8685
 20
9.464
 30
0.0
 10
6.9174
 20
9.3821
 30
0.0
 10
6.9423
 20
9.2956
 30
0.0
 10
6.9423
 20
9.2034
 30
0.0
 10
6.9423
 20
9.2034
 30
0.0
 10
6.9423
 20
9.1164
 30
0.0
 10
6.9188
 20
9.0369
 30
0.0
 10
6.8718
 20
8.9649
 30
0.0
 10
6.8718
 20
8.9649
 30
0.0
 10
6.8247
 20
8.8934
 30
0.0
 10
6.7556
 20
8.8365
 30
0.0
 10
6.6639
 20
8.7942
 30
0.0
 10
6.6639
 20
8.7942
 30
0.0
 10
6.7833
 20
8.7669
 30
0.0
 10
6.876
 20
8.7095
 30
0.0
 10
6.9423
 20
8.6225
 30
0.0
 10
6.9423
 20
8.6225
 30
0.0
 10
7.0082
 20
8.5359
 30
0.0
 10
7.0411
 20
8.4273
 30
0.0
 10
7.0411
 20
8.297
 30
0.0
 10
7.0411
 20
8.297
 30
0.0
 10
7.0411
 20
8.1206
 30
0.0
 10
6.9771
 20
7.971
 30
0.0
 10
6.8483
 20
7.8483
 30
0.0
 10
6.8483
 20
7.8483
 30
0.0
 10
6.7198
 20
7.7255
 30
0.0
 10
6.5571
 20
7.6644
 30
0.0
 10
6.3605
 20
7.6644
 30
0.0
 10
6.3605
 20
7.6644
 30
0.0
 10
6.1832
 20
7.6644
 30
0.0
 10
6.0359
 20
7.717
 30
0.0
 10
5.9188
 20
7.8229
 30
0.0
 10
5.9188
 20
7.8229
 30
0.0
 10
5.8017
 20
7.9282
 30
0.0
 10
5.7349
 20
8.0651
 30
0.0
 10
5.7184
 20
8.2335
 30
0.0
  0
SPLINE
  5
62
330
1F
100
AcDbEntity
  8
DEFAULT_2
 62
   250
100
AcDbSpline
210
0.0
220
0.0
230
1.0
 70
    11
 71
     3
 72
    20
 73
    16
 74
     0
 42
0.0000000001
 43
0.0000000001
 40
0.0
 40
0.0
 40
0.0
 40
0.0
 40
0.2
 40
0.2
 40
0.2
 40
0.2
 40
0.4
 40
0.4
 40
0.4
 40
0.4
 40
0.6
 40
0.6
 40
0.6
 40
0.6
 40
1.0
 40
1.0
 40
1.0
 40
1.0
 10
8.3444
 20
7.5895
 30
0.0
 10
8.3444
 20
7.5895
 30
0.0
 10
11.0545
 20
7.207
 30
0.0
 10
11.0545
 20
7.207
 30
0.0
 10
11.0545
 20
7.207
 30
0.0
 10
11.0545
 20
7.207
 30
0.0
 10
11.0545
 20
7.122
 30
0.0
 10
11.0545
 20
7.122
 30
0.0
 10
11.0545
 20
7.122
 30
0.0
 10
11.0545
 20
7.122
 30
0.0
 10
8.3444
 20
6.7141
 30
0.0
 10
8.3444
 20
6.7141
 30
0.0
 10
8.3444
 20
6.7141
 30
0.0
 10
8.3444
 20
6.7141
 30
0.0
 10
8.3444
 20
7.5895
 30
0.0
 10
8.3444
 20
7.5895
 30
0.0
  0
SPLINE
  5
63
330
1F
100
AcDbEntity
  8
DEFAULT_2
 62
   250
100
AcDbSpline
210
0.0
220
0.0
230
1.0
 70
    11
 71
     3
 72
    20
 73
    16
 74
     0
 42
0.0000000001
 43
0.0000000001
 40
0.0
 40
0.0
 40
0.0
 40
0.0
 40
0.2
 40
0.2
 40
0.2
 40
0.2
 40
0.4
 40
0.4
 40
0.4
 40
0.4
 40
0.6
 40
0.6
 40
0.6
 40
0.6
 40
1.0
 40
1.0
 40
1.0
 40
1.0
 10
-0.2346
 20
6.7141
 30
0.0
 10
-0.2346
 20
6.7141
 30
0.0
 10
-2.9447
 20
7.0966
 30
0.0
 10
-2.9447
 20
7.0966
 30
0.0
 10
-2.9447
 20
7.0966
 30
0.0
 10
-2.9447
 20
7.0966
 30
0.0
 10
-2.9447
 20
7.1815
 30
0.0
 10
-2.9447
 20
7.1815
 30
0.0
 10
-2.9447
 20
7.1815
 30
0.0
 10
-2.9447
 20
7.1815
 30
0.0
 10
-0.2346
 20
7.5894
 30
0.0
 10
-0.2346
 20
7.5894
 30
0.0
 10
-0.2346
 20
7.5894
 30
0.0
 10
-0.2346
 20
7.5894
 30
0.0
 10
-0.2346
 20
6.7141
 30
0.0
 10
-0.2346
 20
6.7141
 30
0.0
  0
SPLINE
  5
64
330
1F
100
AcDbEntity
  8
DEFAULT_2
 62
   250
100
AcDbSpline
210
0.0
220
0.0
230
1.0
 70
    11
 71
     3
 72
    40
 73
    36
 74
     0
 42
0.0000000001
 43
0.0000000001
 40
0.0
 40
0.0
 40
0.0
 40
0.0
 40
0.1
 40
0.1
 40
0.1
 40
0.1
 40
0.2
 40
0.2
 40
0.2
 40
0.2
 40
0.3
 40
0.3
 40
0.3
 40
0.3
 40
0.4
 40
0.4
 40
0.4
 40
0.4
 40
0.5
 40
0.5
 40
0.5
 40
0.5
 40
0.6
 40
0.6
 40
0.6
 40
0.6
 40
0.7
 40
0.7
 40
0.7
 40
0.7
 40
0.8
 40
0.8
 40
0.8
 40
0.8
 40
1.0
 40
1.0
 40
1.0
 40
1.0
 10
-8.8617
 20
-1.7983
 30
0.0
 10
-8.8617
 20
-1.7983
 30
0.0
 10
-8.8617
 20
-2.0462
 30
0.0
 10
-8.8617
 20
-2.0462
 30
0.0
 10
-8.8617
 20
-2.0462
 30
0.0
 10
-8.8617
 20
-2.0462
 30
0.0
 10
-10.4421
 20
-2.0462
 30
0.0
 10
-10.4421
 20
-2.0462
 30
0.0
 10
-10.4421
 20
-2.0462
 30
0.0
 10
-10.3852
 20
-2.106
 30
0.0
 10
-10.3283
 20
-2.184
 30
0.0
 10
-10.2714
 20
-2.2809
 30
0.0
 10
-10.2714
 20
-2.2809
 30
0.0
 10
-10.2145
 20
-2.3783
 30
0.0
 10
-10.1717
 20
-2.4653
 30
0.0
 10
-10.1434
 20
-2.5425
 30
0.0
 10
-10.1434
 20
-2.5425
 30
0.0
 10
-10.1434
 20
-2.5425
 30
0.0
 10
-10.3829
 20
-2.5425
 30
0.0
 10
-10.3829
 20
-2.5425
 30
0.0
 10
-10.3829
 20
-2.5425
 30
0.0
 10
-10.4482
 20
-2.4037
 30
0.0
 10
-10.5273
 20
-2.2823
 30
0.0
 10
-10.6199
 20
-2.1784
 30
0.0
 10
-10.6199
 20
-2.1784
 30
0.0
 10
-10.7131
 20
-2.0749
 30
0.0
 10
-10.8029
 20
-2.0011
 30
0.0
 10
-10.8904
 20
-1.9578
 30
0.0
 10
-10.8904
 20
-1.9578
 30
0.0
 10
-10.8904
 20
-1.9578
 30
0.0
 10
-10.8904
 20
-1.7983
 30
0.0
 10
-10.8904
 20
-1.7983
 30
0.0
 10
-10.8904
 20
-1.7983
 30
0.0
 10
-10.8904
 20
-1.7983
 30
0.0
 10
-8.8617
 20
-1.7983
 30
0.0
 10
-8.8617
 20
-1.7983
 30
0.0
  0
SPLINE
  5
65
330
1F
100
AcDbEntity
  8
DEFAULT_2
 62
   250
100
AcDbSpline
210
0.0
220
0.0
230
1.0
 70
    11
 71
     3
 72
    40
 73
    36
 74
     0
 42
0.0000000001
 43
0.0000000001
 40
0.0
 40
0.0
 40
0.0
 40
0.0
 40
0.1
 40
0.1
 40
0.1
 40
0.1
 40
0.2
 40
0.2
 40
0.2
 40
0.2
 40
0.3
 40
0.3
 40
0.3
 40
0.3
 40
0.4
 40
0.4
 40
0.4
 40
0.4
 40
0.5
 40
0.5
 40
0.5
 40
0.5
 40
0.6
 40
0.6
 40
0.6
 40
0.6
 40
0.7
 40
0.7
 40
0.7
 40
0.7
 40
0.8
 40
0.8
 40
0.8
 40
0.8
 40
1.0
 40
1.0
 40
1.0
 40
1.0
 10
-8.8617
 20
-0.438
 30
0.0
 10
-8.8617
 20
-0.438
 30
0.0
 10
-8.8617
 20
-0.6859
 30
0.0
 10
-8.8617
 20
-0.6859
 30
0.0
 10
-8.8617
 20
-0.6859
 30
0.0
 10
-8.8617
 20
-0.6859
 30
0.0
 10
-10.4421
 20
-0.6859
 30
0.0
 10
-10.4421
 20
-0.6859
 30
0.0
 10
-10.4421
 20
-0.6859
 30
0.0
 10
-10.3852
 20
-0.7457
 30
0.0
 10
-10.3283
 20
-0.8237
 30
0.0
 10
-10.2714
 20
-0.9206
 30
0.0
 10
-10.2714
 20
-0.9206
 30
0.0
 10
-10.2145
 20
-1.018
 30
0.0
 10
-10.1717
 20
-1.105
 30
0.0
 10
-10.1434
 20
-1.1822
 30
0.0
 10
-10.1434
 20
-1.1822
 30
0.0
 10
-10.1434
 20
-1.1822
 30
0.0
 10
-10.3829
 20
-1.1822
 30
0.0
 10
-10.3829
 20
-1.1822
 30
0.0
 10
-10.3829
 20
-1.1822
 30
0.0
 10
-10.4482
 20
-1.0434
 30
0.0
 10
-10.5273
 20
-0.922
 30
0.0
 10
-10.6199
 20
-0.8181
 30
0.0
 10
-10.6199
 20
-0.8181
 30
0.0
 10
-10.7131
 20
-0.7146
 30
0.0
 10
-10.8029
 20
-0.6408
 30
0.0
 10
-10.8904
 20
-0.5975
 30
0.0
 10
-10.8904
 20
-0.5975
 30
0.0
 10
-10.8904
 20
-0.5975
 30
0.0
 10
-10.8904
 20
-0.438
 30
0.0
 10
-10.8904
 20
-0.438
 30
0.0
 10
-10.8904
 20
-0.438
 30
0.0
 10
-10.8904
 20
-0.438
 30
0.0
 10
-8.8617
 20
-0.438
 30
0.0
 10
-8.8617
 20
-0.438
 30
0.0
  0
SPLINE
  5
66
330
1F
100
AcDbEntity
  8
DEFAULT_2
 62
   250
100
AcDbSpline
210
0.0
220
0.0
230
1.0
 70
    11
 71
     3
 72
   116
 73
   112
 74
     0
 42
0.0000000001
 43
0.0000000001
 40
0.0
 40
0.0
 40
0.0
 40
0.0
 40
0.0344827586206897
 40
0.0344827586206897
 40
0.0344827586206897
 40
0.0344827586206897
 40
0.0689655172413793
 40
0.0689655172413793
 40
0.0689655172413793
 40
0.0689655172413793
 40
0.103448275862069
 40
0.103448275862069
 40
0.103448275862069
 40
0.103448275862069
 40
0.1379310344827586
 40
0.1379310344827586
 40
0.1379310344827586
 40
0.1379310344827586
 40
0.1724137931034483
 40
0.1724137931034483
 40
0.1724137931034483
 40
0.1724137931034483
 40
0.2068965517241379
 40
0.2068965517241379
 40
0.2068965517241379
 40
0.2068965517241379
 40
0.2413793103448276
 40
0.2413793103448276
 40
0.2413793103448276
 40
0.2413793103448276
 40
0.2758620689655172
 40
0.2758620689655172
 40
0.2758620689655172
 40
0.2758620689655172
 40
0.3103448275862069
 40
0.3103448275862069
 40
0.3103448275862069
 40
0.3103448275862069
 40
0.3448275862068966
 40
0.3448275862068966
 40
0.3448275862068966
 40
0.3448275862068966
 40
0.3793103448275862
 40
0.3793103448275862
 40
0.3793103448275862
 40
0.3793103448275862
 40
0.4137931034482759
 40
0.4137931034482759
 40
0.4137931034482759
 40
0.4137931034482759
 40
0.4482758620689655
 40
0.4482758620689655
 40
0.4482758620689655
 40
0.4482758620689655
 40
0.4827586206896552
 40
0.4827586206896552
 40
0.4827586206896552
 40
0.4827586206896552
 40
0.5172413793103449
 40
0.5172413793103449
 40
0.5172413793103449
 40
0.5172413793103449
 40
0.5517241379310345
 40
0.5517241379310345
 40
0.5517241379310345
 40
0.5517241379310345
 40
0.5862068965517241
 40
0.5862068965517241
 40
0.5862068965517241
 40
0.5862068965517241
 40
0.6206896551724138
 40
0.6206896551724138
 40
0.6206896551724138
 40
0.6206896551724138
 40
0.6551724137931034
 40
0.6551724137931034
 40
0.6551724137931034
 40
0.6551724137931034
 40
0.6896551724137931
 40
0.6896551724137931
 40
0.6896551724137931
 40
0.6896551724137931
 40
0.7241379310344828
 40
0.7241379310344828
 40
0.7241379310344828
 40
0.7241379310344828
 40
0.7586206896551724
 40
0.7586206896551724
 40
0.7586206896551724
 40
0.7586206896551724
 40
0.7931034482758621
 40
0.7931034482758621
 40
0.7931034482758621
 40
0.7931034482758621
 40
0.8275862068965517
 40
0.8275862068965517
 40
0.8275862068965517
 40
0.8275862068965517
 40
0.8620689655172413
 40
0.8620689655172413
 40
0.8620689655172413
 40
0.8620689655172413
 40
0.896551724137931
 40
0.896551724137931
 40
0.896551724137931
 40
0.896551724137931
 40
0.9310344827586207
 40
0.9310344827586207
 40
0.9310344827586207
 40
0.9310344827586207
 40
1.0
 40
1.0
 40
1.0
 40
1.0
 10
-13.781
 20
19.4938
 30
0.0
 10
-13.781
 20
19.4938
 30
0.0
 10
-15.2443
 20
19.4938
 30
0.0
 10
-15.2443
 20
19.4938
 30
0.0
 10
-15.2443
 20
19.4938
 30
0.0
 10
-15.2443
 20
19.4938
 30
0.0
 10
-15.2443
 20
19.7153
 30
0.0
 10
-15.2443
 20
19.7153
 30
0.0
 10
-15.2443
 20
19.7153
 30
0.0
 10
-15.2443
 20
19.7153
 30
0.0
 10
-15.0392
 20
19.7153
 30
0.0
 10
-15.0392
 20
19.7153
 30
0.0
 10
-15.0392
 20
19.7153
 30
0.0
 10
-15.1107
 20
19.7614
 30
0.0
 10
-15.1686
 20
19.8226
 30
0.0
 10
-15.2119
 20
19.8988
 30
0.0
 10
-15.2119
 20
19.8988
 30
0.0
 10
-15.2556
 20
19.975
 30
0.0
 10
-15.2777
 20
20.062
 30
0.0
 10
-15.2777
 20
20.1593
 30
0.0
 10
-15.2777
 20
20.1593
 30
0.0
 10
-15.2777
 20
20.2675
 30
0.0
 10
-15.2551
 20
20.3564
 30
0.0
 10
-15.21
 20
20.4256
 30
0.0
 10
-15.21
 20
20.4256
 30
0.0
 10
-15.1648
 20
20.4952
 30
0.0
 10
-15.1023
 20
20.5441
 30
0.0
 10
-15.0214
 20
20.5723
 30
0.0
 10
-15.0214
 20
20.5723
 30
0.0
 10
-15.1921
 20
20.6885
 30
0.0
 10
-15.2777
 20
20.839
 30
0.0
 10
-15.2777
 20
21.0243
 30
0.0
 10
-15.2777
 20
21.0243
 30
0.0
 10
-15.2777
 20
21.1697
 30
0.0
 10
-15.2373
 20
21.2812
 30
0.0
 10
-15.1568
 20
21.3592
 30
0.0
 10
-15.1568
 20
21.3592
 30
0.0
 10
-15.0764
 20
21.4373
 30
0.0
 10
-14.9527
 20
21.4764
 30
0.0
 10
-14.7857
 20
21.4764
 30
0.0
 10
-14.7857
 20
21.4764
 30
0.0
 10
-14.7857
 20
21.4764
 30
0.0
 10
-13.781
 20
21.4764
 30
0.0
 10
-13.781
 20
21.4764
 30
0.0
 10
-13.781
 20
21.4764
 30
0.0
 10
-13.781
 20
21.4764
 30
0.0
 10
-13.781
 20
21.2299
 30
0.0
 10
-13.781
 20
21.2299
 30
0.0
 10
-13.781
 20
21.2299
 30
0.0
 10
-13.781
 20
21.2299
 30
0.0
 10
-14.7029
 20
21.2299
 30
0.0
 10
-14.7029
 20
21.2299
 30
0.0
 10
-14.7029
 20
21.2299
 30
0.0
 10
-14.8022
 20
21.2299
 30
0.0
 10
-14.8737
 20
21.2219
 30
0.0
 10
-14.9174
 20
21.2059
 30
0.0
 10
-14.9174
 20
21.2059
 30
0.0
 10
-14.9607
 20
21.1894
 30
0.0
 10
-14.996
 20
21.1603
 30
0.0
 10
-15.0228
 20
21.1184
 30
0.0
 10
-15.0228
 20
21.1184
 30
0.0
 10
-15.0491
 20
21.0761
 30
0.0
 10
-15.0627
 20
21.0262
 30
0.0
 10
-15.0627
 20
20.9693
 30
0.0
 10
-15.0627
 20
20.9693
 30
0.0
 10
-15.0627
 20
20.8663
 30
0.0
 10
-15.0284
 20
20.7812
 30
0.0
 10
-14.9597
 20
20.713
 30
0.0
 10
-14.9597
 20
20.713
 30
0.0
 10
-14.8915
 20
20.6452
 30
0.0
 10
-14.7819
 20
20.6109
 30
0.0
 10
-14.6314
 20
20.6109
 30
0.0
 10
-14.6314
 20
20.6109
 30
0.0
 10
-14.6314
 20
20.6109
 30
0.0
 10
-13.781
 20
20.6109
 30
0.0
 10
-13.781
 20
20.6109
 30
0.0
 10
-13.781
 20
20.6109
 30
0.0
 10
-13.781
 20
20.6109
 30
0.0
 10
-13.781
 20
20.363
 30
0.0
 10
-13.781
 20
20.363
 30
0.0
 10
-13.781
 20
20.363
 30
0.0
 10
-13.781
 20
20.363
 30
0.0
 10
-14.7316
 20
20.363
 30
0.0
 10
-14.7316
 20
20.363
 30
0.0
 10
-14.7316
 20
20.363
 30
0.0
 10
-14.8421
 20
20.363
 30
0.0
 10
-14.9249
 20
20.3428
 30
0.0
 10
-14.98
 20
20.3023
 30
0.0
 10
-14.98
 20
20.3023
 30
0.0
 10
-15.035
 20
20.2619
 30
0.0
 10
-15.0627
 20
20.196
 30
0.0
 10
-15.0627
 20
20.1038
 30
0.0
 10
-15.0627
 20
20.1038
 30
0.0
 10
-15.0627
 20
20.0342
 30
0.0
 10
-15.0444
 20
19.9698
 30
0.0
 10
-15.0072
 20
19.9105
 30
0.0
 10
-15.0072
 20
19.9105
 30
0.0
 10
-14.9706
 20
19.8512
 30
0.0
 10
-14.9169
 20
19.808
 30
0.0
 10
-14.8464
 20
19.7816
 30
0.0
 10
-14.8464
 20
19.7816
 30
0.0
 10
-14.7754
 20
19.7548
 30
0.0
 10
-14.6733
 20
19.7416
 30
0.0
 10
-14.5402
 20
19.7416
 30
0.0
 10
-14.5402
 20
19.7416
 30
0.0
 10
-14.5402
 20
19.7416
 30
0.0
 10
-13.781
 20
19.7416
 30
0.0
 10
-13.781
 20
19.7416
 30
0.0
 10
-13.781
 20
19.7416
 30
0.0
 10
-13.781
 20
19.7416
 30
0.0
 10
-13.781
 20
19.4938
 30
0.0
 10
-13.781
 20
19.4938
 30
0.0
  0
SPLINE
  5
67
330
1F
100
AcDbEntity
  8
DEFAULT_2
 62
   250
100
AcDbSpline
210
0.0
220
0.0
230
1.0
 70
    11
 71
     3
 72
   112
 73
   108
 74
     0
 42
0.0000000001
 43
0.0000000001
 40
0.0
 40
0.0
 40
0.0
 40
0.0
 40
0.0357142857142857
 40
0.0357142857142857
 40
0.0357142857142857
 40
0.0357142857142857
 40
0.0714285714285714
 40
0.0714285714285714
 40
0.0714285714285714
 40
0.0714285714285714
 40
0.1071428571428571
 40
0.1071428571428571
 40
0.1071428571428571
 40
0.1071428571428571
 40
0.1428571428571428
 40
0.1428571428571428
 40
0.1428571428571428
 40
0.1428571428571428
 40
0.1785714285714286
 40
0.1785714285714286
 40
0.1785714285714286
 40
0.1785714285714286
 40
0.2142857142857143
 40
0.2142857142857143
 40
0.2142857142857143
 40
0.2142857142857143
 40
0.25
 40
0.25
 40
0.25
 40
0.25
 40
0.2857142857142857
 40
0.2857142857142857
 40
0.2857142857142857
 40
0.2857142857142857
 40
0.3214285714285715
 40
0.3214285714285715
 40
0.3214285714285715
 40
0.3214285714285715
 40
0.3571428571428572
 40
0.3571428571428572
 40
0.3571428571428572
 40
0.3571428571428572
 40
0.3928571428571428
 40
0.3928571428571428
 40
0.3928571428571428
 40
0.3928571428571428
 40
0.4285714285714285
 40
0.4285714285714285
 40
0.4285714285714285
 40
0.4285714285714285
 40
0.4642857142857143
 40
0.4642857142857143
 40
0.4642857142857143
 40
0.4642857142857143
 40
0.5
 40
0.5
 40
0.5
 40
0.5
 40
0.5357142857142857
 40
0.5357142857142857
 40
0.5357142857142857
 40
0.5357142857142857
 40
0.5714285714285714
 40
0.5714285714285714
 40
0.5714285714285714
 40
0.5714285714285714
 40
0.6071428571428571
 40
0.6071428571428571
 40
0.6071428571428571
 40
0.6071428571428571
 40
0.6428571428571429
 40
0.6428571428571429
 40
0.6428571428571429
 40
0.6428571428571429
 40
0.6785714285714286
 40
0.6785714285714286
 40
0.6785714285714286
 40
0.6785714285714286
 40
0.7142857142857143
 40
0.7142857142857143
 40
0.7142857142857143
 40
0.7142857142857143
 40
0.75
 40
0.75
 40
0.75
 40
0.75
 40
0.7857142857142857
 40
0.7857142857142857
 40
0.7857142857142857
 40
0.7857142857142857
 40
0.8214285714285714
 40
0.8214285714285714
 40
0.8214285714285714
 40
0.8214285714285714
 40
0.8571428571428571
 40
0.8571428571428571
 40
0.8571428571428571
 40
0.8571428571428571
 40
0.8928571428571429
 40
0.8928571428571429
 40
0.8928571428571429
 40
0.8928571428571429
 40
0.9285714285714286
 40
0.9285714285714286
 40
0.9285714285714286
 40
0.9285714285714286
 40
1.0
 40
1.0
 40
1.0
 40
1.0
 10
-13.9616
 20
22.7995
 30
0.0
 10
-13.8835
 20
22.7073
 30
0.0
 10
-13.8285
 20
22.6189
 30
0.0
 10
-13.7961
 20
22.5342
 30
0.0
 10
-13.7961
 20
22.5342
 30
0.0
 10
-13.7641
 20
22.4491
 30
0.0
 10
-13.7481
 20
22.3578
 30
0.0
 10
-13.7481
 20
22.2605
 30
0.0
 10
-13.7481
 20
22.2605
 30
0.0
 10
-13.7481
 20
22.0996
 30
0.0
 10
-13.7871
 20
21.9764
 30
0.0
 10
-13.8657
 20
21.8898
 30
0.0
 10
-13.8657
 20
21.8898
 30
0.0
 10
-13.9442
 20
21.8037
 30
0.0
 10
-14.0449
 20
21.7605
 30
0.0
 10
-14.1667
 20
21.7605
 30
0.0
 10
-14.1667
 20
21.7605
 30
0.0
 10
-14.2387
 20
21.7605
 30
0.0
 10
-14.304
 20
21.7765
 30
0.0
 10
-14.3633
 20
21.8094
 30
0.0
 10
-14.3633
 20
21.8094
 30
0.0
 10
-14.4226
 20
21.8418
 30
0.0
 10
-14.4701
 20
21.8846
 30
0.0
 10
-14.5058
 20
21.9373
 30
0.0
 10
-14.5058
 20
21.9373
 30
0.0
 10
-14.5416
 20
21.9905
 30
0.0
 10
-14.5689
 20
22.0497
 30
0.0
 10
-14.5872
 20
22.1161
 30
0.0
 10
-14.5872
 20
22.1161
 30
0.0
 10
-14.5999
 20
22.1645
 30
0.0
 10
-14.6126
 20
22.2379
 30
0.0
 10
-14.6244
 20
22.3362
 30
0.0
 10
-14.6244
 20
22.3362
 30
0.0
 10
-14.6484
 20
22.5366
 30
0.0
 10
-14.6766
 20
22.6843
 30
0.0
 10
-14.71
 20
22.7788
 30
0.0
 10
-14.71
 20
22.7788
 30
0.0
 10
-14.7438
 20
22.7798
 30
0.0
 10
-14.7655
 20
22.7802
 30
0.0
 10
-14.7744
 20
22.7802
 30
0.0
 10
-14.7744
 20
22.7802
 30
0.0
 10
-14.8755
 20
22.7802
 30
0.0
 10
-14.947
 20
22.7567
 30
0.0
 10
-14.988
 20
22.7097
 30
0.0
 10
-14.988
 20
22.7097
 30
0.0
 10
-15.0444
 20
22.6466
 30
0.0
 10
-15.0722
 20
22.5521
 30
0.0
 10
-15.0722
 20
22.4274
 30
0.0
 10
-15.0722
 20
22.4274
 30
0.0
 10
-15.0722
 20
22.3108
 30
0.0
 10
-15.0519
 20
22.2247
 30
0.0
 10
-15.011
 20
22.1687
 30
0.0
 10
-15.011
 20
22.1687
 30
0.0
 10
-14.9701
 20
22.1132
 30
0.0
 10
-14.8977
 20
22.0723
 30
0.0
 10
-14.7937
 20
22.0455
 30
0.0
 10
-14.7937
 20
22.0455
 30
0.0
 10
-14.7937
 20
22.0455
 30
0.0
 10
-14.8271
 20
21.8033
 30
0.0
 10
-14.8271
 20
21.8033
 30
0.0
 10
-14.8271
 20
21.8033
 30
0.0
 10
-14.9306
 20
21.8254
 30
0.0
 10
-15.0148
 20
21.8616
 30
0.0
 10
-15.0783
 20
21.9119
 30
0.0
 10
-15.0783
 20
21.9119
 30
0.0
 10
-15.1422
 20
21.9623
 30
0.0
 10
-15.1916
 20
22.0356
 30
0.0
 10
-15.226
 20
22.1311
 30
0.0
 10
-15.226
 20
22.1311
 30
0.0
 10
-15.2603
 20
22.2266
 30
0.0
 10
-15.2777
 20
22.3371
 30
0.0
 10
-15.2777
 20
22.4632
 30
0.0
 10
-15.2777
 20
22.4632
 30
0.0
 10
-15.2777
 20
22.5883
 30
0.0
 10
-15.2627
 20
22.6894
 30
0.0
 10
-15.2335
 20
22.7675
 30
0.0
 10
-15.2335
 20
22.7675
 30
0.0
 10
-15.2039
 20
22.8456
 30
0.0
 10
-15.1672
 20
22.903
 30
0.0
 10
-15.1225
 20
22.9401
 30
0.0
 10
-15.1225
 20
22.9401
 30
0.0
 10
-15.0778
 20
22.9768
 30
0.0
 10
-15.0218
 20
23.0022
 30
0.0
 10
-14.9536
 20
23.0173
 30
0.0
 10
-14.9536
 20
23.0173
 30
0.0
 10
-14.9113
 20
23.0253
 30
0.0
 10
-14.8351
 20
23.0295
 30
0.0
 10
-14.725
 20
23.0295
 30
0.0
 10
-14.725
 20
23.0295
 30
0.0
 10
-14.725
 20
23.0295
 30
0.0
 10
-14.3944
 20
23.0295
 30
0.0
 10
-14.3944
 20
23.0295
 30
0.0
 10
-14.3944
 20
23.0295
 30
0.0
 10
-14.1634
 20
23.0295
 30
0.0
 10
-14.0176
 20
23.0347
 30
0.0
 10
-13.9569
 20
23.0455
 30
0.0
 10
-13.9569
 20
23.0455
 30
0.0
 10
-13.8958
 20
23.0559
 30
0.0
 10
-13.837
 20
23.077
 30
0.0
 10
-13.781
 20
23.1081
 30
0.0
 10
-13.781
 20
23.1081
 30
0.0
 10
-13.781
 20
23.1081
 30
0.0
 10
-13.781
 20
22.8489
 30
0.0
 10
-13.781
 20
22.8489
 30
0.0
 10
-13.781
 20
22.8489
 30
0.0
 10
-13.8323
 20
22.8235
 30
0.0
 10
-13.8925
 20
22.8066
 30
0.0
 10
-13.9616
 20
22.7995
 30
0.0
  0
SPLINE
  5
68
330
1F
100
AcDbEntity
  8
DEFAULT_2
 62
   250
100
AcDbSpline
210
0.0
220
0.0
230
1.0
 70
    11
 71
     3
 72
    44
 73
    40
 74
     0
 42
0.0000000001
 43
0.0000000001
 40
0.0
 40
0.0
 40
0.0
 40
0.0
 40
0.0909090909090909
 40
0.0909090909090909
 40
0.0909090909090909
 40
0.0909090909090909
 40
0.1818181818181818
 40
0.1818181818181818
 40
0.1818181818181818
 40
0.1818181818181818
 40
0.2727272727272727
 40
0.2727272727272727
 40
0.2727272727272727
 40
0.2727272727272727
 40
0.3636363636363636
 40
0.3636363636363636
 40
0.3636363636363636
 40
0.3636363636363636
 40
0.4545454545454545
 40
0.4545454545454545
 40
0.4545454545454545
 40
0.4545454545454545
 40
0.5454545454545454
 40
0.5454545454545454
 40
0.5454545454545454
 40
0.5454545454545454
 40
0.6363636363636364
 40
0.6363636363636364
 40
0.6363636363636364
 40
0.6363636363636364
 40
0.7272727272727273
 40
0.7272727272727273
 40
0.7272727272727273
 40
0.7272727272727273
 40
0.8181818181818182
 40
0.8181818181818182
 40
0.8181818181818182
 40
0.8181818181818182
 40
1.0
 40
1.0
 40
1.0
 40
1.0
 10
-14.5157
 20
22.7788
 30
0.0
 10
-14.4786
 20
22.6885
 30
0.0
 10
-14.4475
 20
22.5535
 30
0.0
 10
-14.4216
 20
22.3738
 30
0.0
 10
-14.4216
 20
22.3738
 30
0.0
 10
-14.4071
 20
22.2718
 30
0.0
 10
-14.3906
 20
22.1993
 30
0.0
 10
-14.3723
 20
22.1575
 30
0.0
 10
-14.3723
 20
22.1575
 30
0.0
 10
-14.3539
 20
22.1151
 30
0.0
 10
-14.3271
 20
22.0822
 30
0.0
 10
-14.2913
 20
22.0596
 30
0.0
 10
-14.2913
 20
22.0596
 30
0.0
 10
-14.2561
 20
22.0366
 30
0.0
 10
-14.217
 20
22.0248
 30
0.0
 10
-14.1738
 20
22.0248
 30
0.0
 10
-14.1738
 20
22.0248
 30
0.0
 10
-14.1074
 20
22.0248
 30
0.0
 10
-14.0524
 20
22.0502
 30
0.0
 10
-14.0082
 20
22.1001
 30
0.0
 10
-14.0082
 20
22.1001
 30
0.0
 10
-13.9644
 20
22.1499
 30
0.0
 10
-13.9423
 20
22.2233
 30
0.0
 10
-13.9423
 20
22.3197
 30
0.0
 10
-13.9423
 20
22.3197
 30
0.0
 10
-13.9423
 20
22.4152
 30
0.0
 10
-13.963
 20
22.5004
 30
0.0
 10
-14.0049
 20
22.5747
 30
0.0
 10
-14.0049
 20
22.5747
 30
0.0
 10
-14.0468
 20
22.649
 30
0.0
 10
-14.1041
 20
22.704
 30
0.0
 10
-14.1766
 20
22.7388
 30
0.0
 10
-14.1766
 20
22.7388
 30
0.0
 10
-14.2326
 20
22.7656
 30
0.0
 10
-14.3153
 20
22.7788
 30
0.0
 10
-14.4245
 20
22.7788
 30
0.0
 10
-14.4245
 20
22.7788
 30
0.0
 10
-14.4245
 20
22.7788
 30
0.0
 10
-14.5157
 20
22.7788
 30
0.0
 10
-14.5157
 20
22.7788
 30
0.0
  0
SPLINE
  5
69
330
1F
100
AcDbEntity
  8
DEFAULT_2
 62
   250
100
AcDbSpline
210
0.0
220
0.0
230
1.0
 70
    11
 71
     3
 72
    64
 73
    60
 74
     0
 42
0.0000000001
 43
0.0000000001
 40
0.0
 40
0.0
 40
0.0
 40
0.0
 40
0.0625
 40
0.0625
 40
0.0625
 40
0.0625
 40
0.125
 40
0.125
 40
0.125
 40
0.125
 40
0.1875
 40
0.1875
 40
0.1875
 40
0.1875
 40
0.25
 40
0.25
 40
0.25
 40
0.25
 40
0.3125
 40
0.3125
 40
0.3125
 40
0.3125
 40
0.375
 40
0.375
 40
0.375
 40
0.375
 40
0.4375
 40
0.4375
 40
0.4375
 40
0.4375
 40
0.5
 40
0.5
 40
0.5
 40
0.5
 40
0.5625
 40
0.5625
 40
0.5625
 40
0.5625
 40
0.625
 40
0.625
 40
0.625
 40
0.625
 40
0.6875
 40
0.6875
 40
0.6875
 40
0.6875
 40
0.75
 40
0.75
 40
0.75
 40
0.75
 40
0.8125
 40
0.8125
 40
0.8125
 40
0.8125
 40
0.875
 40
0.875
 40
0.875
 40
0.875
 40
1.0
 40
1.0
 40
1.0
 40
1.0
 10
-13.781
 20
23.2487
 30
0.0
 10
-13.781
 20
23.2487
 30
0.0
 10
-14.5416
 20
23.7835
 30
0.0
 10
-14.5416
 20
23.7835
 30
0.0
 10
-14.5416
 20
23.7835
 30
0.0
 10
-14.5416
 20
23.7835
 30
0.0
 10
-15.2443
 20
23.2887
 30
0.0
 10
-15.2443
 20
23.2887
 30
0.0
 10
-15.2443
 20
23.2887
 30
0.0
 10
-15.2443
 20
23.2887
 30
0.0
 10
-15.2443
 20
23.5986
 30
0.0
 10
-15.2443
 20
23.5986
 30
0.0
 10
-15.2443
 20
23.5986
 30
0.0
 10
-15.2443
 20
23.5986
 30
0.0
 10
-14.9014
 20
23.8235
 30
0.0
 10
-14.9014
 20
23.8235
 30
0.0
 10
-14.9014
 20
23.8235
 30
0.0
 10
-14.836
 20
23.8653
 30
0.0
 10
-14.7815
 20
23.8997
 30
0.0
 10
-14.7373
 20
23.9251
 30
0.0
 10
-14.7373
 20
23.9251
 30
0.0
 10
-14.7979
 20
23.9655
 30
0.0
 10
-14.8516
 20
24.0027
 30
0.0
 10
-14.8986
 20
24.037
 30
0.0
 10
-14.8986
 20
24.037
 30
0.0
 10
-14.8986
 20
24.037
 30
0.0
 10
-15.2443
 20
24.2835
 30
0.0
 10
-15.2443
 20
24.2835
 30
0.0
 10
-15.2443
 20
24.2835
 30
0.0
 10
-15.2443
 20
24.2835
 30
0.0
 10
-15.2443
 20
24.5798
 30
0.0
 10
-15.2443
 20
24.5798
 30
0.0
 10
-15.2443
 20
24.5798
 30
0.0
 10
-15.2443
 20
24.5798
 30
0.0
 10
-14.5552
 20
24.0742
 30
0.0
 10
-14.5552
 20
24.0742
 30
0.0
 10
-14.5552
 20
24.0742
 30
0.0
 10
-14.5552
 20
24.0742
 30
0.0
 10
-13.781
 20
24.6184
 30
0.0
 10
-13.781
 20
24.6184
 30
0.0
 10
-13.781
 20
24.6184
 30
0.0
 10
-13.781
 20
24.6184
 30
0.0
 10
-13.781
 20
24.3141
 30
0.0
 10
-13.781
 20
24.3141
 30
0.0
 10
-13.781
 20
24.3141
 30
0.0
 10
-13.781
 20
24.3141
 30
0.0
 10
-14.2358
 20
24.0135
 30
0.0
 10
-14.2358
 20
24.0135
 30
0.0
 10
-14.2358
 20
24.0135
 30
0.0
 10
-14.2358
 20
24.0135
 30
0.0
 10
-14.3586
 20
23.9336
 30
0.0
 10
-14.3586
 20
23.9336
 30
0.0
 10
-14.3586
 20
23.9336
 30
0.0
 10
-14.3586
 20
23.9336
 30
0.0
 10
-13.781
 20
23.5493
 30
0.0
 10
-13.781
 20
23.5493
 30
0.0
 10
-13.781
 20
23.5493
 30
0.0
 10
-13.781
 20
23.5493
 30
0.0
 10
-13.781
 20
23.2487
 30
0.0
 10
-13.781
 20
23.2487
 30
0.0
  0
SPLINE
  5
6A
330
1F
100
AcDbEntity
  8
DEFAULT_2
 62
   250
100
AcDbSpline
210
0.0
220
0.0
230
1.0
 70
    11
 71
     3
 72
    92
 73
    88
 74
     0
 42
0.0000000001
 43
0.0000000001
 40
0.0
 40
0.0
 40
0.0
 40
0.0
 40
0.0434782608695652
 40
0.0434782608695652
 40
0.0434782608695652
 40
0.0434782608695652
 40
0.0869565217391304
 40
0.0869565217391304
 40
0.0869565217391304
 40
0.0869565217391304
 40
0.1304347826086956
 40
0.1304347826086956
 40
0.1304347826086956
 40
0.1304347826086956
 40
0.1739130434782609
 40
0.1739130434782609
 40
0.1739130434782609
 40
0.1739130434782609
 40
0.2173913043478261
 40
0.2173913043478261
 40
0.2173913043478261
 40
0.2173913043478261
 40
0.2608695652173913
 40
0.2608695652173913
 40
0.2608695652173913
 40
0.2608695652173913
 40
0.3043478260869565
 40
0.3043478260869565
 40
0.3043478260869565
 40
0.3043478260869565
 40
0.3478260869565217
 40
0.3478260869565217
 40
0.3478260869565217
 40
0.3478260869565217
 40
0.391304347826087
 40
0.391304347826087
 40
0.391304347826087
 40
0.391304347826087
 40
0.4347826086956522
 40
0.4347826086956522
 40
0.4347826086956522
 40
0.4347826086956522
 40
0.4782608695652174
 40
0.4782608695652174
 40
0.4782608695652174
 40
0.4782608695652174
 40
0.5217391304347826
 40
0.5217391304347826
 40
0.5217391304347826
 40
0.5217391304347826
 40
0.5652173913043478
 40
0.5652173913043478
 40
0.5652173913043478
 40
0.5652173913043478
 40
0.6086956521739131
 40
0.6086956521739131
 40
0.6086956521739131
 40
0.6086956521739131
 40
0.6521739130434783
 40
0.6521739130434783
 40
0.6521739130434783
 40
0.6521739130434783
 40
0.6956521739130435
 40
0.6956521739130435
 40
0.6956521739130435
 40
0.6956521739130435
 40
0.7391304347826086
 40
0.7391304347826086
 40
0.7391304347826086
 40
0.7391304347826086
 40
0.782608695652174
 40
0.782608695652174
 40
0.782608695652174
 40
0.782608695652174
 40
0.8260869565217391
 40
0.8260869565217391
 40
0.8260869565217391
 40
0.8260869565217391
 40
0.8695652173913043
 40
0.8695652173913043
 40
0.8695652173913043
 40
0.8695652173913043
 40
0.9130434782608695
 40
0.9130434782608695
 40
0.9130434782608695
 40
0.9130434782608695
 40
1.0
 40
1.0
 40
1.0
 40
1.0
 10
-14.3102
 20
25.5403
 30
0.0
 10
-14.3102
 20
25.5403
 30
0.0
 10
-14.3323
 20
25.8009
 30
0.0
 10
-14.3323
 20
25.8009
 30
0.0
 10
-14.3323
 20
25.8009
 30
0.0
 10
-14.2053
 20
25.8202
 30
0.0
 10
-14.1103
 20
25.8649
 30
0.0
 10
-14.0463
 20
25.935
 30
0.0
 10
-14.0463
 20
25.935
 30
0.0
 10
-13.9823
 20
26.0055
 30
0.0
 10
-13.9503
 20
26.0902
 30
0.0
 10
-13.9503
 20
26.1894
 30
0.0
 10
-13.9503
 20
26.1894
 30
0.0
 10
-13.9503
 20
26.3089
 30
0.0
 10
-13.9955
 20
26.41
 30
0.0
 10
-14.0853
 20
26.4923
 30
0.0
 10
-14.0853
 20
26.4923
 30
0.0
 10
-14.1756
 20
26.5751
 30
0.0
 10
-14.2951
 20
26.6165
 30
0.0
 10
-14.4437
 20
26.6165
 30
0.0
 10
-14.4437
 20
26.6165
 30
0.0
 10
-14.5853
 20
26.6165
 30
0.0
 10
-14.6968
 20
26.577
 30
0.0
 10
-14.7786
 20
26.4975
 30
0.0
 10
-14.7786
 20
26.4975
 30
0.0
 10
-14.8605
 20
26.418
 30
0.0
 10
-14.9014
 20
26.3141
 30
0.0
 10
-14.9014
 20
26.1852
 30
0.0
 10
-14.9014
 20
26.1852
 30
0.0
 10
-14.9014
 20
26.1052
 30
0.0
 10
-14.8831
 20
26.0333
 30
0.0
 10
-14.8469
 20
25.9688
 30
0.0
 10
-14.8469
 20
25.9688
 30
0.0
 10
-14.8106
 20
25.9044
 30
0.0
 10
-14.7636
 20
25.8541
 30
0.0
 10
-14.7057
 20
25.8174
 30
0.0
 10
-14.7057
 20
25.8174
 30
0.0
 10
-14.7057
 20
25.8174
 30
0.0
 10
-14.7358
 20
25.5845
 30
0.0
 10
-14.7358
 20
25.5845
 30
0.0
 10
-14.7358
 20
25.5845
 30
0.0
 10
-14.7358
 20
25.5845
 30
0.0
 10
-15.7735
 20
25.7802
 30
0.0
 10
-15.7735
 20
25.7802
 30
0.0
 10
-15.7735
 20
25.7802
 30
0.0
 10
-15.7735
 20
25.7802
 30
0.0
 10
-15.7735
 20
26.7849
 30
0.0
 10
-15.7735
 20
26.7849
 30
0.0
 10
-15.7735
 20
26.7849
 30
0.0
 10
-15.7735
 20
26.7849
 30
0.0
 10
-15.5364
 20
26.7849
 30
0.0
 10
-15.5364
 20
26.7849
 30
0.0
 10
-15.5364
 20
26.7849
 30
0.0
 10
-15.5364
 20
26.7849
 30
0.0
 10
-15.5364
 20
25.9787
 30
0.0
 10
-15.5364
 20
25.9787
 30
0.0
 10
-15.5364
 20
25.9787
 30
0.0
 10
-15.5364
 20
25.9787
 30
0.0
 10
-14.9936
 20
25.8696
 30
0.0
 10
-14.9936
 20
25.8696
 30
0.0
 10
-14.9936
 20
25.8696
 30
0.0
 10
-15.0783
 20
25.9909
 30
0.0
 10
-15.1206
 20
26.1184
 30
0.0
 10
-15.1206
 20
26.2515
 30
0.0
 10
-15.1206
 20
26.2515
 30
0.0
 10
-15.1206
 20
26.4279
 30
0.0
 10
-15.0595
 20
26.5765
 30
0.0
 10
-14.9372
 20
26.6979
 30
0.0
 10
-14.9372
 20
26.6979
 30
0.0
 10
-14.8149
 20
26.8192
 30
0.0
 10
-14.6578
 20
26.8799
 30
0.0
 10
-14.4659
 20
26.8799
 30
0.0
 10
-14.4659
 20
26.8799
 30
0.0
 10
-14.2829
 20
26.8799
 30
0.0
 10
-14.1248
 20
26.8263
 30
0.0
 10
-13.9917
 20
26.72
 30
0.0
 10
-13.9917
 20
26.72
 30
0.0
 10
-13.8285
 20
26.5902
 30
0.0
 10
-13.7467
 20
26.4133
 30
0.0
 10
-13.7467
 20
26.1894
 30
0.0
 10
-13.7467
 20
26.1894
 30
0.0
 10
-13.7467
 20
26.0055
 30
0.0
 10
-13.7979
 20
25.8555
 30
0.0
 10
-13.9009
 20
25.7393
 30
0.0
 10
-13.9009
 20
25.7393
 30
0.0
 10
-14.004
 20
25.6231
 30
0.0
 10
-14.1404
 20
25.5568
 30
0.0
 10
-14.3102
 20
25.5403
 30
0.0
  0
SPLINE
  5
6B
330
1F
100
AcDbEntity
  8
DEFAULT_2
 62
   250
100
AcDbSpline
210
0.0
220
0.0
230
1.0
 70
    11
 71
     3
 72
    52
 73
    48
 74
     0
 42
0.0000000001
 43
0.0000000001
 40
0.0
 40
0.0
 40
0.0
 40
0.0
 40
0.0769230769230769
 40
0.0769230769230769
 40
0.0769230769230769
 40
0.0769230769230769
 40
0.1538461538461539
 40
0.1538461538461539
 40
0.1538461538461539
 40
0.1538461538461539
 40
0.2307692307692308
 40
0.2307692307692308
 40
0.2307692307692308
 40
0.2307692307692308
 40
0.3076923076923077
 40
0.3076923076923077
 40
0.3076923076923077
 40
0.3076923076923077
 40
0.3846153846153846
 40
0.3846153846153846
 40
0.3846153846153846
 40
0.3846153846153846
 40
0.4615384615384616
 40
0.4615384615384616
 40
0.4615384615384616
 40
0.4615384615384616
 40
0.5384615384615384
 40
0.5384615384615384
 40
0.5384615384615384
 40
0.5384615384615384
 40
0.6153846153846154
 40
0.6153846153846154
 40
0.6153846153846154
 40
0.6153846153846154
 40
0.6923076923076923
 40
0.6923076923076923
 40
0.6923076923076923
 40
0.6923076923076923
 40
0.7692307692307693
 40
0.7692307692307693
 40
0.7692307692307693
 40
0.7692307692307693
 40
0.8461538461538461
 40
0.8461538461538461
 40
0.8461538461538461
 40
0.8461538461538461
 40
1.0
 40
1.0
 40
1.0
 40
1.0
 10
-14.7772
 20
27.1099
 30
0.0
 10
-15.0162
 20
27.1099
 30
0.0
 10
-15.2086
 20
27.1344
 30
0.0
 10
-15.3539
 20
27.1838
 30
0.0
 10
-15.3539
 20
27.1838
 30
0.0
 10
-15.4997
 20
27.2327
 30
0.0
 10
-15.6121
 20
27.3061
 30
0.0
 10
-15.6912
 20
27.403
 30
0.0
 10
-15.6912
 20
27.403
 30
0.0
 10
-15.7702
 20
27.4999
 30
0.0
 10
-15.8097
 20
27.6217
 30
0.0
 10
-15.8097
 20
27.7684
 30
0.0
 10
-15.8097
 20
27.7684
 30
0.0
 10
-15.8097
 20
27.8771
 30
0.0
 10
-15.7876
 20
27.9721
 30
0.0
 10
-15.7438
 20
28.0539
 30
0.0
 10
-15.7438
 20
28.0539
 30
0.0
 10
-15.7006
 20
28.1358
 30
0.0
 10
-15.6375
 20
28.2031
 30
0.0
 10
-15.5552
 20
28.2567
 30
0.0
 10
-15.5552
 20
28.2567
 30
0.0
 10
-15.4729
 20
28.3098
 30
0.0
 10
-15.3727
 20
28.3517
 30
0.0
 10
-15.2547
 20
28.3818
 30
0.0
 10
-15.2547
 20
28.3818
 30
0.0
 10
-15.1366
 20
28.4124
 30
0.0
 10
-14.9776
 20
28.4274
 30
0.0
 10
-14.7772
 20
28.4274
 30
0.0
 10
-14.7772
 20
28.4274
 30
0.0
 10
-14.5402
 20
28.4274
 30
0.0
 10
-14.3492
 20
28.403
 30
0.0
 10
-14.2034
 20
28.3545
 30
0.0
 10
-14.2034
 20
28.3545
 30
0.0
 10
-14.0576
 20
28.3056
 30
0.0
 10
-13.9452
 20
28.2327
 30
0.0
 10
-13.8657
 20
28.1358
 30
0.0
 10
-13.8657
 20
28.1358
 30
0.0
 10
-13.7862
 20
28.0389
 30
0.0
 10
-13.7467
 20
27.9166
 30
0.0
 10
-13.7467
 20
27.7684
 30
0.0
 10
-13.7467
 20
27.7684
 30
0.0
 10
-13.7467
 20
27.5737
 30
0.0
 10
-13.8163
 20
27.4208
 30
0.0
 10
-13.956
 20
27.3098
 30
0.0
 10
-13.956
 20
27.3098
 30
0.0
 10
-14.1239
 20
27.1767
 30
0.0
 10
-14.3981
 20
27.1099
 30
0.0
 10
-14.7772
 20
27.1099
 30
0.0
  0
SPLINE
  5
6C
330
1F
100
AcDbEntity
  8
DEFAULT_2
 62
   250
100
AcDbSpline
210
0.0
220
0.0
230
1.0
 70
    11
 71
     3
 72
    36
 73
    32
 74
     0
 42
0.0000000001
 43
0.0000000001
 40
0.0
 40
0.0
 40
0.0
 40
0.0
 40
0.1111111111111111
 40
0.1111111111111111
 40
0.1111111111111111
 40
0.1111111111111111
 40
0.2222222222222222
 40
0.2222222222222222
 40
0.2222222222222222
 40
0.2222222222222222
 40
0.3333333333333333
 40
0.3333333333333333
 40
0.3333333333333333
 40
0.3333333333333333
 40
0.4444444444444444
 40
0.4444444444444444
 40
0.4444444444444444
 40
0.4444444444444444
 40
0.5555555555555556
 40
0.5555555555555556
 40
0.5555555555555556
 40
0.5555555555555556
 40
0.6666666666666666
 40
0.6666666666666666
 40
0.6666666666666666
 40
0.6666666666666666
 40
0.7777777777777778
 40
0.7777777777777778
 40
0.7777777777777778
 40
0.7777777777777778
 40
1.0
 40
1.0
 40
1.0
 40
1.0
 10
-14.7772
 20
27.3649
 30
0.0
 10
-14.4456
 20
27.3649
 30
0.0
 10
-14.225
 20
27.4039
 30
0.0
 10
-14.115
 20
27.4815
 30
0.0
 10
-14.115
 20
27.4815
 30
0.0
 10
-14.0054
 20
27.5591
 30
0.0
 10
-13.9503
 20
27.6546
 30
0.0
 10
-13.9503
 20
27.7684
 30
0.0
 10
-13.9503
 20
27.7684
 30
0.0
 10
-13.9503
 20
27.8827
 30
0.0
 10
-14.0058
 20
27.9782
 30
0.0
 10
-14.1159
 20
28.0558
 30
0.0
 10
-14.1159
 20
28.0558
 30
0.0
 10
-14.226
 20
28.1334
 30
0.0
 10
-14.4466
 20
28.1725
 30
0.0
 10
-14.7772
 20
28.1725
 30
0.0
 10
-14.7772
 20
28.1725
 30
0.0
 10
-15.1098
 20
28.1725
 30
0.0
 10
-15.3309
 20
28.1334
 30
0.0
 10
-15.44
 20
28.0558
 30
0.0
 10
-15.44
 20
28.0558
 30
0.0
 10
-15.5496
 20
27.9782
 30
0.0
 10
-15.6041
 20
27.8818
 30
0.0
 10
-15.6041
 20
27.7661
 30
0.0
 10
-15.6041
 20
27.7661
 30
0.0
 10
-15.6041
 20
27.6518
 30
0.0
 10
-15.5557
 20
27.561
 30
0.0
 10
-15.4593
 20
27.4928
 30
0.0
 10
-15.4593
 20
27.4928
 30
0.0
 10
-15.3365
 20
27.4077
 30
0.0
 10
-15.1088
 20
27.3649
 30
0.0
 10
-14.7772
 20
27.3649
 30
0.0
  0
SPLINE
  5
6D
330
1F
100
AcDbEntity
  8
DEFAULT_2
 62
   250
100
AcDbSpline
210
0.0
220
0.0
230
1.0
 70
    11
 71
     3
 72
    20
 73
    16
 74
     0
 42
0.0000000001
 43
0.0000000001
 40
0.0
 40
0.0
 40
0.0
 40
0.0
 40
0.2
 40
0.2
 40
0.2
 40
0.2
 40
0.4
 40
0.4
 40
0.4
 40
0.4
 40
0.6
 40
0.6
 40
0.6
 40
0.6
 40
1.0
 40
1.0
 40
1.0
 40
1.0
 10
-13.321
 20
15.4485
 30
0.0
 10
-13.321
 20
15.4485
 30
0.0
 10
-12.9386
 20
18.1586
 30
0.0
 10
-12.9386
 20
18.1586
 30
0.0
 10
-12.9386
 20
18.1586
 30
0.0
 10
-12.9386
 20
18.1586
 30
0.0
 10
-12.8536
 20
18.1586
 30
0.0
 10
-12.8536
 20
18.1586
 30
0.0
 10
-12.8536
 20
18.1586
 30
0.0
 10
-12.8536
 20
18.1586
 30
0.0
 10
-12.4457
 20
15.4485
 30
0.0
 10
-12.4457
 20
15.4485
 30
0.0
 10
-12.4457
 20
15.4485
 30
0.0
 10
-12.4457
 20
15.4485
 30
0.0
 10
-13.321
 20
15.4485
 30
0.0
 10
-13.321
 20
15.4485
 30
0.0
  0
SPLINE
  5
6E
330
1F
100
AcDbEntity
  8
DEFAULT_2
 62
   250
100
AcDbSpline
210
0.0
220
0.0
230
1.0
 70
    11
 71
     3
 72
    20
 73
    16
 74
     0
 42
0.0000000001
 43
0.0000000001
 40
0.0
 40
0.0
 40
0.0
 40
0.0
 40
0.2
 40
0.2
 40
0.2
 40
0.2
 40
0.4
 40
0.4
 40
0.4
 40
0.4
 40
0.6
 40
0.6
 40
0.6
 40
0.6
 40
1.0
 40
1.0
 40
1.0
 40
1.0
 10
-12.465
 20
-0.6904
 30
0.0
 10
-12.465
 20
-0.6904
 30
0.0
 10
-12.8475
 20
-3.4006
 30
0.0
 10
-12.8475
 20
-3.4006
 30
0.0
 10
-12.8475
 20
-3.4006
 30
0.0
 10
-12.8475
 20
-3.4006
 30
0.0
 10
-12.9324
 20
-3.4006
 30
0.0
 10
-12.9324
 20
-3.4006
 30
0.0
 10
-12.9324
 20
-3.4006
 30
0.0
 10
-12.9324
 20
-3.4006
 30
0.0
 10
-13.3403
 20
-0.6904
 30
0.0
 10
-13.3403
 20
-0.6904
 30
0.0
 10
-13.3403
 20
-0.6904
 30
0.0
 10
-13.3403
 20
-0.6904
 30
0.0
 10
-12.465
 20
-0.6904
 30
0.0
 10
-12.465
 20
-0.6904
 30
0.0
  0
SPLINE
  5
6F
330
1F
100
AcDbEntity
  8
DEFAULT_2
 62
   250
100
AcDbSpline
210
0.0
220
0.0
230
1.0
 70
    11
 71
     3
 72
    20
 73
    16
 74
     0
 42
0.0000000001
 43
0.0000000001
 40
0.0
 40
0.0
 40
0.0
 40
0.0
 40
0.2
 40
0.2
 40
0.2
 40
0.2
 40
0.4
 40
0.4
 40
0.4
 40
0.4
 40
0.6
 40
0.6
 40
0.6
 40
0.6
 40
1.0
 40
1.0
 40
1.0
 40
1.0
 10
-13.3386
 20
25.4353
 30
0.0
 10
-13.3386
 20
25.4353
 30
0.0
 10
-12.9562
 20
28.1454
 30
0.0
 10
-12.9562
 20
28.1454
 30
0.0
 10
-12.9562
 20
28.1454
 30
0.0
 10
-12.9562
 20
28.1454
 30
0.0
 10
-12.8712
 20
28.1454
 30
0.0
 10
-12.8712
 20
28.1454
 30
0.0
 10
-12.8712
 20
28.1454
 30
0.0
 10
-12.8712
 20
28.1454
 30
0.0
 10
-12.4633
 20
25.4353
 30
0.0
 10
-12.4633
 20
25.4353
 30
0.0
 10
-12.4633
 20
25.4353
 30
0.0
 10
-12.4633
 20
25.4353
 30
0.0
 10
-13.3386
 20
25.4353
 30
0.0
 10
-13.3386
 20
25.4353
 30
0.0
  0
SPLINE
  5
70
330
1F
100
AcDbEntity
  8
DEFAULT_2
 62
   250
100
AcDbSpline
210
0.0
220
0.0
230
1.0
 70
    11
 71
     3
 72
    20
 73
    16
 74
     0
 42
0.0000000001
 43
0.0000000001
 40
0.0
 40
0.0
 40
0.0
 40
0.0
 40
0.2
 40
0.2
 40
0.2
 40
0.2
 40
0.4
 40
0.4
 40
0.4
 40
0.4
 40
0.6
 40
0.6
 40
0.6
 40
0.6
 40
1.0
 40
1.0
 40
1.0
 40
1.0
 10
-12.4725
 20
21.0405
 30
0.0
 10
-12.4725
 20
21.0405
 30
0.0
 10
-12.8549
 20
18.3304
 30
0.0
 10
-12.8549
 20
18.3304
 30
0.0
 10
-12.8549
 20
18.3304
 30
0.0
 10
-12.8549
 20
18.3304
 30
0.0
 10
-12.9399
 20
18.3304
 30
0.0
 10
-12.9399
 20
18.3304
 30
0.0
 10
-12.9399
 20
18.3304
 30
0.0
 10
-12.9399
 20
18.3304
 30
0.0
 10
-13.3478
 20
21.0405
 30
0.0
 10
-13.3478
 20
21.0405
 30
0.0
 10
-13.3478
 20
21.0405
 30
0.0
 10
-13.3478
 20
21.0405
 30
0.0
 10
-12.4725
 20
21.0405
 30
0.0
 10
-12.4725
 20
21.0405
 30
0.0
  0
SPLINE
  5
71
330
1F
100
AcDbEntity
  8
DEFAULT_2
 62
   250
100
AcDbSpline
210
0.0
220
0.0
230
1.0
 70
    11
 71
     3
 72
    20
 73
    16
 74
     0
 42
0.0000000001
 43
0.0000000001
 40
0.0
 40
0.0
 40
0.0
 40
0.0
 40
0.2
 40
0.2
 40
0.2
 40
0.2
 40
0.4
 40
0.4
 40
0.4
 40
0.4
 40
0.6
 40
0.6
 40
0.6
 40
0.6
 40
1.0
 40
1.0
 40
1.0
 40
1.0
 10
-8.9351
 20
-6.319
 30
0.0
 10
-8.9351
 20
-6.319
 30
0.0
 10
-8.5526
 20
-3.6089
 30
0.0
 10
-8.5526
 20
-3.6089
 30
0.0
 10
-8.5526
 20
-3.6089
 30
0.0
 10
-8.5526
 20
-3.6089
 30
0.0
 10
-8.4677
 20
-3.6089
 30
0.0
 10
-8.4677
 20
-3.6089
 30
0.0
 10
-8.4677
 20
-3.6089
 30
0.0
 10
-8.4677
 20
-3.6089
 30
0.0
 10
-8.0598
 20
-6.319
 30
0.0
 10
-8.0598
 20
-6.319
 30
0.0
 10
-8.0598
 20
-6.319
 30
0.0
 10
-8.0598
 20
-6.319
 30
0.0
 10
-8.9351
 20
-6.319
 30
0.0
 10
-8.9351
 20
-6.319
 30
0.0
  0
SPLINE
  5
72
330
1F
100
AcDbEntity
  8
DEFAULT_2
 62
   250
100
AcDbSpline
210
0.0
220
0.0
230
1.0
 70
    11
 71
     3
 72
    20
 73
    16
 74
     0
 42
0.0000000001
 43
0.0000000001
 40
0.0
 40
0.0
 40
0.0
 40
0.0
 40
0.2
 40
0.2
 40
0.2
 40
0.2
 40
0.4
 40
0.4
 40
0.4
 40
0.4
 40
0.6
 40
0.6
 40
0.6
 40
0.6
 40
1.0
 40
1.0
 40
1.0
 40
1.0
 10
-8.0633
 20
2.7559
 30
0.0
 10
-8.0633
 20
2.7559
 30
0.0
 10
-8.4457
 20
0.0457
 30
0.0
 10
-8.4457
 20
0.0457
 30
0.0
 10
-8.4457
 20
0.0457
 30
0.0
 10
-8.4457
 20
0.0457
 30
0.0
 10
-8.5307
 20
0.0457
 30
0.0
 10
-8.5307
 20
0.0457
 30
0.0
 10
-8.5307
 20
0.0457
 30
0.0
 10
-8.5307
 20
0.0457
 30
0.0
 10
-8.9385
 20
2.7559
 30
0.0
 10
-8.9385
 20
2.7559
 30
0.0
 10
-8.9385
 20
2.7559
 30
0.0
 10
-8.9385
 20
2.7559
 30
0.0
 10
-8.0633
 20
2.7559
 30
0.0
 10
-8.0633
 20
2.7559
 30
0.0
  0
SPLINE
  5
73
330
1F
100
AcDbEntity
  8
DEFAULT_2
 62
   250
100
AcDbSpline
210
0.0
220
0.0
230
1.0
 70
    24
 71
     3
 72
     8
 73
     4
 74
     0
 42
0.0000000001
 43
0.0000000001
 40
0.0
 40
0.0
 40
0.0
 40
0.0
 40
1.0
 40
1.0
 40
1.0
 40
1.0
 10
-13.6163
 20
-11.5663
 30
0.0
 10
-13.6163
 20
-11.5663
 30
0.0
 10
-7.8005
 20
-11.5663
 30
0.0
 10
-7.8005
 20
-11.5663
 30
0.0
  0
SPLINE
  5
74
330
1F
100
AcDbEntity
  8
DEFAULT_2
 62
   250
100
AcDbSpline
210
0.0
220
0.0
230
1.0
 70
    11
 71
     3
 72
    20
 73
    16
 74
     0
 42
0.0000000001
 43
0.0000000001
 40
0.0
 40
0.0
 40
0.0
 40
0.0
 40
0.2
 40
0.2
 40
0.2
 40
0.2
 40
0.4
 40
0.4
 40
0.4
 40
0.4
 40
0.6
 40
0.6
 40
0.6
 40
0.6
 40
1.0
 40
1.0
 40
1.0
 40
1.0
 10
-13.3892
 20
-14.6761
 30
0.0
 10
-13.3892
 20
-14.6761
 30
0.0
 10
-12.9619
 20
-11.6487
 30
0.0
 10
-12.9619
 20
-11.6487
 30
0.0
 10
-12.9619
 20
-11.6487
 30
0.0
 10
-12.9619
 20
-11.6487
 30
0.0
 10
-12.867
 20
-11.6487
 30
0.0
 10
-12.867
 20
-11.6487
 30
0.0
 10
-12.867
 20
-11.6487
 30
0.0
 10
-12.867
 20
-11.6487
 30
0.0
 10
-12.4114
 20
-14.6761
 30
0.0
 10
-12.4114
 20
-14.6761
 30
0.0
 10
-12.4114
 20
-14.6761
 30
0.0
 10
-12.4114
 20
-14.6761
 30
0.0
 10
-13.3892
 20
-14.6761
 30
0.0
 10
-13.3892
 20
-14.6761
 30
0.0
  0
SPLINE
  5
75
330
1F
100
AcDbEntity
  8
DEFAULT_2
 62
   250
100
AcDbSpline
210
0.0
220
0.0
230
1.0
 70
    11
 71
     3
 72
    20
 73
    16
 74
     0
 42
0.0000000001
 43
0.0000000001
 40
0.0
 40
0.0
 40
0.0
 40
0.0
 40
0.2
 40
0.2
 40
0.2
 40
0.2
 40
0.4
 40
0.4
 40
0.4
 40
0.4
 40
0.6
 40
0.6
 40
0.6
 40
0.6
 40
1.0
 40
1.0
 40
1.0
 40
1.0
 10
-12.4434
 20
-30.3223
 30
0.0
 10
-12.4434
 20
-30.3223
 30
0.0
 10
-12.8706
 20
-33.3496
 30
0.0
 10
-12.8706
 20
-33.3496
 30
0.0
 10
-12.8706
 20
-33.3496
 30
0.0
 10
-12.8706
 20
-33.3496
 30
0.0
 10
-12.9655
 20
-33.3496
 30
0.0
 10
-12.9655
 20
-33.3496
 30
0.0
 10
-12.9655
 20
-33.3496
 30
0.0
 10
-12.9655
 20
-33.3496
 30
0.0
 10
-13.4211
 20
-30.3223
 30
0.0
 10
-13.4211
 20
-30.3223
 30
0.0
 10
-13.4211
 20
-30.3223
 30
0.0
 10
-13.4211
 20
-30.3223
 30
0.0
 10
-12.4434
 20
-30.3223
 30
0.0
 10
-12.4434
 20
-30.3223
 30
0.0
  0
SPLINE
  5
76
330
1F
100
AcDbEntity
  8
DEFAULT_2
 62
   250
100
AcDbSpline
210
0.0
220
0.0
230
1.0
 70
    24
 71
     3
 72
     8
 73
     4
 74
     0
 42
0.0000000001
 43
0.0000000001
 40
0.0
 40
0.0
 40
0.0
 40
0.0
 40
1.0
 40
1.0
 40
1.0
 40
1.0
 10
-2.4056
 20
-0.4536
 30
0.0
 10
-2.4056
 20
-0.4536
 30
0.0
 10
10.4551
 20
-0.134
 30
0.0
 10
10.4551
 20
-0.134
 30
0.0
  0
SPLINE
  5
77
330
1F
100
AcDbEntity
  8
DEFAULT_2
 62
   250
100
AcDbSpline
210
0.0
220
0.0
230
1.0
 70
    24
 71
     3
 72
     8
 73
     4
 74
     0
 42
0.0000000001
 43
0.0000000001
 40
0.0
 40
0.0
 40
0.0
 40
0.0
 40
1.0
 40
1.0
 40
1.0
 40
1.0
 10
-2.4056
 20
-3.1328
 30
0.0
 10
-2.4056
 20
-3.1328
 30
0.0
 10
10.4551
 20
-2.8133
 30
0.0
 10
10.4551
 20
-2.8133
 30
0.0
  0
SPLINE
  5
78
330
1F
100
AcDbEntity
  8
DEFAULT_2
 62
   250
100
AcDbSpline
210
0.0
220
0.0
230
1.0
 70
    24
 71
     3
 72
     8
 73
     4
 74
     0
 42
0.0000000001
 43
0.0000000001
 40
0.0
 40
0.0
 40
0.0
 40
0.0
 40
1.0
 40
1.0
 40
1.0
 40
1.0
 10
-2.4056
 20
-2.1782
 30
0.0
 10
-2.4056
 20
-2.1782
 30
0.0
 10
10.4551
 20
-1.8586
 30
0.0
 10
10.4551
 20
-1.8586
 30
0.0
  0
SPLINE
  5
79
330
1F
100
AcDbEntity
  8
DEFAULT_2
 62
   250
100
AcDbSpline
210
0.0
220
0.0
230
1.0
 70
    24
 71
     3
 72
     8
 73
     4
 74
     0
 42
0.0000000001
 43
0.0000000001
 40
0.0
 40
0.0
 40
0.0
 40
0.0
 40
1.0
 40
1.0
 40
1.0
 40
1.0
 10
-2.4395
 20
-1.3329
 30
0.0
 10
-2.4395
 20
-1.3329
 30
0.0
 10
10.4211
 20
-1.0133
 30
0.0
 10
10.4211
 20
-1.0133
 30
0.0
  0
SPLINE
  5
7A
330
1F
100
AcDbEntity
  8
DEFAULT_2
 62
   250
100
AcDbSpline
210
0.0
220
0.0
230
1.0
 70
    24
 71
     3
 72
     8
 73
     4
 74
     0
 42
0.0000000001
 43
0.0000000001
 40
0.0
 40
0.0
 40
0.0
 40
0.0
 40
1.0
 40
1.0
 40
1.0
 40
1.0
 10
-2.2745
 20
26.7393
 30
0.0
 10
-2.2745
 20
26.7393
 30
0.0
 10
9.412
 20
27.2351
 30
0.0
 10
9.412
 20
27.2351
 30
0.0
  0
SPLINE
  5
7B
330
1F
100
AcDbEntity
  8
DEFAULT_2
 62
   250
100
AcDbSpline
210
0.0
220
0.0
230
1.0
 70
    24
 71
     3
 72
     8
 73
     4
 74
     0
 42
0.0000000001
 43
0.0000000001
 40
0.0
 40
0.0
 40
0.0
 40
0.0
 40
1.0
 40
1.0
 40
1.0
 40
1.0
 10
8.1636
 20
20.3316
 30
0.0
 10
8.1636
 20
20.3316
 30
0.0
 10
10.239
 20
20.4198
 30
0.0
 10
10.239
 20
20.4198
 30
0.0
  0
SPLINE
  5
7C
330
1F
100
AcDbEntity
  8
DEFAULT_2
 62
   250
100
AcDbSpline
210
0.0
220
0.0
230
1.0
 70
    24
 71
     3
 72
     8
 73
     4
 74
     0
 42
0.0000000001
 43
0.0000000001
 40
0.0
 40
0.0
 40
0.0
 40
0.0
 40
1.0
 40
1.0
 40
1.0
 40
1.0
 10
-2.3358
 20
19.8864
 30
0.0
 10
-2.3358
 20
19.8864
 30
0.0
 10
-0.115
 20
19.9813
 30
0.0
 10
-0.115
 20
19.9813
 30
0.0
  0
SPLINE
  5
7D
330
1F
100
AcDbEntity
  8
DEFAULT_2
 62
   250
100
AcDbSpline
210
0.0
220
0.0
230
1.0
 70
    24
 71
     3
 72
     8
 73
     4
 74
     0
 42
0.0000000001
 43
0.0000000001
 40
0.0
 40
0.0
 40
0.0
 40
0.0
 40
1.0
 40
1.0
 40
1.0
 40
1.0
 10
-2.2791
 20
20.8548
 30
0.0
 10
-2.2791
 20
20.8548
 30
0.0
 10
-0.1907
 20
20.9432
 30
0.0
 10
-0.1907
 20
20.9432
 30
0.0
  0
SPLINE
  5
7E
330
1F
100
AcDbEntity
  8
DEFAULT_2
 62
   250
100
AcDbSpline
210
0.0
220
0.0
230
1.0
 70
    24
 71
     3
 72
     8
 73
     4
 74
     0
 42
0.0000000001
 43
0.0000000001
 40
0.0
 40
0.0
 40
0.0
 40
0.0
 40
1.0
 40
1.0
 40
1.0
 40
1.0
 10
8.1851
 20
21.2992
 30
0.0
 10
8.1851
 20
21.2992
 30
0.0
 10
10.2104
 20
21.3847
 30
0.0
 10
10.2104
 20
21.3847
 30
0.0
  0
SPLINE
  5
7F
330
1F
100
AcDbEntity
  8
DEFAULT_2
 62
   250
100
AcDbSpline
210
0.0
220
0.0
230
1.0
 70
    24
 71
     3
 72
     8
 73
     4
 74
     0
 42
0.0000000001
 43
0.0000000001
 40
0.0
 40
0.0
 40
0.0
 40
0.0
 40
1.0
 40
1.0
 40
1.0
 40
1.0
 10
8.2073
 20
22.2225
 30
0.0
 10
8.2073
 20
22.2225
 30
0.0
 10
10.216
 20
22.3085
 30
0.0
 10
10.216
 20
22.3085
 30
0.0
  0
SPLINE
  5
80
330
1F
100
AcDbEntity
  8
DEFAULT_2
 62
   250
100
AcDbSpline
210
0.0
220
0.0
230
1.0
 70
    24
 71
     3
 72
     8
 73
     4
 74
     0
 42
0.0000000001
 43
0.0000000001
 40
0.0
 40
0.0
 40
0.0
 40
0.0
 40
1.0
 40
1.0
 40
1.0
 40
1.0
 10
-2.3133
 20
21.777
 30
0.0
 10
-2.3133
 20
21.777
 30
0.0
 10
-0.1594
 20
21.8685
 30
0.0
 10
-0.1594
 20
21.8685
 30
0.0
  0
SPLINE
  5
81
330
1F
100
AcDbEntity
  8
DEFAULT_2
 62
   250
100
AcDbSpline
210
0.0
220
0.0
230
1.0
 70
    24
 71
     3
 72
     8
 73
     4
 74
     0
 42
0.0000000001
 43
0.0000000001
 40
0.0
 40
0.0
 40
0.0
 40
0.0
 40
1.0
 40
1.0
 40
1.0
 40
1.0
 10
-2.3318
 20
22.6914
 30
0.0
 10
-2.3318
 20
22.6914
 30
0.0
 10
10.2911
 20
23.227
 30
0.0
 10
10.2911
 20
23.227
 30
0.0
  0
SPLINE
  5
82
330
1F
100
AcDbEntity
  8
DEFAULT_2
 62
   250
100
AcDbSpline
210
0.0
220
0.0
230
1.0
 70
    24
 71
     3
 72
     8
 73
     4
 74
     0
 42
0.0000000001
 43
0.0000000001
 40
0.0
 40
0.0
 40
0.0
 40
0.0
 40
1.0
 40
1.0
 40
1.0
 40
1.0
 10
-2.3635
 20
23.5131
 30
0.0
 10
-2.3635
 20
23.5131
 30
0.0
 10
10.2594
 20
24.0486
 30
0.0
 10
10.2594
 20
24.0486
 30
0.0
  0
SPLINE
  5
83
330
1F
100
AcDbEntity
  8
DEFAULT_2
 62
   250
100
AcDbSpline
210
0.0
220
0.0
230
1.0
 70
    24
 71
     3
 72
     8
 73
     4
 74
     0
 42
0.0000000001
 43
0.0000000001
 40
0.0
 40
0.0
 40
0.0
 40
0.0
 40
1.0
 40
1.0
 40
1.0
 40
1.0
 10
-2.3635
 20
25.0977
 30
0.0
 10
-2.3635
 20
25.0977
 30
0.0
 10
10.2594
 20
25.633
 30
0.0
 10
10.2594
 20
25.633
 30
0.0
  0
SPLINE
  5
84
330
1F
100
AcDbEntity
  8
DEFAULT_2
 62
   250
100
AcDbSpline
210
0.0
220
0.0
230
1.0
 70
    24
 71
     3
 72
     8
 73
     4
 74
     0
 42
0.0000000001
 43
0.0000000001
 40
0.0
 40
0.0
 40
0.0
 40
0.0
 40
1.0
 40
1.0
 40
1.0
 40
1.0
 10
-2.18
 20
25.9981
 30
0.0
 10
-2.18
 20
25.9981
 30
0.0
 10
10.2924
 20
26.5273
 30
0.0
 10
10.2924
 20
26.5273
 30
0.0
  0
SPLINE
  5
85
330
1F
100
AcDbEntity
  8
DEFAULT_2
 62
   250
100
AcDbSpline
210
0.0
220
0.0
230
1.0
 70
    24
 71
     3
 72
     8
 73
     4
 74
     0
 42
0.0000000001
 43
0.0000000001
 40
0.0
 40
0.0
 40
0.0
 40
0.0
 40
1.0
 40
1.0
 40
1.0
 40
1.0
 10
8.2397
 20
19.5998
 30
0.0
 10
8.2397
 20
19.5998
 30
0.0
 10
10.316
 20
19.6878
 30
0.0
 10
10.316
 20
19.6878
 30
0.0
  0
SPLINE
  5
86
330
1F
100
AcDbEntity
  8
DEFAULT_2
 62
   250
100
AcDbSpline
210
0.0
220
0.0
230
1.0
 70
     8
 71
     3
 72
    40
 73
    36
 74
     0
 42
0.0000000001
 43
0.0000000001
 40
0.0
 40
0.0
 40
0.0
 40
0.0
 40
0.1
 40
0.1
 40
0.1
 40
0.1
 40
0.2
 40
0.2
 40
0.2
 40
0.2
 40
0.3
 40
0.3
 40
0.3
 40
0.3
 40
0.4
 40
0.4
 40
0.4
 40
0.4
 40
0.5
 40
0.5
 40
0.5
 40
0.5
 40
0.6
 40
0.6
 40
0.6
 40
0.6
 40
0.7
 40
0.7
 40
0.7
 40
0.7
 40
0.8
 40
0.8
 40
0.8
 40
0.8
 40
1.0
 40
1.0
 40
1.0
 40
1.0
 10
-3.1249
 20
15.1263
 30
0.0
 10
-3.1249
 20
15.1263
 30
0.0
 10
-3.105
 20
0.2479
 30
0.0
 10
-3.105
 20
0.2479
 30
0.0
 10
-3.105
 20
0.2479
 30
0.0
 10
-3.105
 20
0.2479
 30
0.0
 10
-2.4683
 20
-0.0843
 30
0.0
 10
-2.4683
 20
-0.0843
 30
0.0
 10
-2.4683
 20
-0.0843
 30
0.0
 10
-2.4683
 20
-0.0843
 30
0.0
 10
-2.4683
 20
-3.1573
 30
0.0
 10
-2.4683
 20
-3.1573
 30
0.0
 10
-2.4683
 20
-3.1573
 30
0.0
 10
-2.4683
 20
-3.1573
 30
0.0
 10
-2.1716
 20
-3.5096
 30
0.0
 10
-2.1716
 20
-3.5096
 30
0.0
 10
-2.1716
 20
-3.5096
 30
0.0
 10
-2.1716
 20
-3.5096
 30
0.0
 10
10.1623
 20
-3.5096
 30
0.0
 10
10.1623
 20
-3.5096
 30
0.0
 10
10.1623
 20
-3.5096
 30
0.0
 10
10.1623
 20
-3.5096
 30
0.0
 10
10.5226
 20
-3.245
 30
0.0
 10
10.5226
 20
-3.245
 30
0.0
 10
10.5226
 20
-3.245
 30
0.0
 10
10.5226
 20
-3.245
 30
0.0
 10
10.5226
 20
-0.0731
 30
0.0
 10
10.5226
 20
-0.0731
 30
0.0
 10
10.5226
 20
-0.0731
 30
0.0
 10
10.5226
 20
-0.0731
 30
0.0
 10
11.2047
 20
0.1997
 30
0.0
 10
11.2047
 20
0.1997
 30
0.0
 10
11.2047
 20
0.1997
 30
0.0
 10
11.2047
 20
0.1997
 30
0.0
 10
11.1365
 20
15.172
 30
0.0
 10
11.1365
 20
15.172
 30
0.0
  0
SPLINE
  5
87
330
1F
100
AcDbEntity
  8
DEFAULT_2
 62
   250
100
AcDbSpline
210
0.0
220
0.0
230
1.0
 70
    11
 71
     3
 72
   128
 73
   124
 74
     0
 42
0.0000000001
 43
0.0000000001
 40
0.0
 40
0.0
 40
0.0
 40
0.0
 40
0.03125
 40
0.03125
 40
0.03125
 40
0.03125
 40
0.0625
 40
0.0625
 40
0.0625
 40
0.0625
 40
0.09375
 40
0.09375
 40
0.09375
 40
0.09375
 40
0.125
 40
0.125
 40
0.125
 40
0.125
 40
0.15625
 40
0.15625
 40
0.15625
 40
0.15625
 40
0.1875
 40
0.1875
 40
0.1875
 40
0.1875
 40
0.21875
 40
0.21875
 40
0.21875
 40
0.21875
 40
0.25
 40
0.25
 40
0.25
 40
0.25
 40
0.28125
 40
0.28125
 40
0.28125
 40
0.28125
 40
0.3125
 40
0.3125
 40
0.3125
 40
0.3125
 40
0.34375
 40
0.34375
 40
0.34375
 40
0.34375
 40
0.375
 40
0.375
 40
0.375
 40
0.375
 40
0.40625
 40
0.40625
 40
0.40625
 40
0.40625
 40
0.4375
 40
0.4375
 40
0.4375
 40
0.4375
 40
0.46875
 40
0.46875
 40
0.46875
 40
0.46875
 40
0.5
 40
0.5
 40
0.5
 40
0.5
 40
0.53125
 40
0.53125
 40
0.53125
 40
0.53125
 40
0.5625
 40
0.5625
 40
0.5625
 40
0.5625
 40
0.59375
 40
0.59375
 40
0.59375
 40
0.59375
 40
0.625
 40
0.625
 40
0.625
 40
0.625
 40
0.65625
 40
0.65625
 40
0.65625
 40
0.65625
 40
0.6875
 40
0.6875
 40
0.6875
 40
0.6875
 40
0.71875
 40
0.71875
 40
0.71875
 40
0.71875
 40
0.75
 40
0.75
 40
0.75
 40
0.75
 40
0.78125
 40
0.78125
 40
0.78125
 40
0.78125
 40
0.8125
 40
0.8125
 40
0.8125
 40
0.8125
 40
0.84375
 40
0.84375
 40
0.84375
 40
0.84375
 40
0.875
 40
0.875
 40
0.875
 40
0.875
 40
0.90625
 40
0.90625
 40
0.90625
 40
0.90625
 40
0.9375
 40
0.9375
 40
0.9375
 40
0.9375
 40
1.0
 40
1.0
 40
1.0
 40
1.0
 10
-0.5694
 20
17.2294
 30
0.0
 10
-0.5694
 20
17.2294
 30
0.0
 10
-1.027
 20
17.1418
 30
0.0
 10
-1.027
 20
17.1418
 30
0.0
 10
-1.027
 20
17.1418
 30
0.0
 10
-1.027
 20
17.1418
 30
0.0
 10
-1.4821
 20
17.0816
 30
0.0
 10
-1.4821
 20
17.0816
 30
0.0
 10
-1.4821
 20
17.0816
 30
0.0
 10
-1.4821
 20
17.0816
 30
0.0
 10
-1.9384
 20
17.0508
 30
0.0
 10
-1.9384
 20
17.0508
 30
0.0
 10
-1.9384
 20
17.0508
 30
0.0
 10
-1.9384
 20
17.0508
 30
0.0
 10
-2.3957
 20
17.0508
 30
0.0
 10
-2.3957
 20
17.0508
 30
0.0
 10
-2.3957
 20
17.0508
 30
0.0
 10
-2.3957
 20
17.0508
 30
0.0
 10
-2.8519
 20
17.0816
 30
0.0
 10
-2.8519
 20
17.0816
 30
0.0
 10
-2.8519
 20
17.0816
 30
0.0
 10
-2.8519
 20
17.0816
 30
0.0
 10
-3.307
 20
17.1418
 30
0.0
 10
-3.307
 20
17.1418
 30
0.0
 10
-3.307
 20
17.1418
 30
0.0
 10
-3.307
 20
17.1418
 30
0.0
 10
-3.7646
 20
17.2294
 30
0.0
 10
-3.7646
 20
17.2294
 30
0.0
 10
-3.7646
 20
17.2294
 30
0.0
 10
-3.7646
 20
17.2294
 30
0.0
 10
-5.2528
 20
17.583
 30
0.0
 10
-5.2528
 20
17.583
 30
0.0
 10
-5.2528
 20
17.583
 30
0.0
 10
-5.2528
 20
17.583
 30
0.0
 10
-5.3859
 20
17.6943
 30
0.0
 10
-5.3859
 20
17.6943
 30
0.0
 10
-5.3859
 20
17.6943
 30
0.0
 10
-5.3859
 20
17.6943
 30
0.0
 10
-5.4526
 20
17.9168
 30
0.0
 10
-5.4526
 20
17.9168
 30
0.0
 10
-5.4526
 20
17.9168
 30
0.0
 10
-5.4526
 20
17.9168
 30
0.0
 10
-5.4748
 20
18.0725
 30
0.0
 10
-5.4748
 20
18.0725
 30
0.0
 10
-5.4748
 20
18.0725
 30
0.0
 10
-5.4748
 20
18.0725
 30
0.0
 10
-5.3638
 20
18.2282
 30
0.0
 10
-5.3638
 20
18.2282
 30
0.0
 10
-5.3638
 20
18.2282
 30
0.0
 10
-5.3638
 20
18.2282
 30
0.0
 10
-5.1861
 20
18.3394
 30
0.0
 10
-5.1861
 20
18.3394
 30
0.0
 10
-5.1861
 20
18.3394
 30
0.0
 10
-5.1861
 20
18.3394
 30
0.0
 10
13.2653
 20
18.3172
 30
0.0
 10
13.2653
 20
18.3172
 30
0.0
 10
13.2653
 20
18.3172
 30
0.0
 10
13.2653
 20
18.3172
 30
0.0
 10
13.4429
 20
18.2059
 30
0.0
 10
13.4429
 20
18.2059
 30
0.0
 10
13.4429
 20
18.2059
 30
0.0
 10
13.4429
 20
18.2059
 30
0.0
 10
13.4874
 20
17.9835
 30
0.0
 10
13.4874
 20
17.9835
 30
0.0
 10
13.4874
 20
17.9835
 30
0.0
 10
13.4874
 20
17.9835
 30
0.0
 10
13.3986
 20
17.6943
 30
0.0
 10
13.3986
 20
17.6943
 30
0.0
 10
13.3986
 20
17.6943
 30
0.0
 10
13.3986
 20
17.6943
 30
0.0
 10
13.132
 20
17.5608
 30
0.0
 10
13.132
 20
17.5608
 30
0.0
 10
13.132
 20
17.5608
 30
0.0
 10
13.132
 20
17.5608
 30
0.0
 10
10.8672
 20
17.0713
 30
0.0
 10
10.8672
 20
17.0713
 30
0.0
 10
10.8672
 20
17.0713
 30
0.0
 10
10.8672
 20
17.0713
 30
0.0
 10
10.3344
 20
17.0045
 30
0.0
 10
10.3344
 20
17.0045
 30
0.0
 10
10.3344
 20
17.0045
 30
0.0
 10
10.3344
 20
17.0045
 30
0.0
 10
9.5795
 20
17.0268
 30
0.0
 10
9.5795
 20
17.0268
 30
0.0
 10
9.5795
 20
17.0268
 30
0.0
 10
9.5795
 20
17.0268
 30
0.0
 10
8.7579
 20
17.2048
 30
0.0
 10
8.7579
 20
17.2048
 30
0.0
 10
8.7579
 20
17.2048
 30
0.0
 10
8.7579
 20
17.2048
 30
0.0
 10
8.2028
 20
17.2715
 30
0.0
 10
8.2028
 20
17.2715
 30
0.0
 10
8.2028
 20
17.2715
 30
0.0
 10
8.2028
 20
17.2715
 30
0.0
 10
7.5145
 20
17.2938
 30
0.0
 10
7.5145
 20
17.2938
 30
0.0
 10
7.5145
 20
17.2938
 30
0.0
 10
7.5145
 20
17.2938
 30
0.0
 10
6.7151
 20
17.2048
 30
0.0
 10
6.7151
 20
17.2048
 30
0.0
 10
6.7151
 20
17.2048
 30
0.0
 10
6.7151
 20
17.2048
 30
0.0
 10
4.9832
 20
17.049
 30
0.0
 10
4.9832
 20
17.049
 30
0.0
 10
4.9832
 20
17.049
 30
0.0
 10
4.9832
 20
17.049
 30
0.0
 10
3.6954
 20
17.0268
 30
0.0
 10
3.6954
 20
17.0268
 30
0.0
 10
3.6954
 20
17.0268
 30
0.0
 10
3.6954
 20
17.0268
 30
0.0
 10
1.7636
 20
17.138
 30
0.0
 10
1.7636
 20
17.138
 30
0.0
 10
1.7636
 20
17.138
 30
0.0
 10
1.7636
 20
17.138
 30
0.0
 10
0.6979
 20
17.2938
 30
0.0
 10
0.6979
 20
17.2938
 30
0.0
 10
0.6979
 20
17.2938
 30
0.0
 10
0.6979
 20
17.2938
 30
0.0
 10
-0.1459
 20
17.316
 30
0.0
 10
-0.1459
 20
17.316
 30
0.0
 10
-0.1459
 20
17.316
 30
0.0
 10
-0.1459
 20
17.316
 30
0.0
 10
-0.5694
 20
17.2294
 30
0.0
 10
-0.5694
 20
17.2294
 30
0.0
  0
SPLINE
  5
88
330
1F
100
AcDbEntity
  8
DEFAULT_2
 62
   250
100
AcDbSpline
210
0.0
220
0.0
230
1.0
 70
     8
 71
     3
 72
    32
 73
    28
 74
     0
 42
0.0000000001
 43
0.0000000001
 40
0.0
 40
0.0
 40
0.0
 40
0.0
 40
0.125
 40
0.125
 40
0.125
 40
0.125
 40
0.25
 40
0.25
 40
0.25
 40
0.25
 40
0.375
 40
0.375
 40
0.375
 40
0.375
 40
0.5
 40
0.5
 40
0.5
 40
0.5
 40
0.625
 40
0.625
 40
0.625
 40
0.625
 40
0.75
 40
0.75
 40
0.75
 40
0.75
 40
1.0
 40
1.0
 40
1.0
 40
1.0
 10
-3.9633
 20
17.2463
 30
0.0
 10
-3.9633
 20
17.2463
 30
0.0
 10
-3.9764
 20
15.1494
 30
0.0
 10
-3.9764
 20
15.1494
 30
0.0
 10
-3.9764
 20
15.1494
 30
0.0
 10
-3.9764
 20
15.1494
 30
0.0
 10
-0.5694
 20
15.1494
 30
0.0
 10
-0.5694
 20
15.1494
 30
0.0
 10
-0.5694
 20
15.1494
 30
0.0
 10
-0.5694
 20
15.1494
 30
0.0
 10
0.8
 20
15.1494
 30
0.0
 10
0.8
 20
15.1494
 30
0.0
 10
0.8
 20
15.1494
 30
0.0
 10
0.8
 20
15.1494
 30
0.0
 10
7.1906
 20
15.1494
 30
0.0
 10
7.1906
 20
15.1494
 30
0.0
 10
7.1906
 20
15.1494
 30
0.0
 10
7.1906
 20
15.1494
 30
0.0
 10
8.5601
 20
15.1494
 30
0.0
 10
8.5601
 20
15.1494
 30
0.0
 10
8.5601
 20
15.1494
 30
0.0
 10
8.5601
 20
15.1494
 30
0.0
 10
11.9671
 20
15.1494
 30
0.0
 10
11.9671
 20
15.1494
 30
0.0
 10
11.9671
 20
15.1494
 30
0.0
 10
11.9671
 20
15.1494
 30
0.0
 10
11.9554
 20
17.2463
 30
0.0
 10
11.9554
 20
17.2463
 30
0.0
  0
SPLINE
  5
89
330
1F
100
AcDbEntity
  8
DEFAULT_2
 62
   250
100
AcDbSpline
210
0.0
220
0.0
230
1.0
 70
    27
 71
     3
 72
    12
 73
     8
 74
     0
 42
0.0000000001
 43
0.0000000001
 40
0.0
 40
0.0
 40
0.0
 40
0.0
 40
0.3333333333333333
 40
0.3333333333333333
 40
0.3333333333333333
 40
0.3333333333333333
 40
1.0
 40
1.0
 40
1.0
 40
1.0
 10
-2.4878
 20
-0.0308
 30
0.0
 10
-2.4878
 20
-0.0308
 30
0.0
 10
10.4785
 20
-0.0308
 30
0.0
 10
10.4785
 20
-0.0308
 30
0.0
 10
10.4785
 20
-0.0308
 30
0.0
 10
10.4785
 20
-0.0308
 30
0.0
 10
-2.4878
 20
-0.0308
 30
0.0
 10
-2.4878
 20
-0.0308
 30
0.0
  0
SPLINE
  5
8A
330
1F
100
AcDbEntity
  8
DEFAULT_2
 62
   250
100
AcDbSpline
210
0.0
220
0.0
230
1.0
 70
    27
 71
     3
 72
    12
 73
     8
 74
     0
 42
0.0000000001
 43
0.0000000001
 40
0.0
 40
0.0
 40
0.0
 40
0.0
 40
0.3333333333333333
 40
0.3333333333333333
 40
0.3333333333333333
 40
0.3333333333333333
 40
1.0
 40
1.0
 40
1.0
 40
1.0
 10
-0.5694
 20
17.2294
 30
0.0
 10
-0.5694
 20
17.2294
 30
0.0
 10
-0.5694
 20
15.1494
 30
0.0
 10
-0.5694
 20
15.1494
 30
0.0
 10
-0.5694
 20
15.1494
 30
0.0
 10
-0.5694
 20
15.1494
 30
0.0
 10
-0.5694
 20
17.2294
 30
0.0
 10
-0.5694
 20
17.2294
 30
0.0
  0
SPLINE
  5
8B
330
1F
100
AcDbEntity
  8
DEFAULT_2
 62
   250
100
AcDbSpline
210
0.0
220
0.0
230
1.0
 70
    27
 71
     3
 72
    20
 73
    16
 74
     0
 42
0.0000000001
 43
0.0000000001
 40
0.0
 40
0.0
 40
0.0
 40
0.0
 40
0.2
 40
0.2
 40
0.2
 40
0.2
 40
0.4
 40
0.4
 40
0.4
 40
0.4
 40
0.6
 40
0.6
 40
0.6
 40
0.6
 40
1.0
 40
1.0
 40
1.0
 40
1.0
 10
7.1906
 20
17.2294
 30
0.0
 10
7.1906
 20
17.2294
 30
0.0
 10
7.1906
 20
15.1593
 30
0.0
 10
7.1906
 20
15.1593
 30
0.0
 10
7.1906
 20
15.1593
 30
0.0
 10
7.1906
 20
15.1593
 30
0.0
 10
7.1906
 20
15.1494
 30
0.0
 10
7.1906
 20
15.1494
 30
0.0
 10
7.1906
 20
15.1494
 30
0.0
 10
7.1906
 20
15.1494
 30
0.0
 10
7.1906
 20
15.1593
 30
0.0
 10
7.1906
 20
15.1593
 30
0.0
 10
7.1906
 20
15.1593
 30
0.0
 10
7.1906
 20
15.1593
 30
0.0
 10
7.1906
 20
17.2294
 30
0.0
 10
7.1906
 20
17.2294
 30
0.0
  0
SPLINE
  5
8C
330
1F
100
AcDbEntity
  8
DEFAULT_2
 62
   250
100
AcDbSpline
210
0.0
220
0.0
230
1.0
 70
    27
 71
     3
 72
    12
 73
     8
 74
     0
 42
0.0000000001
 43
0.0000000001
 40
0.0
 40
0.0
 40
0.0
 40
0.0
 40
0.3333333333333333
 40
0.3333333333333333
 40
0.3333333333333333
 40
0.3333333333333333
 40
1.0
 40
1.0
 40
1.0
 40
1.0
 10
0.8
 20
17.2294
 30
0.0
 10
0.8
 20
17.2294
 30
0.0
 10
0.8
 20
15.1494
 30
0.0
 10
0.8
 20
15.1494
 30
0.0
 10
0.8
 20
15.1494
 30
0.0
 10
0.8
 20
15.1494
 30
0.0
 10
0.8
 20
17.2294
 30
0.0
 10
0.8
 20
17.2294
 30
0.0
  0
SPLINE
  5
8D
330
1F
100
AcDbEntity
  8
DEFAULT_2
 62
   250
100
AcDbSpline
210
0.0
220
0.0
230
1.0
 70
    27
 71
     3
 72
    20
 73
    16
 74
     0
 42
0.0000000001
 43
0.0000000001
 40
0.0
 40
0.0
 40
0.0
 40
0.0
 40
0.2
 40
0.2
 40
0.2
 40
0.2
 40
0.4
 40
0.4
 40
0.4
 40
0.4
 40
0.6
 40
0.6
 40
0.6
 40
0.6
 40
1.0
 40
1.0
 40
1.0
 40
1.0
 10
8.5601
 20
17.2294
 30
0.0
 10
8.5601
 20
17.2294
 30
0.0
 10
8.5601
 20
15.1637
 30
0.0
 10
8.5601
 20
15.1637
 30
0.0
 10
8.5601
 20
15.1637
 30
0.0
 10
8.5601
 20
15.1637
 30
0.0
 10
8.5601
 20
15.1494
 30
0.0
 10
8.5601
 20
15.1494
 30
0.0
 10
8.5601
 20
15.1494
 30
0.0
 10
8.5601
 20
15.1494
 30
0.0
 10
8.5601
 20
15.1637
 30
0.0
 10
8.5601
 20
15.1637
 30
0.0
 10
8.5601
 20
15.1637
 30
0.0
 10
8.5601
 20
15.1637
 30
0.0
 10
8.5601
 20
17.2294
 30
0.0
 10
8.5601
 20
17.2294
 30
0.0
  0
SPLINE
  5
8E
330
1F
100
AcDbEntity
  8
DEFAULT_2
 62
   250
100
AcDbSpline
210
0.0
220
0.0
230
1.0
 70
    11
 71
     3
 72
    20
 73
    16
 74
     0
 42
0.0000000001
 43
0.0000000001
 40
0.0
 40
0.0
 40
0.0
 40
0.0
 40
0.2
 40
0.2
 40
0.2
 40
0.2
 40
0.4
 40
0.4
 40
0.4
 40
0.4
 40
0.6
 40
0.6
 40
0.6
 40
0.6
 40
1.0
 40
1.0
 40
1.0
 40
1.0
 10
-5.4582
 20
19.3957
 30
0.0
 10
-5.4582
 20
19.3957
 30
0.0
 10
13.4781
 20
19.3957
 30
0.0
 10
13.4781
 20
19.3957
 30
0.0
 10
13.4781
 20
19.3957
 30
0.0
 10
13.4781
 20
19.3957
 30
0.0
 10
13.4781
 20
18.8243
 30
0.0
 10
13.4781
 20
18.8243
 30
0.0
 10
13.4781
 20
18.8243
 30
0.0
 10
13.4781
 20
18.8243
 30
0.0
 10
-5.4582
 20
18.8243
 30
0.0
 10
-5.4582
 20
18.8243
 30
0.0
 10
-5.4582
 20
18.8243
 30
0.0
 10
-5.4582
 20
18.8243
 30
0.0
 10
-5.4582
 20
19.3957
 30
0.0
 10
-5.4582
 20
19.3957
 30
0.0
  0
SPLINE
  5
8F
330
1F
100
AcDbEntity
  8
DEFAULT_2
 62
   250
100
AcDbSpline
210
0.0
220
0.0
230
1.0
 70
    11
 71
     3
 72
    20
 73
    16
 74
     0
 42
0.0000000001
 43
0.0000000001
 40
0.0
 40
0.0
 40
0.0
 40
0.0
 40
0.2
 40
0.2
 40
0.2
 40
0.2
 40
0.4
 40
0.4
 40
0.4
 40
0.4
 40
0.6
 40
0.6
 40
0.6
 40
0.6
 40
1.0
 40
1.0
 40
1.0
 40
1.0
 10
-5.4828
 20
24.7092
 30
0.0
 10
-5.4828
 20
24.7092
 30
0.0
 10
13.4535
 20
24.7092
 30
0.0
 10
13.4535
 20
24.7092
 30
0.0
 10
13.4535
 20
24.7092
 30
0.0
 10
13.4535
 20
24.7092
 30
0.0
 10
13.4535
 20
24.1378
 30
0.0
 10
13.4535
 20
24.1378
 30
0.0
 10
13.4535
 20
24.1378
 30
0.0
 10
13.4535
 20
24.1378
 30
0.0
 10
-5.4828
 20
24.1378
 30
0.0
 10
-5.4828
 20
24.1378
 30
0.0
 10
-5.4828
 20
24.1378
 30
0.0
 10
-5.4828
 20
24.1378
 30
0.0
 10
-5.4828
 20
24.7092
 30
0.0
 10
-5.4828
 20
24.7092
 30
0.0
  0
SPLINE
  5
90
330
1F
100
AcDbEntity
  8
DEFAULT_2
 62
   250
100
AcDbSpline
210
0.0
220
0.0
230
1.0
 70
     8
 71
     3
 72
    32
 73
    28
 74
     0
 42
0.0000000001
 43
0.0000000001
 40
0.0
 40
0.0
 40
0.0
 40
0.0
 40
0.125
 40
0.125
 40
0.125
 40
0.125
 40
0.25
 40
0.25
 40
0.25
 40
0.25
 40
0.375
 40
0.375
 40
0.375
 40
0.375
 40
0.5
 40
0.5
 40
0.5
 40
0.5
 40
0.625
 40
0.625
 40
0.625
 40
0.625
 40
0.75
 40
0.75
 40
0.75
 40
0.75
 40
1.0
 40
1.0
 40
1.0
 40
1.0
 10
-0.1539
 20
19.4479
 30
0.0
 10
-0.1539
 20
19.4479
 30
0.0
 10
-0.1539
 20
22.5833
 30
0.0
 10
-0.1539
 20
22.5833
 30
0.0
 10
-0.1539
 20
22.5833
 30
0.0
 10
-0.1539
 20
22.5833
 30
0.0
 10
0.5987
 20
22.583
 30
0.0
 10
0.5987
 20
22.583
 30
0.0
 10
0.5987
 20
22.583
 30
0.0
 10
0.5987
 20
22.583
 30
0.0
 10
2.7396
 20
22.5825
 30
0.0
 10
2.7396
 20
22.5825
 30
0.0
 10
2.7396
 20
22.5825
 30
0.0
 10
2.7396
 20
22.5825
 30
0.0
 10
5.2479
 20
22.5817
 30
0.0
 10
5.2479
 20
22.5817
 30
0.0
 10
5.2479
 20
22.5817
 30
0.0
 10
5.2479
 20
22.5817
 30
0.0
 10
7.3888
 20
22.5811
 30
0.0
 10
7.3888
 20
22.5811
 30
0.0
 10
7.3888
 20
22.5811
 30
0.0
 10
7.3888
 20
22.5811
 30
0.0
 10
8.1806
 20
22.5809
 30
0.0
 10
8.1806
 20
22.5809
 30
0.0
 10
8.1806
 20
22.5809
 30
0.0
 10
8.1806
 20
22.5809
 30
0.0
 10
8.1806
 20
19.3957
 30
0.0
 10
8.1806
 20
19.3957
 30
0.0
  0
SPLINE
  5
91
330
1F
100
AcDbEntity
  8
DEFAULT_2
 62
   250
100
AcDbSpline
210
0.0
220
0.0
230
1.0
 70
    11
 71
     3
 72
    36
 73
    32
 74
     0
 42
0.0000000001
 43
0.0000000001
 40
0.0
 40
0.0
 40
0.0
 40
0.0
 40
0.1111111111111111
 40
0.1111111111111111
 40
0.1111111111111111
 40
0.1111111111111111
 40
0.2222222222222222
 40
0.2222222222222222
 40
0.2222222222222222
 40
0.2222222222222222
 40
0.3333333333333333
 40
0.3333333333333333
 40
0.3333333333333333
 40
0.3333333333333333
 40
0.4444444444444444
 40
0.4444444444444444
 40
0.4444444444444444
 40
0.4444444444444444
 40
0.5555555555555556
 40
0.5555555555555556
 40
0.5555555555555556
 40
0.5555555555555556
 40
0.6666666666666666
 40
0.6666666666666666
 40
0.6666666666666666
 40
0.6666666666666666
 40
0.7777777777777778
 40
0.7777777777777778
 40
0.7777777777777778
 40
0.7777777777777778
 40
1.0
 40
1.0
 40
1.0
 40
1.0
 10
13.7135
 20
28.2271
 30
0.0
 10
13.7135
 20
28.2271
 30
0.0
 10
-5.726
 20
28.2271
 30
0.0
 10
-5.726
 20
28.2271
 30
0.0
 10
-5.726
 20
28.2271
 30
0.0
 10
-5.726
 20
28.2271
 30
0.0
 10
-5.7191
 20
27.9957
 30
0.0
 10
-5.7191
 20
27.9957
 30
0.0
 10
-5.7191
 20
27.9957
 30
0.0
 10
-5.7191
 20
27.9957
 30
0.0
 10
-5.2083
 20
27.4617
 30
0.0
 10
-5.2083
 20
27.4617
 30
0.0
 10
-5.2083
 20
27.4617
 30
0.0
 10
-5.2083
 20
27.4617
 30
0.0
 10
-2.2108
 20
27.2392
 30
0.0
 10
-2.2108
 20
27.2392
 30
0.0
 10
-2.2108
 20
27.2392
 30
0.0
 10
-2.2108
 20
27.2392
 30
0.0
 10
10.2456
 20
27.2392
 30
0.0
 10
10.2456
 20
27.2392
 30
0.0
 10
10.2456
 20
27.2392
 30
0.0
 10
10.2456
 20
27.2392
 30
0.0
 10
13.2209
 20
27.484
 30
0.0
 10
13.2209
 20
27.484
 30
0.0
 10
13.2209
 20
27.484
 30
0.0
 10
13.2209
 20
27.484
 30
0.0
 10
13.7093
 20
27.9512
 30
0.0
 10
13.7093
 20
27.9512
 30
0.0
 10
13.7093
 20
27.9512
 30
0.0
 10
13.7093
 20
27.9512
 30
0.0
 10
13.7135
 20
28.2271
 30
0.0
 10
13.7135
 20
28.2271
 30
0.0
  0
SPLINE
  5
92
330
1F
100
AcDbEntity
  8
DEFAULT_2
 62
   250
100
AcDbSpline
210
0.0
220
0.0
230
1.0
 70
    27
 71
     3
 72
    12
 73
     8
 74
     0
 42
0.0000000001
 43
0.0000000001
 40
0.0
 40
0.0
 40
0.0
 40
0.0
 40
0.3333333333333333
 40
0.3333333333333333
 40
0.3333333333333333
 40
0.3333333333333333
 40
1.0
 40
1.0
 40
1.0
 40
1.0
 10
-2.2771
 20
18.8835
 30
0.0
 10
-2.2771
 20
18.8835
 30
0.0
 10
-2.2771
 20
18.2565
 30
0.0
 10
-2.2771
 20
18.2565
 30
0.0
 10
-2.2771
 20
18.2565
 30
0.0
 10
-2.2771
 20
18.2565
 30
0.0
 10
-2.2771
 20
18.8835
 30
0.0
 10
-2.2771
 20
18.8835
 30
0.0
  0
SPLINE
  5
93
330
1F
100
AcDbEntity
  8
DEFAULT_2
 62
   250
100
AcDbSpline
210
0.0
220
0.0
230
1.0
 70
    27
 71
     3
 72
    16
 73
    12
 74
     0
 42
0.0000000001
 43
0.0000000001
 40
0.0
 40
0.0
 40
0.0
 40
0.0
 40
0.25
 40
0.25
 40
0.25
 40
0.25
 40
0.5
 40
0.5
 40
0.5
 40
0.5
 40
1.0
 40
1.0
 40
1.0
 40
1.0
 10
7.3888
 20
22.5833
 30
0.0
 10
7.3888
 20
22.5833
 30
0.0
 10
7.3888
 20
22.5811
 30
0.0
 10
7.3888
 20
22.5811
 30
0.0
 10
7.3888
 20
22.5811
 30
0.0
 10
7.3888
 20
22.5811
 30
0.0
 10
7.3888
 20
19.4479
 30
0.0
 10
7.3888
 20
19.4479
 30
0.0
 10
7.3888
 20
19.4479
 30
0.0
 10
7.3888
 20
19.4479
 30
0.0
 10
7.3888
 20
22.5833
 30
0.0
 10
7.3888
 20
22.5833
 30
0.0
  0
SPLINE
  5
94
330
1F
100
AcDbEntity
  8
DEFAULT_2
 62
   250
100
AcDbSpline
210
0.0
220
0.0
230
1.0
 70
    27
 71
     3
 72
    20
 73
    16
 74
     0
 42
0.0000000001
 43
0.0000000001
 40
0.0
 40
0.0
 40
0.0
 40
0.0
 40
0.2
 40
0.2
 40
0.2
 40
0.2
 40
0.4
 40
0.4
 40
0.4
 40
0.4
 40
0.6
 40
0.6
 40
0.6
 40
0.6
 40
1.0
 40
1.0
 40
1.0
 40
1.0
 10
5.2479
 20
22.5833
 30
0.0
 10
5.2479
 20
22.5833
 30
0.0
 10
5.2479
 20
22.5817
 30
0.0
 10
5.2479
 20
22.5817
 30
0.0
 10
5.2479
 20
22.5817
 30
0.0
 10
5.2479
 20
22.5817
 30
0.0
 10
5.2479
 20
19.4479
 30
0.0
 10
5.2479
 20
19.4479
 30
0.0
 10
5.2479
 20
19.4479
 30
0.0
 10
5.2479
 20
19.4479
 30
0.0
 10
5.2479
 20
22.5817
 30
0.0
 10
5.2479
 20
22.5817
 30
0.0
 10
5.2479
 20
22.5817
 30
0.0
 10
5.2479
 20
22.5817
 30
0.0
 10
5.2479
 20
22.5833
 30
0.0
 10
5.2479
 20
22.5833
 30
0.0
  0
SPLINE
  5
95
330
1F
100
AcDbEntity
  8
DEFAULT_2
 62
   250
100
AcDbSpline
210
0.0
220
0.0
230
1.0
 70
    27
 71
     3
 72
    20
 73
    16
 74
     0
 42
0.0000000001
 43
0.0000000001
 40
0.0
 40
0.0
 40
0.0
 40
0.0
 40
0.2
 40
0.2
 40
0.2
 40
0.2
 40
0.4
 40
0.4
 40
0.4
 40
0.4
 40
0.6
 40
0.6
 40
0.6
 40
0.6
 40
1.0
 40
1.0
 40
1.0
 40
1.0
 10
2.7396
 20
22.5833
 30
0.0
 10
2.7396
 20
22.5833
 30
0.0
 10
2.7396
 20
22.5825
 30
0.0
 10
2.7396
 20
22.5825
 30
0.0
 10
2.7396
 20
22.5825
 30
0.0
 10
2.7396
 20
22.5825
 30
0.0
 10
2.7396
 20
19.4479
 30
0.0
 10
2.7396
 20
19.4479
 30
0.0
 10
2.7396
 20
19.4479
 30
0.0
 10
2.7396
 20
19.4479
 30
0.0
 10
2.7396
 20
22.5825
 30
0.0
 10
2.7396
 20
22.5825
 30
0.0
 10
2.7396
 20
22.5825
 30
0.0
 10
2.7396
 20
22.5825
 30
0.0
 10
2.7396
 20
22.5833
 30
0.0
 10
2.7396
 20
22.5833
 30
0.0
  0
SPLINE
  5
96
330
1F
100
AcDbEntity
  8
DEFAULT_2
 62
   250
100
AcDbSpline
210
0.0
220
0.0
230
1.0
 70
    27
 71
     3
 72
    20
 73
    16
 74
     0
 42
0.0000000001
 43
0.0000000001
 40
0.0
 40
0.0
 40
0.0
 40
0.0
 40
0.2
 40
0.2
 40
0.2
 40
0.2
 40
0.4
 40
0.4
 40
0.4
 40
0.4
 40
0.6
 40
0.6
 40
0.6
 40
0.6
 40
1.0
 40
1.0
 40
1.0
 40
1.0
 10
0.5987
 20
22.5833
 30
0.0
 10
0.5987
 20
22.5833
 30
0.0
 10
0.5987
 20
22.583
 30
0.0
 10
0.5987
 20
22.583
 30
0.0
 10
0.5987
 20
22.583
 30
0.0
 10
0.5987
 20
22.583
 30
0.0
 10
0.5987
 20
19.4479
 30
0.0
 10
0.5987
 20
19.4479
 30
0.0
 10
0.5987
 20
19.4479
 30
0.0
 10
0.5987
 20
19.4479
 30
0.0
 10
0.5987
 20
22.583
 30
0.0
 10
0.5987
 20
22.583
 30
0.0
 10
0.5987
 20
22.583
 30
0.0
 10
0.5987
 20
22.583
 30
0.0
 10
0.5987
 20
22.5833
 30
0.0
 10
0.5987
 20
22.5833
 30
0.0
  0
SPLINE
  5
97
330
1F
100
AcDbEntity
  8
DEFAULT_2
 62
   250
100
AcDbSpline
210
0.0
220
0.0
230
1.0
 70
    27
 71
     3
 72
    12
 73
     8
 74
     0
 42
0.0000000001
 43
0.0000000001
 40
0.0
 40
0.0
 40
0.0
 40
0.0
 40
0.3333333333333333
 40
0.3333333333333333
 40
0.3333333333333333
 40
0.3333333333333333
 40
1.0
 40
1.0
 40
1.0
 40
1.0
 10
10.2646
 20
18.8835
 30
0.0
 10
10.2646
 20
18.8835
 30
0.0
 10
10.2646
 20
18.2565
 30
0.0
 10
10.2646
 20
18.2565
 30
0.0
 10
10.2646
 20
18.2565
 30
0.0
 10
10.2646
 20
18.2565
 30
0.0
 10
10.2646
 20
18.8835
 30
0.0
 10
10.2646
 20
18.8835
 30
0.0
  0
SPLINE
  5
98
330
1F
100
AcDbEntity
  8
DEFAULT_2
 62
   250
100
AcDbSpline
210
0.0
220
0.0
230
1.0
 70
    27
 71
     3
 72
    12
 73
     8
 74
     0
 42
0.0000000001
 43
0.0000000001
 40
0.0
 40
0.0
 40
0.0
 40
0.0
 40
0.3333333333333333
 40
0.3333333333333333
 40
0.3333333333333333
 40
0.3333333333333333
 40
1.0
 40
1.0
 40
1.0
 40
1.0
 10
-2.2771
 20
27.2864
 30
0.0
 10
-2.2771
 20
27.2864
 30
0.0
 10
-2.2771
 20
24.7154
 30
0.0
 10
-2.2771
 20
24.7154
 30
0.0
 10
-2.2771
 20
24.7154
 30
0.0
 10
-2.2771
 20
24.7154
 30
0.0
 10
-2.2771
 20
27.2864
 30
0.0
 10
-2.2771
 20
27.2864
 30
0.0
  0
SPLINE
  5
99
330
1F
100
AcDbEntity
  8
DEFAULT_2
 62
   250
100
AcDbSpline
210
0.0
220
0.0
230
1.0
 70
    27
 71
     3
 72
    12
 73
     8
 74
     0
 42
0.0000000001
 43
0.0000000001
 40
0.0
 40
0.0
 40
0.0
 40
0.0
 40
0.3333333333333333
 40
0.3333333333333333
 40
0.3333333333333333
 40
0.3333333333333333
 40
1.0
 40
1.0
 40
1.0
 40
1.0
 10
-2.2771
 20
24.1511
 30
0.0
 10
-2.2771
 20
24.1511
 30
0.0
 10
-2.2771
 20
19.4479
 30
0.0
 10
-2.2771
 20
19.4479
 30
0.0
 10
-2.2771
 20
19.4479
 30
0.0
 10
-2.2771
 20
19.4479
 30
0.0
 10
-2.2771
 20
24.1511
 30
0.0
 10
-2.2771
 20
24.1511
 30
0.0
  0
SPLINE
  5
9A
330
1F
100
AcDbEntity
  8
DEFAULT_2
 62
   250
100
AcDbSpline
210
0.0
220
0.0
230
1.0
 70
    27
 71
     3
 72
    12
 73
     8
 74
     0
 42
0.0000000001
 43
0.0000000001
 40
0.0
 40
0.0
 40
0.0
 40
0.0
 40
0.3333333333333333
 40
0.3333333333333333
 40
0.3333333333333333
 40
0.3333333333333333
 40
1.0
 40
1.0
 40
1.0
 40
1.0
 10
10.2646
 20
24.1511
 30
0.0
 10
10.2646
 20
24.1511
 30
0.0
 10
10.2646
 20
19.4479
 30
0.0
 10
10.2646
 20
19.4479
 30
0.0
 10
10.2646
 20
19.4479
 30
0.0
 10
10.2646
 20
19.4479
 30
0.0
 10
10.2646
 20
24.1511
 30
0.0
 10
10.2646
 20
24.1511
 30
0.0
  0
SPLINE
  5
9B
330
1F
100
AcDbEntity
  8
DEFAULT_2
 62
   250
100
AcDbSpline
210
0.0
220
0.0
230
1.0
 70
    27
 71
     3
 72
    12
 73
     8
 74
     0
 42
0.0000000001
 43
0.0000000001
 40
0.0
 40
0.0
 40
0.0
 40
0.0
 40
0.3333333333333333
 40
0.3333333333333333
 40
0.3333333333333333
 40
0.3333333333333333
 40
1.0
 40
1.0
 40
1.0
 40
1.0
 10
10.2646
 20
27.2864
 30
0.0
 10
10.2646
 20
27.2864
 30
0.0
 10
10.2646
 20
24.7154
 30
0.0
 10
10.2646
 20
24.7154
 30
0.0
 10
10.2646
 20
24.7154
 30
0.0
 10
10.2646
 20
24.7154
 30
0.0
 10
10.2646
 20
27.2864
 30
0.0
 10
10.2646
 20
27.2864
 30
0.0
  0
SPLINE
  5
9C
330
1F
100
AcDbEntity
  8
DEFAULT_2
 62
   250
100
AcDbSpline
210
0.0
220
0.0
230
1.0
 70
    11
 71
     3
 72
    36
 73
    32
 74
     0
 42
0.0000000001
 43
0.0000000001
 40
0.0
 40
0.0
 40
0.0
 40
0.0
 40
0.1111111111111111
 40
0.1111111111111111
 40
0.1111111111111111
 40
0.1111111111111111
 40
0.2222222222222222
 40
0.2222222222222222
 40
0.2222222222222222
 40
0.2222222222222222
 40
0.3333333333333333
 40
0.3333333333333333
 40
0.3333333333333333
 40
0.3333333333333333
 40
0.4444444444444444
 40
0.4444444444444444
 40
0.4444444444444444
 40
0.4444444444444444
 40
0.5555555555555556
 40
0.5555555555555556
 40
0.5555555555555556
 40
0.5555555555555556
 40
0.6666666666666666
 40
0.6666666666666666
 40
0.6666666666666666
 40
0.6666666666666666
 40
0.7777777777777778
 40
0.7777777777777778
 40
0.7777777777777778
 40
0.7777777777777778
 40
1.0
 40
1.0
 40
1.0
 40
1.0
 10
13.2355
 20
-11.6208
 30
0.0
 10
14.1254
 20
-11.6208
 30
0.0
 10
14.8487
 20
-12.344
 30
0.0
 10
14.8487
 20
-13.2345
 30
0.0
 10
14.8487
 20
-13.2345
 30
0.0
 10
14.8487
 20
-13.2345
 30
0.0
 10
14.8486
 20
-31.9477
 30
0.0
 10
14.8486
 20
-31.9477
 30
0.0
 10
14.8486
 20
-31.9477
 30
0.0
 10
14.8486
 20
-32.8383
 30
0.0
 10
14.1254
 20
-33.5593
 30
0.0
 10
13.2355
 20
-33.5593
 30
0.0
 10
13.2355
 20
-33.5593
 30
0.0
 10
13.2355
 20
-33.5593
 30
0.0
 10
-5.4766
 20
-33.5609
 30
0.0
 10
-5.4766
 20
-33.5609
 30
0.0
 10
-5.4766
 20
-33.5609
 30
0.0
 10
-6.3665
 20
-33.5609
 30
0.0
 10
-7.0898
 20
-32.8403
 30
0.0
 10
-7.0898
 20
-31.9497
 30
0.0
 10
-7.0898
 20
-31.9497
 30
0.0
 10
-7.0898
 20
-31.9497
 30
0.0
 10
-7.0898
 20
-13.2345
 30
0.0
 10
-7.0898
 20
-13.2345
 30
0.0
 10
-7.0898
 20
-13.2345
 30
0.0
 10
-7.0898
 20
-12.344
 30
0.0
 10
-6.3664
 20
-11.6225
 30
0.0
 10
-5.4766
 20
-11.6225
 30
0.0
 10
-5.4766
 20
-11.6225
 30
0.0
 10
-5.4766
 20
-11.6225
 30
0.0
 10
13.2355
 20
-11.6208
 30
0.0
 10
13.2355
 20
-11.6208
 30
0.0
  0
SPLINE
  5
9D
330
1F
100
AcDbEntity
  8
DEFAULT_2
 62
   250
100
AcDbSpline
210
0.0
220
0.0
230
1.0
 70
    11
 71
     3
 72
   160
 73
   156
 74
     0
 42
0.0000000001
 43
0.0000000001
 40
0.0
 40
0.0
 40
0.0
 40
0.0
 40
0.025
 40
0.025
 40
0.025
 40
0.025
 40
0.05
 40
0.05
 40
0.05
 40
0.05
 40
0.075
 40
0.075
 40
0.075
 40
0.075
 40
0.1
 40
0.1
 40
0.1
 40
0.1
 40
0.125
 40
0.125
 40
0.125
 40
0.125
 40
0.15
 40
0.15
 40
0.15
 40
0.15
 40
0.175
 40
0.175
 40
0.175
 40
0.175
 40
0.2
 40
0.2
 40
0.2
 40
0.2
 40
0.225
 40
0.225
 40
0.225
 40
0.225
 40
0.25
 40
0.25
 40
0.25
 40
0.25
 40
0.275
 40
0.275
 40
0.275
 40
0.275
 40
0.3
 40
0.3
 40
0.3
 40
0.3
 40
0.325
 40
0.325
 40
0.325
 40
0.325
 40
0.35
 40
0.35
 40
0.35
 40
0.35
 40
0.375
 40
0.375
 40
0.375
 40
0.375
 40
0.4
 40
0.4
 40
0.4
 40
0.4
 40
0.425
 40
0.425
 40
0.425
 40
0.425
 40
0.45
 40
0.45
 40
0.45
 40
0.45
 40
0.475
 40
0.475
 40
0.475
 40
0.475
 40
0.5
 40
0.5
 40
0.5
 40
0.5
 40
0.525
 40
0.525
 40
0.525
 40
0.525
 40
0.55
 40
0.55
 40
0.55
 40
0.55
 40
0.575
 40
0.575
 40
0.575
 40
0.575
 40
0.6
 40
0.6
 40
0.6
 40
0.6
 40
0.625
 40
0.625
 40
0.625
 40
0.625
 40
0.65
 40
0.65
 40
0.65
 40
0.65
 40
0.675
 40
0.675
 40
0.675
 40
0.675
 40
0.7
 40
0.7
 40
0.7
 40
0.7
 40
0.725
 40
0.725
 40
0.725
 40
0.725
 40
0.75
 40
0.75
 40
0.75
 40
0.75
 40
0.775
 40
0.775
 40
0.775
 40
0.775
 40
0.8
 40
0.8
 40
0.8
 40
0.8
 40
0.825
 40
0.825
 40
0.825
 40
0.825
 40
0.85
 40
0.85
 40
0.85
 40
0.85
 40
0.875
 40
0.875
 40
0.875
 40
0.875
 40
0.9
 40
0.9
 40
0.9
 40
0.9
 40
0.925
 40
0.925
 40
0.925
 40
0.925
 40
0.95
 40
0.95
 40
0.95
 40
0.95
 40
1.0
 40
1.0
 40
1.0
 40
1.0
 10
14.978
 20
36.3549
 30
0.0
 10
7.7518
 20
37.9255
 30
0.0
 10
0.2658
 20
37.9255
 30
0.0
 10
-6.9605
 20
36.3549
 30
0.0
 10
-6.9605
 20
36.3549
 30
0.0
 10
-6.9605
 20
36.3549
 30
0.0
 10
-6.9604
 20
34.9733
 30
0.0
 10
-6.9604
 20
34.9733
 30
0.0
 10
-6.9604
 20
34.9733
 30
0.0
 10
-6.9604
 20
34.9733
 30
0.0
 10
-6.954
 20
34.9474
 30
0.0
 10
-6.954
 20
34.9474
 30
0.0
 10
-6.954
 20
34.9474
 30
0.0
 10
-6.954
 20
34.9474
 30
0.0
 10
-6.9353
 20
34.924
 30
0.0
 10
-6.9353
 20
34.924
 30
0.0
 10
-6.9353
 20
34.924
 30
0.0
 10
-6.9353
 20
34.924
 30
0.0
 10
-6.9044
 20
34.9036
 30
0.0
 10
-6.9044
 20
34.9036
 30
0.0
 10
-6.9044
 20
34.9036
 30
0.0
 10
-6.9044
 20
34.9036
 30
0.0
 10
-6.8617
 20
34.8862
 30
0.0
 10
-6.8617
 20
34.8862
 30
0.0
 10
-6.8617
 20
34.8862
 30
0.0
 10
-6.8617
 20
34.8862
 30
0.0
 10
-6.8077
 20
34.8717
 30
0.0
 10
-6.8077
 20
34.8717
 30
0.0
 10
-6.8077
 20
34.8717
 30
0.0
 10
-6.8077
 20
34.8717
 30
0.0
 10
-6.7426
 20
34.8604
 30
0.0
 10
-6.7426
 20
34.8604
 30
0.0
 10
-6.7426
 20
34.8604
 30
0.0
 10
-6.7426
 20
34.8604
 30
0.0
 10
-6.6674
 20
34.8522
 30
0.0
 10
-6.6674
 20
34.8522
 30
0.0
 10
-6.6674
 20
34.8522
 30
0.0
 10
-6.6674
 20
34.8522
 30
0.0
 10
-6.5822
 20
34.8474
 30
0.0
 10
-6.5822
 20
34.8474
 30
0.0
 10
-6.5822
 20
34.8474
 30
0.0
 10
-6.5822
 20
34.8474
 30
0.0
 10
-6.4878
 20
34.8457
 30
0.0
 10
-6.4878
 20
34.8457
 30
0.0
 10
-6.4878
 20
34.8457
 30
0.0
 10
-6.4878
 20
34.8457
 30
0.0
 10
-6.3849
 20
34.8474
 30
0.0
 10
-6.3849
 20
34.8474
 30
0.0
 10
-6.3849
 20
34.8474
 30
0.0
 10
-6.3849
 20
34.8474
 30
0.0
 10
-6.2741
 20
34.8523
 30
0.0
 10
-6.2741
 20
34.8523
 30
0.0
 10
-6.2741
 20
34.8523
 30
0.0
 10
-6.2741
 20
34.8523
 30
0.0
 10
-6.1564
 20
34.8604
 30
0.0
 10
-6.1564
 20
34.8604
 30
0.0
 10
-6.1564
 20
34.8604
 30
0.0
 10
-6.1564
 20
34.8604
 30
0.0
 10
-6.032
 20
34.8717
 30
0.0
 10
-6.032
 20
34.8717
 30
0.0
 10
-6.032
 20
34.8717
 30
0.0
 10
-6.032
 20
34.8717
 30
0.0
 10
-5.9024
 20
34.8862
 30
0.0
 10
-5.9024
 20
34.8862
 30
0.0
 10
-5.9024
 20
34.8862
 30
0.0
 10
-5.9024
 20
34.8862
 30
0.0
 10
-5.7681
 20
34.9037
 30
0.0
 10
-5.7681
 20
34.9037
 30
0.0
 10
-5.7681
 20
34.9037
 30
0.0
 10
-5.7681
 20
34.9037
 30
0.0
 10
-5.6302
 20
34.9241
 30
0.0
 10
-5.6302
 20
34.9241
 30
0.0
 10
-5.6302
 20
34.9241
 30
0.0
 10
-5.6302
 20
34.9241
 30
0.0
 10
-5.4895
 20
34.9474
 30
0.0
 10
-5.4895
 20
34.9474
 30
0.0
 10
-5.4895
 20
34.9474
 30
0.0
 10
-5.4895
 20
34.9474
 30
0.0
 10
-5.3473
 20
34.9727
 30
0.0
 10
-5.3473
 20
34.9727
 30
0.0
 10
-5.3473
 20
34.9727
 30
0.0
 10
0.8346
 20
36.1546
 30
0.0
 10
7.183
 20
36.1546
 30
0.0
 10
13.3649
 20
34.9727
 30
0.0
 10
13.3649
 20
34.9727
 30
0.0
 10
13.3649
 20
34.9727
 30
0.0
 10
13.507
 20
34.9474
 30
0.0
 10
13.507
 20
34.9474
 30
0.0
 10
13.507
 20
34.9474
 30
0.0
 10
13.507
 20
34.9474
 30
0.0
 10
13.6489
 20
34.9219
 30
0.0
 10
13.6489
 20
34.9219
 30
0.0
 10
13.6489
 20
34.9219
 30
0.0
 10
13.6489
 20
34.9219
 30
0.0
 10
13.784
 20
34.9049
 30
0.0
 10
13.784
 20
34.9049
 30
0.0
 10
13.784
 20
34.9049
 30
0.0
 10
13.784
 20
34.9049
 30
0.0
 10
13.9188
 20
34.8862
 30
0.0
 10
13.9188
 20
34.8862
 30
0.0
 10
13.9188
 20
34.8862
 30
0.0
 10
13.9188
 20
34.8862
 30
0.0
 10
14.0515
 20
34.8702
 30
0.0
 10
14.0515
 20
34.8702
 30
0.0
 10
14.0515
 20
34.8702
 30
0.0
 10
14.0515
 20
34.8702
 30
0.0
 10
14.1747
 20
34.8608
 30
0.0
 10
14.1747
 20
34.8608
 30
0.0
 10
14.1747
 20
34.8608
 30
0.0
 10
14.1747
 20
34.8608
 30
0.0
 10
14.2937
 20
34.8549
 30
0.0
 10
14.2937
 20
34.8549
 30
0.0
 10
14.2937
 20
34.8549
 30
0.0
 10
14.2937
 20
34.8549
 30
0.0
 10
14.4035
 20
34.8471
 30
0.0
 10
14.4035
 20
34.8471
 30
0.0
 10
14.4035
 20
34.8471
 30
0.0
 10
14.4035
 20
34.8471
 30
0.0
 10
14.5033
 20
34.8471
 30
0.0
 10
14.5033
 20
34.8471
 30
0.0
 10
14.5033
 20
34.8471
 30
0.0
 10
14.5033
 20
34.8471
 30
0.0
 10
14.6009
 20
34.8471
 30
0.0
 10
14.6009
 20
34.8471
 30
0.0
 10
14.6009
 20
34.8471
 30
0.0
 10
14.6009
 20
34.8471
 30
0.0
 10
14.6838
 20
34.8549
 30
0.0
 10
14.6838
 20
34.8549
 30
0.0
 10
14.6838
 20
34.8549
 30
0.0
 10
14.6838
 20
34.8549
 30
0.0
 10
14.7622
 20
34.8608
 30
0.0
 10
14.7622
 20
34.8608
 30
0.0
 10
14.7622
 20
34.8608
 30
0.0
 10
14.7622
 20
34.8608
 30
0.0
 10
14.8224
 20
34.8702
 30
0.0
 10
14.8224
 20
34.8702
 30
0.0
 10
14.8224
 20
34.8702
 30
0.0
 10
14.8224
 20
34.8702
 30
0.0
 10
14.8802
 20
34.8862
 30
0.0
 10
14.8802
 20
34.8862
 30
0.0
 10
14.8802
 20
34.8862
 30
0.0
 10
14.8802
 20
34.8862
 30
0.0
 10
14.9238
 20
34.9049
 30
0.0
 10
14.9238
 20
34.9049
 30
0.0
 10
14.9238
 20
34.9049
 30
0.0
 10
14.9238
 20
34.9049
 30
0.0
 10
14.9515
 20
34.9219
 30
0.0
 10
14.9515
 20
34.9219
 30
0.0
 10
14.9515
 20
34.9219
 30
0.0
 10
14.9515
 20
34.9219
 30
0.0
 10
14.9722
 20
34.9474
 30
0.0
 10
14.9722
 20
34.9474
 30
0.0
 10
14.9722
 20
34.9474
 30
0.0
 10
14.9722
 20
34.9474
 30
0.0
 10
14.978
 20
36.3549
 30
0.0
 10
14.978
 20
36.3549
 30
0.0
  0
SPLINE
  5
9E
330
1F
100
AcDbEntity
  8
DEFAULT_2
 62
   250
100
AcDbSpline
210
0.0
220
0.0
230
1.0
 70
    11
 71
     3
 72
    20
 73
    16
 74
     0
 42
0.0000000001
 43
0.0000000001
 40
0.0
 40
0.0
 40
0.0
 40
0.0
 40
0.2
 40
0.2
 40
0.2
 40
0.2
 40
0.4
 40
0.4
 40
0.4
 40
0.4
 40
0.6
 40
0.6
 40
0.6
 40
0.6
 40
1.0
 40
1.0
 40
1.0
 40
1.0
 10
-1.6389
 20
31.4313
 30
0.0
 10
-1.6389
 20
31.4313
 30
0.0
 10
9.6585
 20
31.4313
 30
0.0
 10
9.6585
 20
31.4313
 30
0.0
 10
9.6585
 20
31.4313
 30
0.0
 10
9.6585
 20
31.4313
 30
0.0
 10
9.6585
 20
30.9151
 30
0.0
 10
9.6585
 20
30.9151
 30
0.0
 10
9.6585
 20
30.9151
 30
0.0
 10
9.6585
 20
30.9151
 30
0.0
 10
-1.6389
 20
30.9151
 30
0.0
 10
-1.6389
 20
30.9151
 30
0.0
 10
-1.6389
 20
30.9151
 30
0.0
 10
-1.6389
 20
30.9151
 30
0.0
 10
-1.6389
 20
31.4313
 30
0.0
 10
-1.6389
 20
31.4313
 30
0.0
  0
SPLINE
  5
9F
330
1F
100
AcDbEntity
  8
DEFAULT_2
 62
   250
100
AcDbSpline
210
0.0
220
0.0
230
1.0
 70
    11
 71
     3
 72
    20
 73
    16
 74
     0
 42
0.0000000001
 43
0.0000000001
 40
0.0
 40
0.0
 40
0.0
 40
0.0
 40
0.2
 40
0.2
 40
0.2
 40
0.2
 40
0.4
 40
0.4
 40
0.4
 40
0.4
 40
0.6
 40
0.6
 40
0.6
 40
0.6
 40
1.0
 40
1.0
 40
1.0
 40
1.0
 10
-1.5856
 20
29.6514
 30
0.0
 10
-1.5856
 20
29.6514
 30
0.0
 10
9.7118
 20
29.6514
 30
0.0
 10
9.7118
 20
29.6514
 30
0.0
 10
9.7118
 20
29.6514
 30
0.0
 10
9.7118
 20
29.6514
 30
0.0
 10
9.7118
 20
29.1352
 30
0.0
 10
9.7118
 20
29.1352
 30
0.0
 10
9.7118
 20
29.1352
 30
0.0
 10
9.7118
 20
29.1352
 30
0.0
 10
-1.5856
 20
29.1352
 30
0.0
 10
-1.5856
 20
29.1352
 30
0.0
 10
-1.5856
 20
29.1352
 30
0.0
 10
-1.5856
 20
29.1352
 30
0.0
 10
-1.5856
 20
29.6514
 30
0.0
 10
-1.5856
 20
29.6514
 30
0.0
  0
SPLINE
  5
A0
330
1F
100
AcDbEntity
  8
DEFAULT_2
 62
   250
100
AcDbSpline
210
0.0
220
0.0
230
1.0
 70
    24
 71
     3
 72
     8
 73
     4
 74
     0
 42
0.0000000001
 43
0.0000000001
 40
0.0
 40
0.0
 40
0.0
 40
0.0
 40
1.0
 40
1.0
 40
1.0
 40
1.0
 10
-1.3144
 20
35.5721
 30
0.0
 10
-1.3144
 20
35.5721
 30
0.0
 10
-1.3144
 20
31.402
 30
0.0
 10
-1.3144
 20
31.402
 30
0.0
  0
SPLINE
  5
A1
330
1F
100
AcDbEntity
  8
DEFAULT_2
 62
   250
100
AcDbSpline
210
0.0
220
0.0
230
1.0
 70
    24
 71
     3
 72
     8
 73
     4
 74
     0
 42
0.0000000001
 43
0.0000000001
 40
0.0
 40
0.0
 40
0.0
 40
0.0
 40
1.0
 40
1.0
 40
1.0
 40
1.0
 10
9.3321
 20
35.5721
 30
0.0
 10
9.3321
 20
35.5721
 30
0.0
 10
9.3321
 20
31.402
 30
0.0
 10
9.3321
 20
31.402
 30
0.0
  0
SPLINE
  5
A2
330
1F
100
AcDbEntity
  8
DEFAULT_2
 62
   250
100
AcDbSpline
210
0.0
220
0.0
230
1.0
 70
     8
 71
     3
 72
   152
 73
   148
 74
     0
 42
0.0000000001
 43
0.0000000001
 40
0.0
 40
0.0
 40
0.0
 40
0.0
 40
0.0263157894736842
 40
0.0263157894736842
 40
0.0263157894736842
 40
0.0263157894736842
 40
0.0526315789473684
 40
0.0526315789473684
 40
0.0526315789473684
 40
0.0526315789473684
 40
0.0789473684210526
 40
0.0789473684210526
 40
0.0789473684210526
 40
0.0789473684210526
 40
0.1052631578947368
 40
0.1052631578947368
 40
0.1052631578947368
 40
0.1052631578947368
 40
0.131578947368421
 40
0.131578947368421
 40
0.131578947368421
 40
0.131578947368421
 40
0.1578947368421053
 40
0.1578947368421053
 40
0.1578947368421053
 40
0.1578947368421053
 40
0.1842105263157895
 40
0.1842105263157895
 40
0.1842105263157895
 40
0.1842105263157895
 40
0.2105263157894737
 40
0.2105263157894737
 40
0.2105263157894737
 40
0.2105263157894737
 40
0.2368421052631579
 40
0.2368421052631579
 40
0.2368421052631579
 40
0.2368421052631579
 40
0.2631578947368421
 40
0.2631578947368421
 40
0.2631578947368421
 40
0.2631578947368421
 40
0.2894736842105263
 40
0.2894736842105263
 40
0.2894736842105263
 40
0.2894736842105263
 40
0.3157894736842105
 40
0.3157894736842105
 40
0.3157894736842105
 40
0.3157894736842105
 40
0.3421052631578947
 40
0.3421052631578947
 40
0.3421052631578947
 40
0.3421052631578947
 40
0.3684210526315789
 40
0.3684210526315789
 40
0.3684210526315789
 40
0.3684210526315789
 40
0.3947368421052632
 40
0.3947368421052632
 40
0.3947368421052632
 40
0.3947368421052632
 40
0.4210526315789473
 40
0.4210526315789473
 40
0.4210526315789473
 40
0.4210526315789473
 40
0.4473684210526316
 40
0.4473684210526316
 40
0.4473684210526316
 40
0.4473684210526316
 40
0.4736842105263158
 40
0.4736842105263158
 40
0.4736842105263158
 40
0.4736842105263158
 40
0.5
 40
0.5
 40
0.5
 40
0.5
 40
0.5263157894736842
 40
0.5263157894736842
 40
0.5263157894736842
 40
0.5263157894736842
 40
0.5526315789473685
 40
0.5526315789473685
 40
0.5526315789473685
 40
0.5526315789473685
 40
0.5789473684210527
 40
0.5789473684210527
 40
0.5789473684210527
 40
0.5789473684210527
 40
0.6052631578947368
 40
0.6052631578947368
 40
0.6052631578947368
 40
0.6052631578947368
 40
0.631578947368421
 40
0.631578947368421
 40
0.631578947368421
 40
0.631578947368421
 40
0.6578947368421053
 40
0.6578947368421053
 40
0.6578947368421053
 40
0.6578947368421053
 40
0.6842105263157895
 40
0.6842105263157895
 40
0.6842105263157895
 40
0.6842105263157895
 40
0.7105263157894737
 40
0.7105263157894737
 40
0.7105263157894737
 40
0.7105263157894737
 40
0.7368421052631579
 40
0.7368421052631579
 40
0.7368421052631579
 40
0.7368421052631579
 40
0.7631578947368421
 40
0.7631578947368421
 40
0.7631578947368421
 40
0.7631578947368421
 40
0.7894736842105263
 40
0.7894736842105263
 40
0.7894736842105263
 40
0.7894736842105263
 40
0.8157894736842105
 40
0.8157894736842105
 40
0.8157894736842105
 40
0.8157894736842105
 40
0.8421052631578947
 40
0.8421052631578947
 40
0.8421052631578947
 40
0.8421052631578947
 40
0.868421052631579
 40
0.868421052631579
 40
0.868421052631579
 40
0.868421052631579
 40
0.8947368421052632
 40
0.8947368421052632
 40
0.8947368421052632
 40
0.8947368421052632
 40
0.9210526315789473
 40
0.9210526315789473
 40
0.9210526315789473
 40
0.9210526315789473
 40
0.9473684210526315
 40
0.9473684210526315
 40
0.9473684210526315
 40
0.9473684210526315
 40
1.0
 40
1.0
 40
1.0
 40
1.0
 10
14.978
 20
35.4765
 30
0.0
 10
14.978
 20
35.4765
 30
0.0
 10
14.9722
 20
35.4508
 30
0.0
 10
14.9722
 20
35.4508
 30
0.0
 10
14.9722
 20
35.4508
 30
0.0
 10
14.9722
 20
35.4508
 30
0.0
 10
14.9515
 20
35.4284
 30
0.0
 10
14.9515
 20
35.4284
 30
0.0
 10
14.9515
 20
35.4284
 30
0.0
 10
14.9515
 20
35.4284
 30
0.0
 10
14.9238
 20
35.4089
 30
0.0
 10
14.9238
 20
35.4089
 30
0.0
 10
14.9238
 20
35.4089
 30
0.0
 10
14.9238
 20
35.4089
 30
0.0
 10
14.8802
 20
35.3894
 30
0.0
 10
14.8802
 20
35.3894
 30
0.0
 10
14.8802
 20
35.3894
 30
0.0
 10
14.8802
 20
35.3894
 30
0.0
 10
14.8259
 20
35.3764
 30
0.0
 10
14.8259
 20
35.3764
 30
0.0
 10
14.8259
 20
35.3764
 30
0.0
 10
14.8259
 20
35.3764
 30
0.0
 10
14.7622
 20
35.3664
 30
0.0
 10
14.7622
 20
35.3664
 30
0.0
 10
14.7622
 20
35.3664
 30
0.0
 10
14.7622
 20
35.3664
 30
0.0
 10
14.6838
 20
35.357
 30
0.0
 10
14.6838
 20
35.357
 30
0.0
 10
14.6838
 20
35.357
 30
0.0
 10
14.6838
 20
35.357
 30
0.0
 10
14.6009
 20
35.3548
 30
0.0
 10
14.6009
 20
35.3548
 30
0.0
 10
14.6009
 20
35.3548
 30
0.0
 10
14.6009
 20
35.3548
 30
0.0
 10
14.5033
 20
35.351
 30
0.0
 10
14.5033
 20
35.351
 30
0.0
 10
14.5033
 20
35.351
 30
0.0
 10
14.5033
 20
35.351
 30
0.0
 10
14.4035
 20
35.3548
 30
0.0
 10
14.4035
 20
35.3548
 30
0.0
 10
14.4035
 20
35.3548
 30
0.0
 10
14.4035
 20
35.3548
 30
0.0
 10
14.2937
 20
35.357
 30
0.0
 10
14.2937
 20
35.357
 30
0.0
 10
14.2937
 20
35.357
 30
0.0
 10
14.2937
 20
35.357
 30
0.0
 10
14.1747
 20
35.3664
 30
0.0
 10
14.1747
 20
35.3664
 30
0.0
 10
14.1747
 20
35.3664
 30
0.0
 10
14.1747
 20
35.3664
 30
0.0
 10
14.0492
 20
35.3764
 30
0.0
 10
14.0492
 20
35.3764
 30
0.0
 10
14.0492
 20
35.3764
 30
0.0
 10
14.0492
 20
35.3764
 30
0.0
 10
13.9188
 20
35.3894
 30
0.0
 10
13.9188
 20
35.3894
 30
0.0
 10
13.9188
 20
35.3894
 30
0.0
 10
13.9188
 20
35.3894
 30
0.0
 10
13.784
 20
35.4089
 30
0.0
 10
13.784
 20
35.4089
 30
0.0
 10
13.784
 20
35.4089
 30
0.0
 10
13.784
 20
35.4089
 30
0.0
 10
13.6489
 20
35.4284
 30
0.0
 10
13.6489
 20
35.4284
 30
0.0
 10
13.6489
 20
35.4284
 30
0.0
 10
13.6489
 20
35.4284
 30
0.0
 10
13.507
 20
35.4508
 30
0.0
 10
13.507
 20
35.4508
 30
0.0
 10
13.507
 20
35.4508
 30
0.0
 10
13.507
 20
35.4508
 30
0.0
 10
13.3649
 20
35.4765
 30
0.0
 10
13.3649
 20
35.4765
 30
0.0
 10
13.3649
 20
35.4765
 30
0.0
 10
7.1808
 20
36.6448
 30
0.0
 10
0.8369
 20
36.6448
 30
0.0
 10
-5.3473
 20
35.4765
 30
0.0
 10
-5.3473
 20
35.4765
 30
0.0
 10
-5.3473
 20
35.4765
 30
0.0
 10
-5.4893
 20
35.4508
 30
0.0
 10
-5.4893
 20
35.4508
 30
0.0
 10
-5.4893
 20
35.4508
 30
0.0
 10
-5.4893
 20
35.4508
 30
0.0
 10
-5.6313
 20
35.4284
 30
0.0
 10
-5.6313
 20
35.4284
 30
0.0
 10
-5.6313
 20
35.4284
 30
0.0
 10
-5.6313
 20
35.4284
 30
0.0
 10
-5.7663
 20
35.4089
 30
0.0
 10
-5.7663
 20
35.4089
 30
0.0
 10
-5.7663
 20
35.4089
 30
0.0
 10
-5.7663
 20
35.4089
 30
0.0
 10
-5.9026
 20
35.3894
 30
0.0
 10
-5.9026
 20
35.3894
 30
0.0
 10
-5.9026
 20
35.3894
 30
0.0
 10
-5.9026
 20
35.3894
 30
0.0
 10
-6.0317
 20
35.3764
 30
0.0
 10
-6.0317
 20
35.3764
 30
0.0
 10
-6.0317
 20
35.3764
 30
0.0
 10
-6.0317
 20
35.3764
 30
0.0
 10
-6.1572
 20
35.3664
 30
0.0
 10
-6.1572
 20
35.3664
 30
0.0
 10
-6.1572
 20
35.3664
 30
0.0
 10
-6.1572
 20
35.3664
 30
0.0
 10
-6.2763
 20
35.357
 30
0.0
 10
-6.2763
 20
35.357
 30
0.0
 10
-6.2763
 20
35.357
 30
0.0
 10
-6.2763
 20
35.357
 30
0.0
 10
-6.3858
 20
35.3548
 30
0.0
 10
-6.3858
 20
35.3548
 30
0.0
 10
-6.3858
 20
35.3548
 30
0.0
 10
-6.3858
 20
35.3548
 30
0.0
 10
-6.4897
 20
35.351
 30
0.0
 10
-6.4897
 20
35.351
 30
0.0
 10
-6.4897
 20
35.351
 30
0.0
 10
-6.4897
 20
35.351
 30
0.0
 10
-6.5833
 20
35.3548
 30
0.0
 10
-6.5833
 20
35.3548
 30
0.0
 10
-6.5833
 20
35.3548
 30
0.0
 10
-6.5833
 20
35.3548
 30
0.0
 10
-6.6676
 20
35.357
 30
0.0
 10
-6.6676
 20
35.357
 30
0.0
 10
-6.6676
 20
35.357
 30
0.0
 10
-6.6676
 20
35.357
 30
0.0
 10
-6.7446
 20
35.3664
 30
0.0
 10
-6.7446
 20
35.3664
 30
0.0
 10
-6.7446
 20
35.3664
 30
0.0
 10
-6.7446
 20
35.3664
 30
0.0
 10
-6.8083
 20
35.3764
 30
0.0
 10
-6.8083
 20
35.3764
 30
0.0
 10
-6.8083
 20
35.3764
 30
0.0
 10
-6.8083
 20
35.3764
 30
0.0
 10
-6.8641
 20
35.3894
 30
0.0
 10
-6.8641
 20
35.3894
 30
0.0
 10
-6.8641
 20
35.3894
 30
0.0
 10
-6.8641
 20
35.3894
 30
0.0
 10
-6.9062
 20
35.4089
 30
0.0
 10
-6.9062
 20
35.4089
 30
0.0
 10
-6.9062
 20
35.4089
 30
0.0
 10
-6.9062
 20
35.4089
 30
0.0
 10
-6.9351
 20
35.4284
 30
0.0
 10
-6.9351
 20
35.4284
 30
0.0
 10
-6.9351
 20
35.4284
 30
0.0
 10
-6.9351
 20
35.4284
 30
0.0
 10
-6.9545
 20
35.4508
 30
0.0
 10
-6.9545
 20
35.4508
 30
0.0
 10
-6.9545
 20
35.4508
 30
0.0
 10
-6.9545
 20
35.4508
 30
0.0
 10
-6.9605
 20
35.4765
 30
0.0
 10
-6.9605
 20
35.4765
 30
0.0
  0
SPLINE
  5
A3
330
1F
100
AcDbEntity
  8
DEFAULT_2
 62
   250
100
AcDbSpline
210
0.0
220
0.0
230
1.0
 70
    24
 71
     3
 72
     8
 73
     4
 74
     0
 42
0.0000000001
 43
0.0000000001
 40
0.0
 40
0.0
 40
0.0
 40
0.0
 40
1.0
 40
1.0
 40
1.0
 40
1.0
 10
2.1345
 20
29.1436
 30
0.0
 10
2.1345
 20
29.1436
 30
0.0
 10
2.1345
 20
28.3048
 30
0.0
 10
2.1345
 20
28.3048
 30
0.0
  0
SPLINE
  5
A4
330
1F
100
AcDbEntity
  8
DEFAULT_2
 62
   250
100
AcDbSpline
210
0.0
220
0.0
230
1.0
 70
    24
 71
     3
 72
     8
 73
     4
 74
     0
 42
0.0000000001
 43
0.0000000001
 40
0.0
 40
0.0
 40
0.0
 40
0.0
 40
1.0
 40
1.0
 40
1.0
 40
1.0
 10
5.9445
 20
29.1436
 30
0.0
 10
5.9445
 20
29.1436
 30
0.0
 10
5.9445
 20
28.3048
 30
0.0
 10
5.9445
 20
28.3048
 30
0.0
  0
SPLINE
  5
A5
330
1F
100
AcDbEntity
  8
DEFAULT_2
 62
   250
100
AcDbSpline
210
0.0
220
0.0
230
1.0
 70
    24
 71
     3
 72
     8
 73
     4
 74
     0
 42
0.0000000001
 43
0.0000000001
 40
0.0
 40
0.0
 40
0.0
 40
0.0
 40
1.0
 40
1.0
 40
1.0
 40
1.0
 10
5.1703
 20
29.1436
 30
0.0
 10
5.1703
 20
29.1436
 30
0.0
 10
5.1703
 20
28.3048
 30
0.0
 10
5.1703
 20
28.3048
 30
0.0
  0
SPLINE
  5
A6
330
1F
100
AcDbEntity
  8
DEFAULT_2
 62
   250
100
AcDbSpline
210
0.0
220
0.0
230
1.0
 70
    24
 71
     3
 72
     8
 73
     4
 74
     0
 42
0.0000000001
 43
0.0000000001
 40
0.0
 40
0.0
 40
0.0
 40
0.0
 40
1.0
 40
1.0
 40
1.0
 40
1.0
 10
2.8473
 20
29.1436
 30
0.0
 10
2.8473
 20
29.1436
 30
0.0
 10
2.8473
 20
28.3048
 30
0.0
 10
2.8473
 20
28.3048
 30
0.0
  0
SPLINE
  5
A7
330
1F
100
AcDbEntity
  8
DEFAULT_2
 62
   250
100
AcDbSpline
210
0.0
220
0.0
230
1.0
 70
    24
 71
     3
 72
     8
 73
     4
 74
     0
 42
0.0000000001
 43
0.0000000001
 40
0.0
 40
0.0
 40
0.0
 40
0.0
 40
1.0
 40
1.0
 40
1.0
 40
1.0
 10
-1.4113
 20
30.918
 30
0.0
 10
-1.4113
 20
30.918
 30
0.0
 10
-1.4113
 20
30.4964
 30
0.0
 10
-1.4113
 20
30.4964
 30
0.0
  0
SPLINE
  5
A8
330
1F
100
AcDbEntity
  8
DEFAULT_2
 62
   250
100
AcDbSpline
210
0.0
220
0.0
230
1.0
 70
    11
 71
     3
 72
    52
 73
    48
 74
     0
 42
0.0000000001
 43
0.0000000001
 40
0.0
 40
0.0
 40
0.0
 40
0.0
 40
0.0769230769230769
 40
0.0769230769230769
 40
0.0769230769230769
 40
0.0769230769230769
 40
0.1538461538461539
 40
0.1538461538461539
 40
0.1538461538461539
 40
0.1538461538461539
 40
0.2307692307692308
 40
0.2307692307692308
 40
0.2307692307692308
 40
0.2307692307692308
 40
0.3076923076923077
 40
0.3076923076923077
 40
0.3076923076923077
 40
0.3076923076923077
 40
0.3846153846153846
 40
0.3846153846153846
 40
0.3846153846153846
 40
0.3846153846153846
 40
0.4615384615384616
 40
0.4615384615384616
 40
0.4615384615384616
 40
0.4615384615384616
 40
0.5384615384615384
 40
0.5384615384615384
 40
0.5384615384615384
 40
0.5384615384615384
 40
0.6153846153846154
 40
0.6153846153846154
 40
0.6153846153846154
 40
0.6153846153846154
 40
0.6923076923076923
 40
0.6923076923076923
 40
0.6923076923076923
 40
0.6923076923076923
 40
0.7692307692307693
 40
0.7692307692307693
 40
0.7692307692307693
 40
0.7692307692307693
 40
0.8461538461538461
 40
0.8461538461538461
 40
0.8461538461538461
 40
0.8461538461538461
 40
1.0
 40
1.0
 40
1.0
 40
1.0
 10
9.4464
 20
30.5139
 30
0.0
 10
9.4464
 20
30.5139
 30
0.0
 10
10.2039
 20
30.3705
 30
0.0
 10
10.2039
 20
30.3705
 30
0.0
 10
10.2039
 20
30.3705
 30
0.0
 10
10.2039
 20
30.3705
 30
0.0
 10
10.2631
 20
30.3053
 30
0.0
 10
10.2631
 20
30.3053
 30
0.0
 10
10.2631
 20
30.3053
 30
0.0
 10
10.2631
 20
30.3053
 30
0.0
 10
10.2631
 20
30.2461
 30
0.0
 10
10.2631
 20
30.2461
 30
0.0
 10
10.2631
 20
30.2461
 30
0.0
 10
10.2631
 20
30.2461
 30
0.0
 10
10.2276
 20
30.1928
 30
0.0
 10
10.2276
 20
30.1928
 30
0.0
 10
10.2276
 20
30.1928
 30
0.0
 10
10.2276
 20
30.1928
 30
0.0
 10
10.1506
 20
30.1396
 30
0.0
 10
10.1506
 20
30.1396
 30
0.0
 10
10.1506
 20
30.1396
 30
0.0
 10
10.1506
 20
30.1396
 30
0.0
 10
9.4464
 20
30.0576
 30
0.0
 10
9.4464
 20
30.0576
 30
0.0
 10
9.4464
 20
30.0576
 30
0.0
 10
9.4464
 20
30.0576
 30
0.0
 10
-1.3638
 20
30.0346
 30
0.0
 10
-1.3638
 20
30.0346
 30
0.0
 10
-1.3638
 20
30.0346
 30
0.0
 10
-1.3638
 20
30.0346
 30
0.0
 10
-2.1379
 20
30.1448
 30
0.0
 10
-2.1379
 20
30.1448
 30
0.0
 10
-2.1379
 20
30.1448
 30
0.0
 10
-2.2021
 20
30.1532
 30
0.0
 10
-2.2501
 20
30.208
 30
0.0
 10
-2.2501
 20
30.2727
 30
0.0
 10
-2.2501
 20
30.2727
 30
0.0
 10
-2.2501
 20
30.3375
 30
0.0
 10
-2.2021
 20
30.3922
 30
0.0
 10
-2.1379
 20
30.4007
 30
0.0
 10
-2.1379
 20
30.4007
 30
0.0
 10
-2.1379
 20
30.4007
 30
0.0
 10
-1.3287
 20
30.503
 30
0.0
 10
-1.3287
 20
30.503
 30
0.0
 10
-1.3287
 20
30.503
 30
0.0
 10
-1.3287
 20
30.503
 30
0.0
 10
9.4464
 20
30.5139
 30
0.0
 10
9.4464
 20
30.5139
 30
0.0
  0
SPLINE
  5
A9
330
1F
100
AcDbEntity
  8
DEFAULT_2
 62
   250
100
AcDbSpline
210
0.0
220
0.0
230
1.0
 70
    24
 71
     3
 72
     8
 73
     4
 74
     0
 42
0.0000000001
 43
0.0000000001
 40
0.0
 40
0.0
 40
0.0
 40
0.0
 40
1.0
 40
1.0
 40
1.0
 40
1.0
 10
9.4288
 20
30.0492
 30
0.0
 10
9.4288
 20
30.0492
 30
0.0
 10
9.4288
 20
29.6275
 30
0.0
 10
9.4288
 20
29.6275
 30
0.0
  0
SPLINE
  5
AA
330
1F
100
AcDbEntity
  8
DEFAULT_2
 62
   250
100
AcDbSpline
210
0.0
220
0.0
230
1.0
 70
    24
 71
     3
 72
     8
 73
     4
 74
     0
 42
0.0000000001
 43
0.0000000001
 40
0.0
 40
0.0
 40
0.0
 40
0.0
 40
1.0
 40
1.0
 40
1.0
 40
1.0
 10
9.4288
 20
30.918
 30
0.0
 10
9.4288
 20
30.918
 30
0.0
 10
9.4288
 20
30.4964
 30
0.0
 10
9.4288
 20
30.4964
 30
0.0
  0
SPLINE
  5
AB
330
1F
100
AcDbEntity
  8
DEFAULT_2
 62
   250
100
AcDbSpline
210
0.0
220
0.0
230
1.0
 70
    24
 71
     3
 72
     8
 73
     4
 74
     0
 42
0.0000000001
 43
0.0000000001
 40
0.0
 40
0.0
 40
0.0
 40
0.0
 40
1.0
 40
1.0
 40
1.0
 40
1.0
 10
-1.4113
 20
30.0492
 30
0.0
 10
-1.4113
 20
30.0492
 30
0.0
 10
-1.4113
 20
29.6275
 30
0.0
 10
-1.4113
 20
29.6275
 30
0.0
  0
SPLINE
  5
AC
330
1F
100
AcDbEntity
  8
DEFAULT_2
 62
   250
100
AcDbSpline
210
0.0
220
0.0
230
1.0
 70
    24
 71
     3
 72
     8
 73
     4
 74
     0
 42
0.0000000001
 43
0.0000000001
 40
0.0
 40
0.0
 40
0.0
 40
0.0
 40
1.0
 40
1.0
 40
1.0
 40
1.0
 10
-12.9026
 20
-33.2673
 30
0.0
 10
-12.9026
 20
-33.2673
 30
0.0
 10
-12.9026
 20
-12.4625
 30
0.0
 10
-12.9026
 20
-12.4625
 30
0.0
  0
SPLINE
  5
AD
330
1F
100
AcDbEntity
  8
DEFAULT_2
 62
   250
100
AcDbSpline
210
0.0
220
0.0
230
1.0
 70
    24
 71
     3
 72
     8
 73
     4
 74
     0
 42
0.0000000001
 43
0.0000000001
 40
0.0
 40
0.0
 40
0.0
 40
0.0
 40
1.0
 40
1.0
 40
1.0
 40
1.0
 10
-13.6378
 20
-33.4409
 30
0.0
 10
-13.6378
 20
-33.4409
 30
0.0
 10
-7.8221
 20
-33.4409
 30
0.0
 10
-7.8221
 20
-33.4409
 30
0.0
  0
SPLINE
  5
AE
330
1F
100
AcDbEntity
  8
DEFAULT_2
 62
   250
100
AcDbSpline
210
0.0
220
0.0
230
1.0
 70
    11
 71
     3
 72
    80
 73
    76
 74
     0
 42
0.0000000001
 43
0.0000000001
 40
0.0
 40
0.0
 40
0.0
 40
0.0
 40
0.05
 40
0.05
 40
0.05
 40
0.05
 40
0.1
 40
0.1
 40
0.1
 40
0.1
 40
0.15
 40
0.15
 40
0.15
 40
0.15
 40
0.2
 40
0.2
 40
0.2
 40
0.2
 40
0.25
 40
0.25
 40
0.25
 40
0.25
 40
0.3
 40
0.3
 40
0.3
 40
0.3
 40
0.35
 40
0.35
 40
0.35
 40
0.35
 40
0.4
 40
0.4
 40
0.4
 40
0.4
 40
0.45
 40
0.45
 40
0.45
 40
0.45
 40
0.5
 40
0.5
 40
0.5
 40
0.5
 40
0.55
 40
0.55
 40
0.55
 40
0.55
 40
0.6
 40
0.6
 40
0.6
 40
0.6
 40
0.65
 40
0.65
 40
0.65
 40
0.65
 40
0.7
 40
0.7
 40
0.7
 40
0.7
 40
0.75
 40
0.75
 40
0.75
 40
0.75
 40
0.8
 40
0.8
 40
0.8
 40
0.8
 40
0.85
 40
0.85
 40
0.85
 40
0.85
 40
0.9
 40
0.9
 40
0.9
 40
0.9
 40
1.0
 40
1.0
 40
1.0
 40
1.0
 10
-14.9416
 20
-22.0211
 30
0.0
 10
-14.9416
 20
-22.0211
 30
0.0
 10
-14.9223
 20
-22.2675
 30
0.0
 10
-14.9223
 20
-22.2675
 30
0.0
 10
-14.9223
 20
-22.2675
 30
0.0
 10
-15.0197
 20
-22.2896
 30
0.0
 10
-15.0907
 20
-22.3207
 30
0.0
 10
-15.1344
 20
-22.3611
 30
0.0
 10
-15.1344
 20
-22.3611
 30
0.0
 10
-15.2055
 20
-22.4284
 30
0.0
 10
-15.2408
 20
-22.5112
 30
0.0
 10
-15.2408
 20
-22.6095
 30
0.0
 10
-15.2408
 20
-22.6095
 30
0.0
 10
-15.2408
 20
-22.6885
 30
0.0
 10
-15.2186
 20
-22.7576
 30
0.0
 10
-15.1744
 20
-22.8174
 30
0.0
 10
-15.1744
 20
-22.8174
 30
0.0
 10
-15.1175
 20
-22.8955
 30
0.0
 10
-15.0343
 20
-22.9571
 30
0.0
 10
-14.9251
 20
-23.0022
 30
0.0
 10
-14.9251
 20
-23.0022
 30
0.0
 10
-14.816
 20
-23.0469
 30
0.0
 10
-14.6603
 20
-23.0704
 30
0.0
 10
-14.4581
 20
-23.0723
 30
0.0
 10
-14.4581
 20
-23.0723
 30
0.0
 10
-14.5488
 20
-23.0126
 30
0.0
 10
-14.6166
 20
-22.9397
 30
0.0
 10
-14.6608
 20
-22.8531
 30
0.0
 10
-14.6608
 20
-22.8531
 30
0.0
 10
-14.7045
 20
-22.7671
 30
0.0
 10
-14.7266
 20
-22.6763
 30
0.0
 10
-14.7266
 20
-22.5817
 30
0.0
 10
-14.7266
 20
-22.5817
 30
0.0
 10
-14.7266
 20
-22.4162
 30
0.0
 10
-14.666
 20
-22.2755
 30
0.0
 10
-14.5441
 20
-22.1593
 30
0.0
 10
-14.5441
 20
-22.1593
 30
0.0
 10
-14.4223
 20
-22.0432
 30
0.0
 10
-14.2652
 20
-21.9848
 30
0.0
 10
-14.0724
 20
-21.9848
 30
0.0
 10
-14.0724
 20
-21.9848
 30
0.0
 10
-13.9454
 20
-21.9848
 30
0.0
 10
-13.8278
 20
-22.0126
 30
0.0
 10
-13.7186
 20
-22.0672
 30
0.0
 10
-13.7186
 20
-22.0672
 30
0.0
 10
-13.61
 20
-22.1217
 30
0.0
 10
-13.5263
 20
-22.197
 30
0.0
 10
-13.4684
 20
-22.2925
 30
0.0
 10
-13.4684
 20
-22.2925
 30
0.0
 10
-13.4106
 20
-22.3879
 30
0.0
 10
-13.3819
 20
-22.4961
 30
0.0
 10
-13.3819
 20
-22.6175
 30
0.0
 10
-13.3819
 20
-22.6175
 30
0.0
 10
-13.3819
 20
-22.8244
 30
0.0
 10
-13.4576
 20
-22.9928
 30
0.0
 10
-13.61
 20
-23.1231
 30
0.0
 10
-13.61
 20
-23.1231
 30
0.0
 10
-13.7619
 20
-23.2539
 30
0.0
 10
-14.0126
 20
-23.3188
 30
0.0
 10
-14.3616
 20
-23.3188
 30
0.0
 10
-14.3616
 20
-23.3188
 30
0.0
 10
-14.752
 20
-23.3188
 30
0.0
 10
-15.0357
 20
-23.2468
 30
0.0
 10
-15.213
 20
-23.1024
 30
0.0
 10
-15.213
 20
-23.1024
 30
0.0
 10
-15.3673
 20
-22.9768
 30
0.0
 10
-15.4449
 20
-22.8075
 30
0.0
 10
-15.4449
 20
-22.594
 30
0.0
 10
-15.4449
 20
-22.594
 30
0.0
 10
-15.4449
 20
-22.4354
 30
0.0
 10
-15.4002
 20
-22.3052
 30
0.0
 10
-15.3108
 20
-22.2036
 30
0.0
 10
-15.3108
 20
-22.2036
 30
0.0
 10
-15.2219
 20
-22.102
 30
0.0
 10
-15.0987
 20
-22.0413
 30
0.0
 10
-14.9416
 20
-22.0211
 30
0.0
  0
SPLINE
  5
AF
330
1F
100
AcDbEntity
  8
DEFAULT_2
 62
   250
100
AcDbSpline
210
0.0
220
0.0
230
1.0
 70
    11
 71
     3
 72
    40
 73
    36
 74
     0
 42
0.0000000001
 43
0.0000000001
 40
0.0
 40
0.0
 40
0.0
 40
0.0
 40
0.1
 40
0.1
 40
0.1
 40
0.1
 40
0.2
 40
0.2
 40
0.2
 40
0.2
 40
0.3
 40
0.3
 40
0.3
 40
0.3
 40
0.4
 40
0.4
 40
0.4
 40
0.4
 40
0.5
 40
0.5
 40
0.5
 40
0.5
 40
0.6
 40
0.6
 40
0.6
 40
0.6
 40
0.7
 40
0.7
 40
0.7
 40
0.7
 40
0.8
 40
0.8
 40
0.8
 40
0.8
 40
1.0
 40
1.0
 40
1.0
 40
1.0
 10
-14.071
 20
-23.0338
 30
0.0
 10
-13.9853
 20
-23.0338
 30
0.0
 10
-13.9035
 20
-23.0154
 30
0.0
 10
-13.8254
 20
-22.9792
 30
0.0
 10
-13.8254
 20
-22.9792
 30
0.0
 10
-13.7473
 20
-22.943
 30
0.0
 10
-13.6881
 20
-22.8922
 30
0.0
 10
-13.6472
 20
-22.8273
 30
0.0
 10
-13.6472
 20
-22.8273
 30
0.0
 10
-13.6062
 20
-22.7619
 30
0.0
 10
-13.5855
 20
-22.6932
 30
0.0
 10
-13.5855
 20
-22.6217
 30
0.0
 10
-13.5855
 20
-22.6217
 30
0.0
 10
-13.5855
 20
-22.5168
 30
0.0
 10
-13.6279
 20
-22.427
 30
0.0
 10
-13.7125
 20
-22.3517
 30
0.0
 10
-13.7125
 20
-22.3517
 30
0.0
 10
-13.7972
 20
-22.2765
 30
0.0
 10
-13.912
 20
-22.2388
 30
0.0
 10
-14.0568
 20
-22.2388
 30
0.0
 10
-14.0568
 20
-22.2388
 30
0.0
 10
-14.1965
 20
-22.2388
 30
0.0
 10
-14.3066
 20
-22.276
 30
0.0
 10
-14.387
 20
-22.3503
 30
0.0
 10
-14.387
 20
-22.3503
 30
0.0
 10
-14.4675
 20
-22.4246
 30
0.0
 10
-14.5075
 20
-22.5182
 30
0.0
 10
-14.5075
 20
-22.6311
 30
0.0
 10
-14.5075
 20
-22.6311
 30
0.0
 10
-14.5075
 20
-22.7435
 30
0.0
 10
-14.4675
 20
-22.8386
 30
0.0
 10
-14.387
 20
-22.9166
 30
0.0
 10
-14.387
 20
-22.9166
 30
0.0
 10
-14.3066
 20
-22.9947
 30
0.0
 10
-14.2012
 20
-23.0338
 30
0.0
 10
-14.071
 20
-23.0338
 30
0.0
  0
SPLINE
  5
B0
330
1F
100
AcDbEntity
  8
DEFAULT_2
 62
   250
100
AcDbSpline
210
0.0
220
0.0
230
1.0
 70
    11
 71
     3
 72
    68
 73
    64
 74
     0
 42
0.0000000001
 43
0.0000000001
 40
0.0
 40
0.0
 40
0.0
 40
0.0
 40
0.0588235294117647
 40
0.0588235294117647
 40
0.0588235294117647
 40
0.0588235294117647
 40
0.1176470588235294
 40
0.1176470588235294
 40
0.1176470588235294
 40
0.1176470588235294
 40
0.1764705882352941
 40
0.1764705882352941
 40
0.1764705882352941
 40
0.1764705882352941
 40
0.2352941176470588
 40
0.2352941176470588
 40
0.2352941176470588
 40
0.2352941176470588
 40
0.2941176470588235
 40
0.2941176470588235
 40
0.2941176470588235
 40
0.2941176470588235
 40
0.3529411764705883
 40
0.3529411764705883
 40
0.3529411764705883
 40
0.3529411764705883
 40
0.4117647058823529
 40
0.4117647058823529
 40
0.4117647058823529
 40
0.4117647058823529
 40
0.4705882352941176
 40
0.4705882352941176
 40
0.4705882352941176
 40
0.4705882352941176
 40
0.5294117647058824
 40
0.5294117647058824
 40
0.5294117647058824
 40
0.5294117647058824
 40
0.5882352941176471
 40
0.5882352941176471
 40
0.5882352941176471
 40
0.5882352941176471
 40
0.6470588235294118
 40
0.6470588235294118
 40
0.6470588235294118
 40
0.6470588235294118
 40
0.7058823529411765
 40
0.7058823529411765
 40
0.7058823529411765
 40
0.7058823529411765
 40
0.7647058823529411
 40
0.7647058823529411
 40
0.7647058823529411
 40
0.7647058823529411
 40
0.8235294117647058
 40
0.8235294117647058
 40
0.8235294117647058
 40
0.8235294117647058
 40
0.8823529411764706
 40
0.8823529411764706
 40
0.8823529411764706
 40
0.8823529411764706
 40
1.0
 40
1.0
 40
1.0
 40
1.0
 10
-14.5117
 20
-21.3564
 30
0.0
 10
-14.5493
 20
-21.4595
 30
0.0
 10
-14.6029
 20
-21.5357
 30
0.0
 10
-14.673
 20
-21.5855
 30
0.0
 10
-14.673
 20
-21.5855
 30
0.0
 10
-14.7426
 20
-21.6349
 30
0.0
 10
-14.8264
 20
-21.6598
 30
0.0
 10
-14.9237
 20
-21.6598
 30
0.0
 10
-14.9237
 20
-21.6598
 30
0.0
 10
-15.0709
 20
-21.6598
 30
0.0
 10
-15.1942
 20
-21.6071
 30
0.0
 10
-15.2944
 20
-21.5013
 30
0.0
 10
-15.2944
 20
-21.5013
 30
0.0
 10
-15.3946
 20
-21.3955
 30
0.0
 10
-15.4449
 20
-21.2553
 30
0.0
 10
-15.4449
 20
-21.0799
 30
0.0
 10
-15.4449
 20
-21.0799
 30
0.0
 10
-15.4449
 20
-20.9035
 30
0.0
 10
-15.3936
 20
-20.7614
 30
0.0
 10
-15.2911
 20
-20.6537
 30
0.0
 10
-15.2911
 20
-20.6537
 30
0.0
 10
-15.1885
 20
-20.5465
 30
0.0
 10
-15.0639
 20
-20.4928
 30
0.0
 10
-14.9167
 20
-20.4928
 30
0.0
 10
-14.9167
 20
-20.4928
 30
0.0
 10
-14.8231
 20
-20.4928
 30
0.0
 10
-14.7417
 20
-20.5173
 30
0.0
 10
-14.6721
 20
-20.5662
 30
0.0
 10
-14.6721
 20
-20.5662
 30
0.0
 10
-14.6029
 20
-20.6156
 30
0.0
 10
-14.5493
 20
-20.6899
 30
0.0
 10
-14.5117
 20
-20.7901
 30
0.0
 10
-14.5117
 20
-20.7901
 30
0.0
 10
-14.4712
 20
-20.6664
 30
0.0
 10
-14.4063
 20
-20.5719
 30
0.0
 10
-14.316
 20
-20.507
 30
0.0
 10
-14.316
 20
-20.507
 30
0.0
 10
-14.2262
 20
-20.4425
 30
0.0
 10
-14.1185
 20
-20.4101
 30
0.0
 10
-13.9938
 20
-20.4101
 30
0.0
 10
-13.9938
 20
-20.4101
 30
0.0
 10
-13.8207
 20
-20.4101
 30
0.0
 10
-13.6758
 20
-20.4712
 30
0.0
 10
-13.5583
 20
-20.593
 30
0.0
 10
-13.5583
 20
-20.593
 30
0.0
 10
-13.4407
 20
-20.7153
 30
0.0
 10
-13.3819
 20
-20.8762
 30
0.0
 10
-13.3819
 20
-21.0756
 30
0.0
 10
-13.3819
 20
-21.0756
 30
0.0
 10
-13.3819
 20
-21.2751
 30
0.0
 10
-13.4407
 20
-21.4355
 30
0.0
 10
-13.5587
 20
-21.5578
 30
0.0
 10
-13.5587
 20
-21.5578
 30
0.0
 10
-13.6768
 20
-21.6801
 30
0.0
 10
-13.824
 20
-21.7412
 30
0.0
 10
-14.0004
 20
-21.7412
 30
0.0
 10
-14.0004
 20
-21.7412
 30
0.0
 10
-14.1316
 20
-21.7412
 30
0.0
 10
-14.2417
 20
-21.7078
 30
0.0
 10
-14.3306
 20
-21.641
 30
0.0
 10
-14.3306
 20
-21.641
 30
0.0
 10
-14.419
 20
-21.5747
 30
0.0
 10
-14.4797
 20
-21.4797
 30
0.0
 10
-14.5117
 20
-21.3564
 30
0.0
  0
SPLINE
  5
B1
330
1F
100
AcDbEntity
  8
DEFAULT_2
 62
   250
100
AcDbSpline
210
0.0
220
0.0
230
1.0
 70
    11
 71
     3
 72
    36
 73
    32
 74
     0
 42
0.0000000001
 43
0.0000000001
 40
0.0
 40
0.0
 40
0.0
 40
0.0
 40
0.1111111111111111
 40
0.1111111111111111
 40
0.1111111111111111
 40
0.1111111111111111
 40
0.2222222222222222
 40
0.2222222222222222
 40
0.2222222222222222
 40
0.2222222222222222
 40
0.3333333333333333
 40
0.3333333333333333
 40
0.3333333333333333
 40
0.3333333333333333
 40
0.4444444444444444
 40
0.4444444444444444
 40
0.4444444444444444
 40
0.4444444444444444
 40
0.5555555555555556
 40
0.5555555555555556
 40
0.5555555555555556
 40
0.5555555555555556
 40
0.6666666666666666
 40
0.6666666666666666
 40
0.6666666666666666
 40
0.6666666666666666
 40
0.7777777777777778
 40
0.7777777777777778
 40
0.7777777777777778
 40
0.7777777777777778
 40
1.0
 40
1.0
 40
1.0
 40
1.0
 10
-14.9322
 20
-21.4063
 30
0.0
 10
-14.8367
 20
-21.4063
 30
0.0
 10
-14.7586
 20
-21.3753
 30
0.0
 10
-14.6979
 20
-21.3141
 30
0.0
 10
-14.6979
 20
-21.3141
 30
0.0
 10
-14.6373
 20
-21.2525
 30
0.0
 10
-14.6067
 20
-21.1725
 30
0.0
 10
-14.6067
 20
-21.0742
 30
0.0
 10
-14.6067
 20
-21.0742
 30
0.0
 10
-14.6067
 20
-20.9787
 30
0.0
 10
-14.6368
 20
-20.9002
 30
0.0
 10
-14.697
 20
-20.839
 30
0.0
 10
-14.697
 20
-20.839
 30
0.0
 10
-14.7572
 20
-20.7779
 30
0.0
 10
-14.8311
 20
-20.7478
 30
0.0
 10
-14.9181
 20
-20.7478
 30
0.0
 10
-14.9181
 20
-20.7478
 30
0.0
 10
-15.0093
 20
-20.7478
 30
0.0
 10
-15.0855
 20
-20.7788
 30
0.0
 10
-15.1476
 20
-20.8419
 30
0.0
 10
-15.1476
 20
-20.8419
 30
0.0
 10
-15.2097
 20
-20.9049
 30
0.0
 10
-15.2408
 20
-20.983
 30
0.0
 10
-15.2408
 20
-21.077
 30
0.0
 10
-15.2408
 20
-21.077
 30
0.0
 10
-15.2408
 20
-21.1716
 30
0.0
 10
-15.2102
 20
-21.2501
 30
0.0
 10
-15.15
 20
-21.3127
 30
0.0
 10
-15.15
 20
-21.3127
 30
0.0
 10
-15.0893
 20
-21.3753
 30
0.0
 10
-15.0164
 20
-21.4063
 30
0.0
 10
-14.9322
 20
-21.4063
 30
0.0
  0
SPLINE
  5
B2
330
1F
100
AcDbEntity
  8
DEFAULT_2
 62
   250
100
AcDbSpline
210
0.0
220
0.0
230
1.0
 70
    11
 71
     3
 72
    40
 73
    36
 74
     0
 42
0.0000000001
 43
0.0000000001
 40
0.0
 40
0.0
 40
0.0
 40
0.0
 40
0.1
 40
0.1
 40
0.1
 40
0.1
 40
0.2
 40
0.2
 40
0.2
 40
0.2
 40
0.3
 40
0.3
 40
0.3
 40
0.3
 40
0.4
 40
0.4
 40
0.4
 40
0.4
 40
0.5
 40
0.5
 40
0.5
 40
0.5
 40
0.6
 40
0.6
 40
0.6
 40
0.6
 40
0.7
 40
0.7
 40
0.7
 40
0.7
 40
0.8
 40
0.8
 40
0.8
 40
0.8
 40
1.0
 40
1.0
 40
1.0
 40
1.0
 10
-13.999
 20
-21.4863
 30
0.0
 10
-13.9284
 20
-21.4863
 30
0.0
 10
-13.8598
 20
-21.4693
 30
0.0
 10
-13.7939
 20
-21.4359
 30
0.0
 10
-13.7939
 20
-21.4359
 30
0.0
 10
-13.7276
 20
-21.4025
 30
0.0
 10
-13.6763
 20
-21.3527
 30
0.0
 10
-13.6401
 20
-21.2864
 30
0.0
 10
-13.6401
 20
-21.2864
 30
0.0
 10
-13.6039
 20
-21.22
 30
0.0
 10
-13.5855
 20
-21.149
 30
0.0
 10
-13.5855
 20
-21.0728
 30
0.0
 10
-13.5855
 20
-21.0728
 30
0.0
 10
-13.5855
 20
-20.9543
 30
0.0
 10
-13.6236
 20
-20.8564
 30
0.0
 10
-13.7003
 20
-20.7793
 30
0.0
 10
-13.7003
 20
-20.7793
 30
0.0
 10
-13.7765
 20
-20.7022
 30
0.0
 10
-13.8734
 20
-20.6636
 30
0.0
 10
-13.991
 20
-20.6636
 30
0.0
 10
-13.991
 20
-20.6636
 30
0.0
 10
-14.1105
 20
-20.6636
 30
0.0
 10
-14.2092
 20
-20.7031
 30
0.0
 10
-14.2873
 20
-20.7826
 30
0.0
 10
-14.2873
 20
-20.7826
 30
0.0
 10
-14.3654
 20
-20.8621
 30
0.0
 10
-14.4044
 20
-20.9618
 30
0.0
 10
-14.4044
 20
-21.0813
 30
0.0
 10
-14.4044
 20
-21.0813
 30
0.0
 10
-14.4044
 20
-21.1979
 30
0.0
 10
-14.3659
 20
-21.2944
 30
0.0
 10
-14.2887
 20
-21.371
 30
0.0
 10
-14.2887
 20
-21.371
 30
0.0
 10
-14.2111
 20
-21.4477
 30
0.0
 10
-14.1147
 20
-21.4863
 30
0.0
 10
-13.999
 20
-21.4863
 30
0.0
  0
SPLINE
  5
B3
330
1F
100
AcDbEntity
  8
DEFAULT_2
 62
   250
100
AcDbSpline
210
0.0
220
0.0
230
1.0
 70
    24
 71
     3
 72
     8
 73
     4
 74
     0
 42
0.0000000001
 43
0.0000000001
 40
0.0
 40
0.0
 40
0.0
 40
0.0
 40
1.0
 40
1.0
 40
1.0
 40
1.0
 10
14.7734
 20
-33.3145
 30
0.0
 10
14.7734
 20
-33.3145
 30
0.0
 10
14.7734
 20
-37.4671
 30
0.0
 10
14.7734
 20
-37.4671
 30
0.0
  0
SPLINE
  5
B4
330
1F
100
AcDbEntity
  8
DEFAULT_2
 62
   250
100
AcDbSpline
210
0.0
220
0.0
230
1.0
 70
    11
 71
     3
 72
    20
 73
    16
 74
     0
 42
0.0000000001
 43
0.0000000001
 40
0.0
 40
0.0
 40
0.0
 40
0.0
 40
0.2
 40
0.2
 40
0.2
 40
0.2
 40
0.4
 40
0.4
 40
0.4
 40
0.4
 40
0.6
 40
0.6
 40
0.6
 40
0.6
 40
1.0
 40
1.0
 40
1.0
 40
1.0
 10
11.6432
 20
-36.5553
 30
0.0
 10
11.6432
 20
-36.5553
 30
0.0
 10
14.6706
 20
-36.9825
 30
0.0
 10
14.6706
 20
-36.9825
 30
0.0
 10
14.6706
 20
-36.9825
 30
0.0
 10
14.6706
 20
-36.9825
 30
0.0
 10
14.6706
 20
-37.0774
 30
0.0
 10
14.6706
 20
-37.0774
 30
0.0
 10
14.6706
 20
-37.0774
 30
0.0
 10
14.6706
 20
-37.0774
 30
0.0
 10
11.6432
 20
-37.533
 30
0.0
 10
11.6432
 20
-37.533
 30
0.0
 10
11.6432
 20
-37.533
 30
0.0
 10
11.6432
 20
-37.533
 30
0.0
 10
11.6432
 20
-36.5553
 30
0.0
 10
11.6432
 20
-36.5553
 30
0.0
  0
SPLINE
  5
B5
330
1F
100
AcDbEntity
  8
DEFAULT_2
 62
   250
100
AcDbSpline
210
0.0
220
0.0
230
1.0
 70
    11
 71
     3
 72
    20
 73
    16
 74
     0
 42
0.0000000001
 43
0.0000000001
 40
0.0
 40
0.0
 40
0.0
 40
0.0
 40
0.2
 40
0.2
 40
0.2
 40
0.2
 40
0.4
 40
0.4
 40
0.4
 40
0.4
 40
0.6
 40
0.6
 40
0.6
 40
0.6
 40
1.0
 40
1.0
 40
1.0
 40
1.0
 10
-3.9607
 20
-37.5331
 30
0.0
 10
-3.9607
 20
-37.5331
 30
0.0
 10
-6.9881
 20
-37.1058
 30
0.0
 10
-6.9881
 20
-37.1058
 30
0.0
 10
-6.9881
 20
-37.1058
 30
0.0
 10
-6.9881
 20
-37.1058
 30
0.0
 10
-6.9881
 20
-37.0109
 30
0.0
 10
-6.9881
 20
-37.0109
 30
0.0
 10
-6.9881
 20
-37.0109
 30
0.0
 10
-6.9881
 20
-37.0109
 30
0.0
 10
-3.9607
 20
-36.5553
 30
0.0
 10
-3.9607
 20
-36.5553
 30
0.0
 10
-3.9607
 20
-36.5553
 30
0.0
 10
-3.9607
 20
-36.5553
 30
0.0
 10
-3.9607
 20
-37.5331
 30
0.0
 10
-3.9607
 20
-37.5331
 30
0.0
  0
SPLINE
  5
B6
330
1F
100
AcDbEntity
  8
DEFAULT_2
 62
   250
100
AcDbSpline
210
0.0
220
0.0
230
1.0
 70
    24
 71
     3
 72
     8
 73
     4
 74
     0
 42
0.0000000001
 43
0.0000000001
 40
0.0
 40
0.0
 40
0.0
 40
0.0
 40
1.0
 40
1.0
 40
1.0
 40
1.0
 10
-6.9277
 20
-37.0441
 30
0.0
 10
-6.9277
 20
-37.0441
 30
0.0
 10
13.8771
 20
-37.0441
 30
0.0
 10
13.8771
 20
-37.0441
 30
0.0
  0
SPLINE
  5
B7
330
1F
100
AcDbEntity
  8
DEFAULT_2
 62
   250
100
AcDbSpline
210
0.0
220
0.0
230
1.0
 70
    24
 71
     3
 72
     8
 73
     4
 74
     0
 42
0.0000000001
 43
0.0000000001
 40
0.0
 40
0.0
 40
0.0
 40
0.0
 40
1.0
 40
1.0
 40
1.0
 40
1.0
 10
-7.1013
 20
-33.505
 30
0.0
 10
-7.1013
 20
-33.505
 30
0.0
 10
-7.1013
 20
-37.429
 30
0.0
 10
-7.1013
 20
-37.429
 30
0.0
  0
SPLINE
  5
B8
330
1F
100
AcDbEntity
  8
DEFAULT_2
 62
   250
100
AcDbSpline
210
0.0
220
0.0
230
1.0
 70
    11
 71
     3
 72
    80
 73
    76
 74
     0
 42
0.0000000001
 43
0.0000000001
 40
0.0
 40
0.0
 40
0.0
 40
0.0
 40
0.05
 40
0.05
 40
0.05
 40
0.05
 40
0.1
 40
0.1
 40
0.1
 40
0.1
 40
0.15
 40
0.15
 40
0.15
 40
0.15
 40
0.2
 40
0.2
 40
0.2
 40
0.2
 40
0.25
 40
0.25
 40
0.25
 40
0.25
 40
0.3
 40
0.3
 40
0.3
 40
0.3
 40
0.35
 40
0.35
 40
0.35
 40
0.35
 40
0.4
 40
0.4
 40
0.4
 40
0.4
 40
0.45
 40
0.45
 40
0.45
 40
0.45
 40
0.5
 40
0.5
 40
0.5
 40
0.5
 40
0.55
 40
0.55
 40
0.55
 40
0.55
 40
0.6
 40
0.6
 40
0.6
 40
0.6
 40
0.65
 40
0.65
 40
0.65
 40
0.65
 40
0.7
 40
0.7
 40
0.7
 40
0.7
 40
0.75
 40
0.75
 40
0.75
 40
0.75
 40
0.8
 40
0.8
 40
0.8
 40
0.8
 40
0.85
 40
0.85
 40
0.85
 40
0.85
 40
0.9
 40
0.9
 40
0.9
 40
0.9
 40
1.0
 40
1.0
 40
1.0
 40
1.0
 10
3.5084
 20
-35.005
 30
0.0
 10
3.5084
 20
-35.005
 30
0.0
 10
3.262
 20
-35.0243
 30
0.0
 10
3.262
 20
-35.0243
 30
0.0
 10
3.262
 20
-35.0243
 30
0.0
 10
3.2399
 20
-34.9269
 30
0.0
 10
3.2088
 20
-34.8559
 30
0.0
 10
3.1684
 20
-34.8122
 30
0.0
 10
3.1684
 20
-34.8122
 30
0.0
 10
3.1011
 20
-34.7411
 30
0.0
 10
3.0183
 20
-34.7058
 30
0.0
 10
2.92
 20
-34.7058
 30
0.0
 10
2.92
 20
-34.7058
 30
0.0
 10
2.841
 20
-34.7058
 30
0.0
 10
2.7719
 20
-34.728
 30
0.0
 10
2.7121
 20
-34.7722
 30
0.0
 10
2.7121
 20
-34.7722
 30
0.0
 10
2.634
 20
-34.8291
 30
0.0
 10
2.5724
 20
-34.9123
 30
0.0
 10
2.5273
 20
-35.0215
 30
0.0
 10
2.5273
 20
-35.0215
 30
0.0
 10
2.4826
 20
-35.1306
 30
0.0
 10
2.4591
 20
-35.2863
 30
0.0
 10
2.4572
 20
-35.4885
 30
0.0
 10
2.4572
 20
-35.4885
 30
0.0
 10
2.5169
 20
-35.3978
 30
0.0
 10
2.5898
 20
-35.33
 30
0.0
 10
2.6764
 20
-35.2858
 30
0.0
 10
2.6764
 20
-35.2858
 30
0.0
 10
2.7624
 20
-35.2421
 30
0.0
 10
2.8532
 20
-35.22
 30
0.0
 10
2.9478
 20
-35.22
 30
0.0
 10
2.9478
 20
-35.22
 30
0.0
 10
3.1133
 20
-35.22
 30
0.0
 10
3.254
 20
-35.2806
 30
0.0
 10
3.3702
 20
-35.4025
 30
0.0
 10
3.3702
 20
-35.4025
 30
0.0
 10
3.4863
 20
-35.5243
 30
0.0
 10
3.5447
 20
-35.6814
 30
0.0
 10
3.5447
 20
-35.8742
 30
0.0
 10
3.5447
 20
-35.8742
 30
0.0
 10
3.5447
 20
-36.0012
 30
0.0
 10
3.5169
 20
-36.1188
 30
0.0
 10
3.4623
 20
-36.228
 30
0.0
 10
3.4623
 20
-36.228
 30
0.0
 10
3.4078
 20
-36.3366
 30
0.0
 10
3.3325
 20
-36.4203
 30
0.0
 10
3.237
 20
-36.4782
 30
0.0
 10
3.237
 20
-36.4782
 30
0.0
 10
3.1416
 20
-36.536
 30
0.0
 10
3.0334
 20
-36.5647
 30
0.0
 10
2.912
 20
-36.5647
 30
0.0
 10
2.912
 20
-36.5647
 30
0.0
 10
2.7051
 20
-36.5647
 30
0.0
 10
2.5367
 20
-36.489
 30
0.0
 10
2.4064
 20
-36.3366
 30
0.0
 10
2.4064
 20
-36.3366
 30
0.0
 10
2.2756
 20
-36.1847
 30
0.0
 10
2.2107
 20
-35.934
 30
0.0
 10
2.2107
 20
-35.585
 30
0.0
 10
2.2107
 20
-35.585
 30
0.0
 10
2.2107
 20
-35.1946
 30
0.0
 10
2.2827
 20
-34.9109
 30
0.0
 10
2.4271
 20
-34.7336
 30
0.0
 10
2.4271
 20
-34.7336
 30
0.0
 10
2.5527
 20
-34.5793
 30
0.0
 10
2.722
 20
-34.5017
 30
0.0
 10
2.9355
 20
-34.5017
 30
0.0
 10
2.9355
 20
-34.5017
 30
0.0
 10
3.0941
 20
-34.5017
 30
0.0
 10
3.2243
 20
-34.5464
 30
0.0
 10
3.3259
 20
-34.6358
 30
0.0
 10
3.3259
 20
-34.6358
 30
0.0
 10
3.4275
 20
-34.7247
 30
0.0
 10
3.4882
 20
-34.8479
 30
0.0
 10
3.5084
 20
-35.005
 30
0.0
  0
SPLINE
  5
B9
330
1F
100
AcDbEntity
  8
DEFAULT_2
 62
   250
100
AcDbSpline
210
0.0
220
0.0
230
1.0
 70
    11
 71
     3
 72
    40
 73
    36
 74
     0
 42
0.0000000001
 43
0.0000000001
 40
0.0
 40
0.0
 40
0.0
 40
0.0
 40
0.1
 40
0.1
 40
0.1
 40
0.1
 40
0.2
 40
0.2
 40
0.2
 40
0.2
 40
0.3
 40
0.3
 40
0.3
 40
0.3
 40
0.4
 40
0.4
 40
0.4
 40
0.4
 40
0.5
 40
0.5
 40
0.5
 40
0.5
 40
0.6
 40
0.6
 40
0.6
 40
0.6
 40
0.7
 40
0.7
 40
0.7
 40
0.7
 40
0.8
 40
0.8
 40
0.8
 40
0.8
 40
1.0
 40
1.0
 40
1.0
 40
1.0
 10
2.4957
 20
-35.8756
 30
0.0
 10
2.4957
 20
-35.9613
 30
0.0
 10
2.5141
 20
-36.0431
 30
0.0
 10
2.5503
 20
-36.1212
 30
0.0
 10
2.5503
 20
-36.1212
 30
0.0
 10
2.5865
 20
-36.1993
 30
0.0
 10
2.6373
 20
-36.2585
 30
0.0
 10
2.7022
 20
-36.2994
 30
0.0
 10
2.7022
 20
-36.2994
 30
0.0
 10
2.7676
 20
-36.3404
 30
0.0
 10
2.8363
 20
-36.3611
 30
0.0
 10
2.9078
 20
-36.3611
 30
0.0
 10
2.9078
 20
-36.3611
 30
0.0
 10
3.0127
 20
-36.3611
 30
0.0
 10
3.1025
 20
-36.3187
 30
0.0
 10
3.1778
 20
-36.2341
 30
0.0
 10
3.1778
 20
-36.2341
 30
0.0
 10
3.253
 20
-36.1494
 30
0.0
 10
3.2907
 20
-36.0346
 30
0.0
 10
3.2907
 20
-35.8898
 30
0.0
 10
3.2907
 20
-35.8898
 30
0.0
 10
3.2907
 20
-35.7501
 30
0.0
 10
3.2535
 20
-35.64
 30
0.0
 10
3.1792
 20
-35.5596
 30
0.0
 10
3.1792
 20
-35.5596
 30
0.0
 10
3.1049
 20
-35.4791
 30
0.0
 10
3.0113
 20
-35.4391
 30
0.0
 10
2.8984
 20
-35.4391
 30
0.0
 10
2.8984
 20
-35.4391
 30
0.0
 10
2.786
 20
-35.4391
 30
0.0
 10
2.6909
 20
-35.4791
 30
0.0
 10
2.6129
 20
-35.5596
 30
0.0
 10
2.6129
 20
-35.5596
 30
0.0
 10
2.5348
 20
-35.64
 30
0.0
 10
2.4957
 20
-35.7454
 30
0.0
 10
2.4957
 20
-35.8756
 30
0.0
  0
SPLINE
  5
BA
330
1F
100
AcDbEntity
  8
DEFAULT_2
 62
   250
100
AcDbSpline
210
0.0
220
0.0
230
1.0
 70
    11
 71
     3
 72
    68
 73
    64
 74
     0
 42
0.0000000001
 43
0.0000000001
 40
0.0
 40
0.0
 40
0.0
 40
0.0
 40
0.0588235294117647
 40
0.0588235294117647
 40
0.0588235294117647
 40
0.0588235294117647
 40
0.1176470588235294
 40
0.1176470588235294
 40
0.1176470588235294
 40
0.1176470588235294
 40
0.1764705882352941
 40
0.1764705882352941
 40
0.1764705882352941
 40
0.1764705882352941
 40
0.2352941176470588
 40
0.2352941176470588
 40
0.2352941176470588
 40
0.2352941176470588
 40
0.2941176470588235
 40
0.2941176470588235
 40
0.2941176470588235
 40
0.2941176470588235
 40
0.3529411764705883
 40
0.3529411764705883
 40
0.3529411764705883
 40
0.3529411764705883
 40
0.4117647058823529
 40
0.4117647058823529
 40
0.4117647058823529
 40
0.4117647058823529
 40
0.4705882352941176
 40
0.4705882352941176
 40
0.4705882352941176
 40
0.4705882352941176
 40
0.5294117647058824
 40
0.5294117647058824
 40
0.5294117647058824
 40
0.5294117647058824
 40
0.5882352941176471
 40
0.5882352941176471
 40
0.5882352941176471
 40
0.5882352941176471
 40
0.6470588235294118
 40
0.6470588235294118
 40
0.6470588235294118
 40
0.6470588235294118
 40
0.7058823529411765
 40
0.7058823529411765
 40
0.7058823529411765
 40
0.7058823529411765
 40
0.7647058823529411
 40
0.7647058823529411
 40
0.7647058823529411
 40
0.7647058823529411
 40
0.8235294117647058
 40
0.8235294117647058
 40
0.8235294117647058
 40
0.8235294117647058
 40
0.8823529411764706
 40
0.8823529411764706
 40
0.8823529411764706
 40
0.8823529411764706
 40
1.0
 40
1.0
 40
1.0
 40
1.0
 10
4.1731
 20
-35.4349
 30
0.0
 10
4.07
 20
-35.3973
 30
0.0
 10
3.9938
 20
-35.3437
 30
0.0
 10
3.944
 20
-35.2736
 30
0.0
 10
3.944
 20
-35.2736
 30
0.0
 10
3.8946
 20
-35.204
 30
0.0
 10
3.8697
 20
-35.1202
 30
0.0
 10
3.8697
 20
-35.0229
 30
0.0
 10
3.8697
 20
-35.0229
 30
0.0
 10
3.8697
 20
-34.8757
 30
0.0
 10
3.9224
 20
-34.7524
 30
0.0
 10
4.0282
 20
-34.6522
 30
0.0
 10
4.0282
 20
-34.6522
 30
0.0
 10
4.134
 20
-34.552
 30
0.0
 10
4.2742
 20
-34.5017
 30
0.0
 10
4.4496
 20
-34.5017
 30
0.0
 10
4.4496
 20
-34.5017
 30
0.0
 10
4.626
 20
-34.5017
 30
0.0
 10
4.7681
 20
-34.553
 30
0.0
 10
4.8758
 20
-34.6555
 30
0.0
 10
4.8758
 20
-34.6555
 30
0.0
 10
4.983
 20
-34.7581
 30
0.0
 10
5.0367
 20
-34.8827
 30
0.0
 10
5.0367
 20
-35.0299
 30
0.0
 10
5.0367
 20
-35.0299
 30
0.0
 10
5.0367
 20
-35.1235
 30
0.0
 10
5.0122
 20
-35.2049
 30
0.0
 10
4.9633
 20
-35.2745
 30
0.0
 10
4.9633
 20
-35.2745
 30
0.0
 10
4.9139
 20
-35.3437
 30
0.0
 10
4.8396
 20
-35.3973
 30
0.0
 10
4.7394
 20
-35.4349
 30
0.0
 10
4.7394
 20
-35.4349
 30
0.0
 10
4.8631
 20
-35.4754
 30
0.0
 10
4.9576
 20
-35.5403
 30
0.0
 10
5.0225
 20
-35.6306
 30
0.0
 10
5.0225
 20
-35.6306
 30
0.0
 10
5.087
 20
-35.7204
 30
0.0
 10
5.1194
 20
-35.8281
 30
0.0
 10
5.1194
 20
-35.9528
 30
0.0
 10
5.1194
 20
-35.9528
 30
0.0
 10
5.1194
 20
-36.1259
 30
0.0
 10
5.0583
 20
-36.2708
 30
0.0
 10
4.9365
 20
-36.3883
 30
0.0
 10
4.9365
 20
-36.3883
 30
0.0
 10
4.8142
 20
-36.5059
 30
0.0
 10
4.6533
 20
-36.5647
 30
0.0
 10
4.4539
 20
-36.5647
 30
0.0
 10
4.4539
 20
-36.5647
 30
0.0
 10
4.2544
 20
-36.5647
 30
0.0
 10
4.094
 20
-36.5059
 30
0.0
 10
3.9717
 20
-36.3879
 30
0.0
 10
3.9717
 20
-36.3879
 30
0.0
 10
3.8494
 20
-36.2698
 30
0.0
 10
3.7883
 20
-36.1226
 30
0.0
 10
3.7883
 20
-35.9462
 30
0.0
 10
3.7883
 20
-35.9462
 30
0.0
 10
3.7883
 20
-35.815
 30
0.0
 10
3.8217
 20
-35.7049
 30
0.0
 10
3.8885
 20
-35.616
 30
0.0
 10
3.8885
 20
-35.616
 30
0.0
 10
3.9548
 20
-35.5276
 30
0.0
 10
4.0498
 20
-35.4669
 30
0.0
 10
4.1731
 20
-35.4349
 30
0.0
  0
SPLINE
  5
BB
330
1F
100
AcDbEntity
  8
DEFAULT_2
 62
   250
100
AcDbSpline
210
0.0
220
0.0
230
1.0
 70
    11
 71
     3
 72
    36
 73
    32
 74
     0
 42
0.0000000001
 43
0.0000000001
 40
0.0
 40
0.0
 40
0.0
 40
0.0
 40
0.1111111111111111
 40
0.1111111111111111
 40
0.1111111111111111
 40
0.1111111111111111
 40
0.2222222222222222
 40
0.2222222222222222
 40
0.2222222222222222
 40
0.2222222222222222
 40
0.3333333333333333
 40
0.3333333333333333
 40
0.3333333333333333
 40
0.3333333333333333
 40
0.4444444444444444
 40
0.4444444444444444
 40
0.4444444444444444
 40
0.4444444444444444
 40
0.5555555555555556
 40
0.5555555555555556
 40
0.5555555555555556
 40
0.5555555555555556
 40
0.6666666666666666
 40
0.6666666666666666
 40
0.6666666666666666
 40
0.6666666666666666
 40
0.7777777777777778
 40
0.7777777777777778
 40
0.7777777777777778
 40
0.7777777777777778
 40
1.0
 40
1.0
 40
1.0
 40
1.0
 10
4.1232
 20
-35.0144
 30
0.0
 10
4.1232
 20
-35.1099
 30
0.0
 10
4.1542
 20
-35.188
 30
0.0
 10
4.2154
 20
-35.2487
 30
0.0
 10
4.2154
 20
-35.2487
 30
0.0
 10
4.277
 20
-35.3093
 30
0.0
 10
4.357
 20
-35.3399
 30
0.0
 10
4.4553
 20
-35.3399
 30
0.0
 10
4.4553
 20
-35.3399
 30
0.0
 10
4.5508
 20
-35.3399
 30
0.0
 10
4.6293
 20
-35.3098
 30
0.0
 10
4.6905
 20
-35.2496
 30
0.0
 10
4.6905
 20
-35.2496
 30
0.0
 10
4.7516
 20
-35.1894
 30
0.0
 10
4.7817
 20
-35.1155
 30
0.0
 10
4.7817
 20
-35.0285
 30
0.0
 10
4.7817
 20
-35.0285
 30
0.0
 10
4.7817
 20
-34.9373
 30
0.0
 10
4.7507
 20
-34.8611
 30
0.0
 10
4.6876
 20
-34.799
 30
0.0
 10
4.6876
 20
-34.799
 30
0.0
 10
4.6246
 20
-34.7369
 30
0.0
 10
4.5465
 20
-34.7058
 30
0.0
 10
4.4525
 20
-34.7058
 30
0.0
 10
4.4525
 20
-34.7058
 30
0.0
 10
4.3579
 20
-34.7058
 30
0.0
 10
4.2794
 20
-34.7364
 30
0.0
 10
4.2168
 20
-34.7966
 30
0.0
 10
4.2168
 20
-34.7966
 30
0.0
 10
4.1542
 20
-34.8573
 30
0.0
 10
4.1232
 20
-34.9302
 30
0.0
 10
4.1232
 20
-35.0144
 30
0.0
  0
SPLINE
  5
BC
330
1F
100
AcDbEntity
  8
DEFAULT_2
 62
   250
100
AcDbSpline
210
0.0
220
0.0
230
1.0
 70
    11
 71
     3
 72
    40
 73
    36
 74
     0
 42
0.0000000001
 43
0.0000000001
 40
0.0
 40
0.0
 40
0.0
 40
0.0
 40
0.1
 40
0.1
 40
0.1
 40
0.1
 40
0.2
 40
0.2
 40
0.2
 40
0.2
 40
0.3
 40
0.3
 40
0.3
 40
0.3
 40
0.4
 40
0.4
 40
0.4
 40
0.4
 40
0.5
 40
0.5
 40
0.5
 40
0.5
 40
0.6
 40
0.6
 40
0.6
 40
0.6
 40
0.7
 40
0.7
 40
0.7
 40
0.7
 40
0.8
 40
0.8
 40
0.8
 40
0.8
 40
1.0
 40
1.0
 40
1.0
 40
1.0
 10
4.0432
 20
-35.9476
 30
0.0
 10
4.0432
 20
-36.0182
 30
0.0
 10
4.0602
 20
-36.0868
 30
0.0
 10
4.0936
 20
-36.1527
 30
0.0
 10
4.0936
 20
-36.1527
 30
0.0
 10
4.127
 20
-36.219
 30
0.0
 10
4.1768
 20
-36.2703
 30
0.0
 10
4.2431
 20
-36.3065
 30
0.0
 10
4.2431
 20
-36.3065
 30
0.0
 10
4.3095
 20
-36.3427
 30
0.0
 10
4.3805
 20
-36.3611
 30
0.0
 10
4.4567
 20
-36.3611
 30
0.0
 10
4.4567
 20
-36.3611
 30
0.0
 10
4.5752
 20
-36.3611
 30
0.0
 10
4.6731
 20
-36.323
 30
0.0
 10
4.7502
 20
-36.2463
 30
0.0
 10
4.7502
 20
-36.2463
 30
0.0
 10
4.8273
 20
-36.1701
 30
0.0
 10
4.8659
 20
-36.0732
 30
0.0
 10
4.8659
 20
-35.9556
 30
0.0
 10
4.8659
 20
-35.9556
 30
0.0
 10
4.8659
 20
-35.8361
 30
0.0
 10
4.8264
 20
-35.7374
 30
0.0
 10
4.7469
 20
-35.6593
 30
0.0
 10
4.7469
 20
-35.6593
 30
0.0
 10
4.6674
 20
-35.5812
 30
0.0
 10
4.5677
 20
-35.5422
 30
0.0
 10
4.4482
 20
-35.5422
 30
0.0
 10
4.4482
 20
-35.5422
 30
0.0
 10
4.3316
 20
-35.5422
 30
0.0
 10
4.2351
 20
-35.5807
 30
0.0
 10
4.1585
 20
-35.6579
 30
0.0
 10
4.1585
 20
-35.6579
 30
0.0
 10
4.0818
 20
-35.7355
 30
0.0
 10
4.0432
 20
-35.8319
 30
0.0
 10
4.0432
 20
-35.9476
 30
0.0
  0
SPLINE
  5
BD
330
1F
100
AcDbEntity
  8
DEFAULT_2
  6
NEW_LINE2
 62
   250
100
AcDbSpline
210
0.0
220
0.0
230
1.0
 70
    24
 71
     3
 72
     8
 73
     4
 74
     0
 42
0.0000000001
 43
0.0000000001
 40
0.0
 40
0.0
 40
0.0
 40
0.0
 40
1.0
 40
1.0
 40
1.0
 40
1.0
 10
3.9972
 20
-33.9513
 30
0.0
 10
3.9972
 20
-33.9513
 30
0.0
 10
3.9972
 20
-10.7673
 30
0.0
 10
3.9972
 20
-10.7673
 30
0.0
  0
SPLINE
  5
BF
330
1F
100
AcDbEntity
  8
DEFAULT_2
  6
NEW_LINE3
 62
   250
100
AcDbSpline
210
0.0
220
0.0
230
1.0
 70
    24
 71
     3
 72
     8
 73
     4
 74
     0
 42
0.0000000001
 43
0.0000000001
 40
0.0
 40
0.0
 40
0.0
 40
0.0
 40
1.0
 40
1.0
 40
1.0
 40
1.0
 10
15.8097
 20
-22.5798
 30
0.0
 10
15.8097
 20
-22.5798
 30
0.0
 10
-7.8153
 20
-22.5798
 30
0.0
 10
-7.8153
 20
-22.5798
 30
0.0
  0
ENDSEC
  0
SECTION
  2
OBJECTS
  0
DICTIONARY
  5
C
330
0
100
AcDbDictionary
  3
ACAD_GROUP
350
D
  3
ACAD_LAYOUT
350
1A
  3
ACAD_MATERIAL
350
3B
  3
ACAD_MLEADERSTYLE
350
E3
  3
ACAD_MLINESTYLE
350
17
  3
ACAD_PLOTSETTINGS
350
19
  3
ACAD_VISUALSTYLE
350
2A
  3
ACDBHEADERROUNDTRIPXREC
350
C1
  3
ACDBVARIABLEDICTIONARY
350
E1
  0
DICTIONARY
  5
D
102
{ACAD_REACTORS
330
C
102
}
330
C
100
AcDbDictionary
  0
DICTIONARY
  5
1A
102
{ACAD_REACTORS
330
C
102
}
330
C
100
AcDbDictionary
  0
DICTIONARY
  5
3B
102
{ACAD_REACTORS
330
C
102
}
330
C
100
AcDbDictionary
  3
BYBLOCK
350
3D
  3
BYLAYER
350
3C
  3
GLOBAL
350
3E
  0
DICTIONARY
  5
E3
102
{ACAD_REACTORS
330
C
102
}
330
C
100
AcDbDictionary
  0
DICTIONARY
  5
17
102
{ACAD_REACTORS
330
C
102
}
330
C
100
AcDbDictionary
  3
STANDARD
350
18
  0
DICTIONARY
  5
19
102
{ACAD_REACTORS
330
C
102
}
330
C
100
AcDbDictionary
  0
DICTIONARY
  5
2A
102
{ACAD_REACTORS
330
C
102
}
330
C
100
AcDbDictionary
  3
2DWIREFRAME
350
2F
  3
3D_HIDDEN
350
31
  3
3DWIREFRAME
350
30
  3
BASIC
350
32
  3
BRIGHTEN
350
36
  3
COLORCHANGE
350
3A
  3
CONCEPTUAL
350
34
  3
DIM
350
35
  3
FACEPATTERN
350
39
  3
FLAT
350
2B
  3
FLATWITHEDGES
350
2C
  3
GOURAUD
350
2D
  3
GOURAUDWITHEDGES
350
2E
  3
LINEPATTERN
350
38
  3
REALISTIC
350
33
  3
THICKEN
350
37
  0
DICTIONARY
  5
C1
102
{ACAD_REACTORS
330
C
102
}
330
C
100
AcDbDictionary
  3
CEPSNTYPE
350
CA
  3
DIMSTYLEDATA
350
E0
  3
FINGERPRINTGUID
350
CB
  3
HYPERLINKBASE
350
C4
  3
INSUNITS
350
C9
  3
LAYOUTDICT
350
C6
  3
LWETCUNION
350
C8
  3
PLOTSETDICT
350
C7
  3
PSVPSCALE
350
CD
  3
PUCSBASE
350
D0
  3
PUCSORGBACK
350
D6
  3
PUCSORGBOTTOM
350
D2
  3
PUCSORGFRONT
350
D5
  3
PUCSORGLEFT
350
D3
  3
PUCSORGRIGHT
350
D4
  3
PUCSORGTOP
350
D1
  3
PUCSORTHOREF
350
CE
  3
PUCSORTHOVIEW
350
CF
  3
STYLESHEET
350
C5
  3
TSTACKALIGN
350
C2
  3
TSTACKSIZE
350
C3
  3
UCSBASE
350
D9
  3
UCSORGBACK
350
DF
  3
UCSORGBOTTOM
350
DB
  3
UCSORGFRONT
350
DE
  3
UCSORGLEFT
350
DC
  3
UCSORGRIGHT
350
DD
  3
UCSORGTOP
350
DA
  3
UCSORTHOREF
350
D7
  3
UCSORTHOVIEW
350
D8
  3
VERSIONGUID
350
CC
  0
DICTIONARY
  5
E1
102
{ACAD_REACTORS
330
C
102
}
330
C
100
AcDbDictionary
  3
DIMASSOC
350
E4
  3
HIDETEXT
350
E5
  0
MATERIAL
  5
3D
102
{ACAD_REACTORS
330
3B
102
}
102
{ACAD_XDICTIONARY
360
E8
102
}
330
3B
100
AcDbMaterial
  1
ByBlock
  0
MATERIAL
  5
3C
102
{ACAD_REACTORS
330
3B
102
}
102
{ACAD_XDICTIONARY
360
E6
102
}
330
3B
100
AcDbMaterial
  1
ByLayer
  0
MATERIAL
  5
3E
102
{ACAD_REACTORS
330
3B
102
}
102
{ACAD_XDICTIONARY
360
EA
102
}
330
3B
100
AcDbMaterial
  1
Global
  0
MLINESTYLE
  5
18
102
{ACAD_REACTORS
330
17
102
}
330
17
100
AcDbMlineStyle
  2
Standard
 70
     0
  3

 62
   256
 51
90.0
 52
90.0
 71
     2
 49
0.5
 62
   256
  6
BYLAYER
 49
-0.5
 62
   256
  6
BYLAYER
  0
ACAD_PROXY_OBJECT
  5
2F
102
{ACAD_REACTORS
330
2A
102
}
330
2A
100
AcDbProxyObject
 90
      499
 91
      501
 93
      436
310
42CC9915DA5C99599C985B595049028333333333333E3BF0000000000000FB0107901411070040501600405405064090741402480A0340
1001
ACAD
1000
AcDbSavedByObjectVersion
1070
     0
  0
ACAD_PROXY_OBJECT
  5
31
102
{ACAD_REACTORS
330
2A
102
}
330
2A
100
AcDbProxyObject
 90
      499
 91
      501
 93
      500
310
424CD108121A5919195B90640502408333333333333E3BF0000000000000FB01079024090700405020000000000001110200405405064090740C02480A0340
1001
ACAD
1000
AcDbSavedByObjectVersion
1070
     0
  0
ACAD_PROXY_OBJECT
  5
30
102
{ACAD_REACTORS
330
2A
102
}
330
2A
100
AcDbProxyObject
 90
      499
 91
      501
 93
      436
310
42CCD915DA5C99599C985B595059028333333333333E3BF0000000000000FB0107901411070040501600405405064090741402480A0340
1001
ACAD
1000
AcDbSavedByObjectVersion
1070
     0
  0
ACAD_PROXY_OBJECT
  5
32
102
{ACAD_REACTORS
330
2A
102
}
330
2A
100
AcDbProxyObject
 90
      499
 91
      501
 93
      388
310
4150985CDA58D07406404333333333333E3BF0000000000000FB0107A41107004050150841D405064090741402480A0350
1001
ACAD
1000
AcDbSavedByObjectVersion
1070
     0
  0
ACAD_PROXY_OBJECT
  5
36
102
{ACAD_REACTORS
330
2A
102
}
330
2A
100
AcDbProxyObject
 90
      499
 91
      501
 93
      428
310
42109C9A59DA1D195B90C409028333333333333E3BF0000000000000FB010790141107004050150841D405064090741402480A029950
1001
ACAD
1000
AcDbSavedByObjectVersion
1070
     0
  0
ACAD_PROXY_OBJECT
  5
3A
102
{ACAD_REACTORS
330
2A
102
}
330
2A
100
AcDbProxyObject
 90
      499
 91
      501
 93
      452
310
42D0DBDB1BDC90DA185B99D95104090240C333333333333E3BF0000000000000FB0108901411070040501508421405064090741402480A0350
1001
ACAD
1000
AcDbSavedByObjectVersion
1070
     0
  0
ACAD_PROXY_OBJECT
  5
34
102
{ACAD_REACTORS
330
2A
102
}
330
2A
100
AcDbProxyObject
 90
      499
 91
      501
 93
      500
310
4290DBDB98D95C1D1D585B10940D028333333333333E3BF0000000000000FB0107902409070040501000000000000111010841D405064090740C02480A0340
1001
ACAD
1000
AcDbSavedByObjectVersion
1070
     0
  0
ACAD_PROXY_OBJECT
  5
35
102
{ACAD_REACTORS
330
2A
102
}
330
2A
100
AcDbProxyObject
 90
      499
 91
      501
 93
      412
310
40D11A5B50B409028333333333333E3BF0000000000000FB010790141107004050150841D405064090741402480A02677FFFFFD0
1001
ACAD
1000
AcDbSavedByObjectVersion
1070
     0
  0
ACAD_PROXY_OBJECT
  5
39
102
{ACAD_REACTORS
330
2A
102
}
330
2A
100
AcDbProxyObject
 90
      499
 91
      501
 93
      444
310
42D19858D95C185D1D195C9B90F409028333333333333E3BF0000000000000FB010790141107004050150841D405064090741402480A0350
1001
ACAD
1000
AcDbSavedByObjectVersion
1070
     0
  0
ACAD_PROXY_OBJECT
  5
2B
102
{ACAD_REACTORS
330
2A
102
}
330
2A
100
AcDbProxyObject
 90
      499
 91
      501
 93
      388
310
41119B185D240901404333333333333E3BF0000000000000F9010740A41107004050150841D405064090741402480A1B50
1001
ACAD
1000
AcDbSavedByObjectVersion
1070
     0
  0
ACAD_PROXY_OBJECT
  5
2C
102
{ACAD_REACTORS
330
2A
102
}
330
2A
100
AcDbProxyObject
 90
      499
 91
      501
 93
      476
310
43519B185D15DA5D1A115919D95CD0140901404333333333333E3BF0000000000000F9010740901411070040501600405405064090741402480A1B50
1001
ACAD
1000
AcDbSavedByObjectVersion
1070
     0
  0
ACAD_PROXY_OBJECT
  5
2D
102
{ACAD_REACTORS
330
2A
102
}
330
2A
100
AcDbProxyObject
 90
      499
 91
      501
 93
      412
310
41D1DBDD5C985D5910240902404333333333333E3BF0000000000000F9010740A411070040501641D405064090741402480A1B50
1001
ACAD
1000
AcDbSavedByObjectVersion
1070
     0
  0
ACAD_PROXY_OBJECT
  5
2E
102
{ACAD_REACTORS
330
2A
102
}
330
2A
100
AcDbProxyObject
 90
      499
 91
      501
 93
      500
310
4411DBDD5C985D5915DA5D1A115919D95CD0340902404333333333333E3BF0000000000000F9010740901411070040501600405405064090741402480A1B50
1001
ACAD
1000
AcDbSavedByObjectVersion
1070
     0
  0
ACAD_PROXY_OBJECT
  5
38
102
{ACAD_REACTORS
330
2A
102
}
330
2A
100
AcDbProxyObject
 90
      499
 91
      501
 93
      444
310
42D31A5B995C185D1D195C9B90E409028333333333333E3BF0000000000000FB010790141107004050750841D405064090741402483A0350
1001
ACAD
1000
AcDbSavedByObjectVersion
1070
     0
  0
ACAD_PROXY_OBJECT
  5
33
102
{ACAD_REACTORS
330
2A
102
}
330
2A
100
AcDbProxyObject
 90
      499
 91
      501
 93
      420
310
425499585B1A5CDD1A58D08409028333333333333E3BF0000000000000FB01079019070040501508421405064090741402480A1B40
1001
ACAD
1000
AcDbSavedByObjectVersion
1070
     0
  0
ACAD_PROXY_OBJECT
  5
37
102
{ACAD_REACTORS
330
2A
102
}
330
2A
100
AcDbProxyObject
 90
      499
 91
      501
 93
      412
310
41D51A1A58DAD95B90D409028333333333333E3BF0000000000000FB010790141107004050150C41D405064090741402480A0350
1001
ACAD
1000
AcDbSavedByObjectVersion
1070
     0
  0
XRECORD
  5
CA
102
{ACAD_REACTORS
330
C1
102
}
330
C1
100
AcDbXrecord
 90
        0
  0
XRECORD
  5
E0
102
{ACAD_REACTORS
330
C1
102
}
330
C1
100
AcDbXrecord
1000
DSTYLE
1002
{
1070
   340
340
11
1002
}
  0
XRECORD
  5
CB
102
{ACAD_REACTORS
330
C1
102
}
330
C1
100
AcDbXrecord
  1
{1DFD64D7-02CD-456C-8726-F04536954FF3}
  0
XRECORD
  5
C4
102
{ACAD_REACTORS
330
C1
102
}
330
C1
100
AcDbXrecord
  1

  0
XRECORD
  5
C9
102
{ACAD_REACTORS
330
C1
102
}
330
C1
100
AcDbXrecord
 90
        4
  0
XRECORD
  5
C6
102
{ACAD_REACTORS
330
C1
102
}
330
C1
100
AcDbXrecord
340
1A
  0
XRECORD
  5
C8
102
{ACAD_REACTORS
330
C1
102
}
330
C1
100
AcDbXrecord
 90
    10781
  0
XRECORD
  5
C7
102
{ACAD_REACTORS
330
C1
102
}
330
C1
100
AcDbXrecord
340
19
  0
XRECORD
  5
CD
102
{ACAD_REACTORS
330
C1
102
}
330
C1
100
AcDbXrecord
 40
0.0
  0
XRECORD
  5
D0
102
{ACAD_REACTORS
330
C1
102
}
330
C1
100
AcDbXrecord
340
0
  0
XRECORD
  5
D6
102
{ACAD_REACTORS
330
C1
102
}
330
C1
100
AcDbXrecord
 10
0.0
 20
0.0
 30
0.0
  0
XRECORD
  5
D2
102
{ACAD_REACTORS
330
C1
102
}
330
C1
100
AcDbXrecord
 10
0.0
 20
0.0
 30
0.0
  0
XRECORD
  5
D5
102
{ACAD_REACTORS
330
C1
102
}
330
C1
100
AcDbXrecord
 10
0.0
 20
0.0
 30
0.0
  0
XRECORD
  5
D3
102
{ACAD_REACTORS
330
C1
102
}
330
C1
100
AcDbXrecord
 10
0.0
 20
0.0
 30
0.0
  0
XRECORD
  5
D4
102
{ACAD_REACTORS
330
C1
102
}
330
C1
100
AcDbXrecord
 10
0.0
 20
0.0
 30
0.0
  0
XRECORD
  5
D1
102
{ACAD_REACTORS
330
C1
102
}
330
C1
100
AcDbXrecord
 10
0.0
 20
0.0
 30
0.0
  0
XRECORD
  5
CE
102
{ACAD_REACTORS
330
C1
102
}
330
C1
100
AcDbXrecord
340
0
  0
XRECORD
  5
CF
102
{ACAD_REACTORS
330
C1
102
}
330
C1
100
AcDbXrecord
 70
     0
  0
XRECORD
  5
C5
102
{ACAD_REACTORS
330
C1
102
}
330
C1
100
AcDbXrecord
  1

  0
XRECORD
  5
C2
102
{ACAD_REACTORS
330
C1
102
}
330
C1
100
AcDbXrecord
 90
        1
  0
XRECORD
  5
C3
102
{ACAD_REACTORS
330
C1
102
}
330
C1
100
AcDbXrecord
 90
       70
  0
XRECORD
  5
D9
102
{ACAD_REACTORS
330
C1
102
}
330
C1
100
AcDbXrecord
340
0
  0
XRECORD
  5
DF
102
{ACAD_REACTORS
330
C1
102
}
330
C1
100
AcDbXrecord
 10
0.0
 20
0.0
 30
0.0
  0
XRECORD
  5
DB
102
{ACAD_REACTORS
330
C1
102
}
330
C1
100
AcDbXrecord
 10
0.0
 20
0.0
 30
0.0
  0
XRECORD
  5
DE
102
{ACAD_REACTORS
330
C1
102
}
330
C1
100
AcDbXrecord
 10
0.0
 20
0.0
 30
0.0
  0
XRECORD
  5
DC
102
{ACAD_REACTORS
330
C1
102
}
330
C1
100
AcDbXrecord
 10
0.0
 20
0.0
 30
0.0
  0
XRECORD
  5
DD
102
{ACAD_REACTORS
330
C1
102
}
330
C1
100
AcDbXrecord
 10
0.0
 20
0.0
 30
0.0
  0
XRECORD
  5
DA
102
{ACAD_REACTORS
330
C1
102
}
330
C1
100
AcDbXrecord
 10
0.0
 20
0.0
 30
0.0
  0
XRECORD
  5
D7
102
{ACAD_REACTORS
330
C1
102
}
330
C1
100
AcDbXrecord
340
0
  0
XRECORD
  5
D8
102
{ACAD_REACTORS
330
C1
102
}
330
C1
100
AcDbXrecord
 70
     0
  0
XRECORD
  5
CC
102
{ACAD_REACTORS
330
C1
102
}
330
C1
100
AcDbXrecord
  1
{FAEB1C32-E019-11D5-929B-00C0DF256EC4}
  0
DICTIONARYVAR
  5
E4
102
{ACAD_REACTORS
330
E1
102
}
330
E1
100
DictionaryVariables
280
     0
  1
2
  0
DICTIONARYVAR
  5
E5
102
{ACAD_REACTORS
330
E1
102
}
330
E1
100
DictionaryVariables
280
     0
  1
1
  0
DICTIONARY
  5
E8
330
3D
100
AcDbDictionary
280
     1
  3
ACAD_XREC_ROUNDTRIP
360
E9
  0
DICTIONARY
  5
E6
330
3C
100
AcDbDictionary
280
     1
  3
ACAD_XREC_ROUNDTRIP
360
E7
  0
DICTIONARY
  5
EA
330
3E
100
AcDbDictionary
280
     1
  3
ACAD_XREC_ROUNDTRIP
360
EB
  0
XRECORD
  5
E9
102
{ACAD_REACTORS
330
E8
102
}
330
E8
100
AcDbXrecord
102
MATERIAL
148
0.0
149
0.0
149
0.0
 93
        0
 94
      127
282
     0
 72
     1
 77
     1
171
     1
175
     1
179
     1
273
     0
  0
XRECORD
  5
E7
102
{ACAD_REACTORS
330
E6
102
}
330
E6
100
AcDbXrecord
102
MATERIAL
148
0.0
149
0.0
149
0.0
 93
        0
 94
      127
282
     0
 72
     1
 77
     1
171
     1
175
     1
179
     1
273
     0
  0
XRECORD
  5
EB
102
{ACAD_REACTORS
330
EA
102
}
330
EA
100
AcDbXrecord
102
MATERIAL
148
0.0
149
0.0
149
0.0
 93
        0
 94
      127
282
     0
 72
     1
 77
     1
171
     1
175
     1
179
     1
273
     0
  0
ENDSEC
  0
EOF
