  0
SECTION
  2
HEADER
  9
$ACADVER
  1
AC1014
  9
$ACADMAINTVER
 70
     9
  9
$DWGCODEPAGE
  3
ANSI_1250
  9
$INSBASE
 10
0.0
 20
0.0
 30
0.0
  9
$EXTMIN
 10
-41.6586
 20
-31.0627
 30
0.0
  9
$EXTMAX
 10
41.6587
 20
31.0626
 30
0.0
  9
$LIMMIN
 10
0.0
 20
0.0
  9
$LIMMAX
 10
12.0
 20
9.0
  9
$ORTHOMODE
 70
     0
  9
$REGENMODE
 70
     1
  9
$FILLMODE
 70
     1
  9
$QTEXTMODE
 70
     0
  9
$MIRRTEXT
 70
     1
  9
$DRAGMODE
 70
     2
  9
$LTSCALE
 40
1.0
  9
$OSMODE
 70
    37
  9
$ATTMODE
 70
     1
  9
$TEXTSIZE
 40
0.2
  9
$TRACEWID
 40
0.05
  9
$TEXTSTYLE
  7
STANDARD
  9
$CLAYER
  8
0
  9
$CELTYPE
  6
BYLAYER
  9
$CECOLOR
 62
   256
  9
$CELTSCALE
 40
1.0
  9
$DELOBJ
 70
     1
  9
$DISPSILH
 70
     0
  9
$DIMSCALE
 40
1.0
  9
$DIMASZ
 40
0.18
  9
$DIMEXO
 40
0.0625
  9
$DIMDLI
 40
0.38
  9
$DIMRND
 40
0.0
  9
$DIMDLE
 40
0.0
  9
$DIMEXE
 40
0.18
  9
$DIMTP
 40
0.0
  9
$DIMTM
 40
0.0
  9
$DIMTXT
 40
0.18
  9
$DIMCEN
 40
0.09
  9
$DIMTSZ
 40
0.0
  9
$DIMTOL
 70
     0
  9
$DIMLIM
 70
     0
  9
$DIMTIH
 70
     1
  9
$DIMTOH
 70
     1
  9
$DIMSE1
 70
     0
  9
$DIMSE2
 70
     0
  9
$DIMTAD
 70
     0
  9
$DIMZIN
 70
     0
  9
$DIMBLK
  1

  9
$DIMASO
 70
     1
  9
$DIMSHO
 70
     1
  9
$DIMPOST
  1

  9
$DIMAPOST
  1

  9
$DIMALT
 70
     0
  9
$DIMALTD
 70
     2
  9
$DIMALTF
 40
25.4
  9
$DIMLFAC
 40
1.0
  9
$DIMTOFL
 70
     0
  9
$DIMTVP
 40
0.0
  9
$DIMTIX
 70
     0
  9
$DIMSOXD
 70
     0
  9
$DIMSAH
 70
     0
  9
$DIMBLK1
  1

  9
$DIMBLK2
  1

  9
$DIMSTYLE
  2
STANDARD
  9
$DIMCLRD
 70
     0
  9
$DIMCLRE
 70
     0
  9
$DIMCLRT
 70
     0
  9
$DIMTFAC
 40
1.0
  9
$DIMGAP
 40
0.09
  9
$DIMJUST
 70
     0
  9
$DIMSD1
 70
     0
  9
$DIMSD2
 70
     0
  9
$DIMTOLJ
 70
     1
  9
$DIMTZIN
 70
     0
  9
$DIMALTZ
 70
     0
  9
$DIMALTTZ
 70
     0
  9
$DIMFIT
 70
     3
  9
$DIMUPT
 70
     0
  9
$DIMUNIT
 70
     2
  9
$DIMDEC
 70
     4
  9
$DIMTDEC
 70
     4
  9
$DIMALTU
 70
     2
  9
$DIMALTTD
 70
     2
  9
$DIMTXSTY
  7
STANDARD
  9
$DIMAUNIT
 70
     0
  9
$LUNITS
 70
     2
  9
$LUPREC
 70
     4
  9
$SKETCHINC
 40
0.1
  9
$FILLETRAD
 40
0.5
  9
$AUNITS
 70
     0
  9
$AUPREC
 70
     0
  9
$MENU
  1
.
  9
$ELEVATION
 40
0.0
  9
$PELEVATION
 40
0.0
  9
$THICKNESS
 40
0.0
  9
$LIMCHECK
 70
     0
  9
$CHAMFERA
 40
0.5
  9
$CHAMFERB
 40
0.5
  9
$CHAMFERC
 40
1.0
  9
$CHAMFERD
 40
0.0
  9
$SKPOLY
 70
     0
  9
$TDCREATE
 40
2456247.441010613
  9
$TDUPDATE
 40
2456247.441010625
  9
$TDINDWG
 40
0.0000000116
  9
$TDUSRTIMER
 40
0.0000000116
  9
$USRTIMER
 70
     1
  9
$ANGBASE
 50
0.0
  9
$ANGDIR
 70
     0
  9
$PDMODE
 70
     0
  9
$PDSIZE
 40
0.0
  9
$PLINEWID
 40
0.0
  9
$COORDS
 70
     1
  9
$SPLFRAME
 70
     0
  9
$SPLINETYPE
 70
     6
  9
$SPLINESEGS
 70
     8
  9
$ATTDIA
 70
     0
  9
$ATTREQ
 70
     1
  9
$HANDLING
 70
     1
  9
$HANDSEED
  5
11D
  9
$SURFTAB1
 70
     6
  9
$SURFTAB2
 70
     6
  9
$SURFTYPE
 70
     6
  9
$SURFU
 70
     6
  9
$SURFV
 70
     6
  9
$UCSNAME
  2

  9
$UCSORG
 10
0.0
 20
0.0
 30
0.0
  9
$UCSXDIR
 10
1.0
 20
0.0
 30
0.0
  9
$UCSYDIR
 10
0.0
 20
1.0
 30
0.0
  9
$PUCSNAME
  2

  9
$PUCSORG
 10
0.0
 20
0.0
 30
0.0
  9
$PUCSXDIR
 10
1.0
 20
0.0
 30
0.0
  9
$PUCSYDIR
 10
0.0
 20
1.0
 30
0.0
  9
$USERI1
 70
     0
  9
$USERI2
 70
     0
  9
$USERI3
 70
     0
  9
$USERI4
 70
     0
  9
$USERI5
 70
     0
  9
$USERR1
 40
0.0
  9
$USERR2
 40
0.0
  9
$USERR3
 40
0.0
  9
$USERR4
 40
0.0
  9
$USERR5
 40
0.0
  9
$WORLDVIEW
 70
     1
  9
$SHADEDGE
 70
     3
  9
$SHADEDIF
 70
    70
  9
$TILEMODE
 70
     1
  9
$MAXACTVP
 70
    64
  9
$PINSBASE
 10
0.0
 20
0.0
 30
0.0
  9
$PLIMCHECK
 70
     0
  9
$PEXTMIN
 10
1.000000000000000E+20
 20
1.000000000000000E+20
 30
1.000000000000000E+20
  9
$PEXTMAX
 10
-1.000000000000000E+20
 20
-1.000000000000000E+20
 30
-1.000000000000000E+20
  9
$PLIMMIN
 10
0.0
 20
0.0
  9
$PLIMMAX
 10
12.0
 20
9.0
  9
$UNITMODE
 70
     0
  9
$VISRETAIN
 70
     1
  9
$PLINEGEN
 70
     0
  9
$PSLTSCALE
 70
     1
  9
$TREEDEPTH
 70
  3020
  9
$PICKSTYLE
 70
     1
  9
$CMLSTYLE
  2
STANDARD
  9
$CMLJUST
 70
     0
  9
$CMLSCALE
 40
1.0
  9
$PROXYGRAPHICS
 70
     1
  9
$MEASUREMENT
 70
     0
  0
ENDSEC
  0
SECTION
  2
CLASSES
  0
CLASS
  1
ACDBDICTIONARYWDFLT
  2
AcDbDictionaryWithDefault
  3
ObjectDBX Classes
 90
        0
280
     0
281
     0
  0
CLASS
  1
VISUALSTYLE
  2
AcDbVisualStyle
  3
ObjectDBX Classes
 90
     4095
280
     0
281
     0
  0
CLASS
  1
MATERIAL
  2
AcDbMaterial
  3
ObjectDBX Classes
 90
     1153
280
     0
281
     0
  0
CLASS
  1
DICTIONARYVAR
  2
AcDbDictionaryVar
  3
ObjectDBX Classes
 90
        0
280
     0
281
     0
  0
CLASS
  1
XRECORD
  2
AcDbXrecord
  3
AutoCAD 2000
 90
        0
280
     0
281
     0
  0
CLASS
  1
LWPOLYLINE
  2
AcDbPolyline
  3
AutoCAD 2000
 90
        0
280
     0
281
     1
  0
CLASS
  1
HATCH
  2
AcDbHatch
  3
AutoCAD 2000
 90
        0
280
     0
281
     1
  0
CLASS
  1
ACDBPLACEHOLDER
  2
AcDbPlaceHolder
  3
ObjectDBX Classes
 90
        0
280
     0
281
     0
  0
CLASS
  1
LAYOUT
  2
AcDbLayout
  3
ObjectDBX Classes
 90
        0
280
     0
281
     0
  0
ENDSEC
  0
SECTION
  2
TABLES
  0
TABLE
  2
VPORT
  5
8
330
0
100
AcDbSymbolTable
 70
     1
  0
VPORT
  5
29
330
8
100
AcDbSymbolTableRecord
100
AcDbViewportTableRecord
  2
*ACTIVE
 70
     0
 10
0.0
 20
0.0
 11
1.0
 21
1.0
 12
10.42990654205607
 22
4.5
 13
0.0
 23
0.0
 14
0.5
 24
0.5
 15
0.5
 25
0.5
 16
0.0
 26
0.0
 36
1.0
 17
0.0
 27
0.0
 37
0.0
 40
9.0
 41
1.972972972850329
 42
50.0
 43
0.0
 44
0.0
 50
0.0
 51
0.0
 71
     0
 72
   100
 73
     1
 74
     3
 75
     0
 76
     0
 77
     0
 78
     0
  0
ENDTAB
  0
TABLE
  2
LTYPE
  5
5
330
0
100
AcDbSymbolTable
 70
     3
  0
LTYPE
  5
14
330
5
100
AcDbSymbolTableRecord
100
AcDbLinetypeTableRecord
  2
BYBLOCK
 70
     0
  3

 72
    65
 73
     0
 40
0.0
  0
LTYPE
  5
15
330
5
100
AcDbSymbolTableRecord
100
AcDbLinetypeTableRecord
  2
BYLAYER
 70
     0
  3

 72
    65
 73
     0
 40
0.0
  0
LTYPE
  5
16
330
5
100
AcDbSymbolTableRecord
100
AcDbLinetypeTableRecord
  2
CONTINUOUS
 70
     0
  3
Solid line
 72
    65
 73
     0
 40
0.0
  0
LTYPE
  5
E4
330
5
100
AcDbSymbolTableRecord
100
AcDbLinetypeTableRecord
  2
NEW_LINE1
 70
     0
  3

 72
    65
 73
     4
 40
1.2
 49
0.5
 74
     4
 75
     0
340
0
 46
1.0
 50
0.0
 44
0.0
 45
0.0
 49
-0.3
 74
     4
 75
     0
340
0
 46
1.0
 50
0.0
 44
0.0
 45
0.0
 49
0.1
 74
     4
 75
     0
340
0
 46
1.0
 50
0.0
 44
0.0
 45
0.0
 49
-0.3
 74
     4
 75
     0
340
0
 46
1.0
 50
0.0
 44
0.0
 45
0.0
  0
LTYPE
  5
E6
330
5
100
AcDbSymbolTableRecord
100
AcDbLinetypeTableRecord
  2
NEW_LINE2
 70
     0
  3

 72
    65
 73
     4
 40
1.2
 49
0.5
 74
     4
 75
     0
340
0
 46
1.0
 50
0.0
 44
0.0
 45
0.0
 49
-0.3
 74
     4
 75
     0
340
0
 46
1.0
 50
0.0
 44
0.0
 45
0.0
 49
0.1
 74
     4
 75
     0
340
0
 46
1.0
 50
0.0
 44
0.0
 45
0.0
 49
-0.3
 74
     4
 75
     0
340
0
 46
1.0
 50
0.0
 44
0.0
 45
0.0
  0
ENDTAB
  0
TABLE
  2
LAYER
  5
2
330
0
100
AcDbSymbolTable
 70
     2
  0
LAYER
  5
10
330
2
100
AcDbSymbolTableRecord
100
AcDbLayerTableRecord
  2
0
 70
     0
 62
     7
  6
CONTINUOUS
  0
LAYER
  5
40
330
2
100
AcDbSymbolTableRecord
100
AcDbLayerTableRecord
  2
ROUND
 70
     0
 62
     7
  6
CONTINUOUS
  0
ENDTAB
  0
TABLE
  2
STYLE
  5
3
330
0
100
AcDbSymbolTable
 70
     1
  0
STYLE
  5
11
330
3
100
AcDbSymbolTableRecord
100
AcDbTextStyleTableRecord
  2
STANDARD
 70
     0
 40
0.0
 41
1.0
 50
0.0
 71
     0
 42
0.2
  3
txt
  4

  0
ENDTAB
  0
TABLE
  2
VIEW
  5
6
330
0
100
AcDbSymbolTable
 70
     0
  0
ENDTAB
  0
TABLE
  2
UCS
  5
7
330
0
100
AcDbSymbolTable
 70
     0
  0
ENDTAB
  0
TABLE
  2
APPID
  5
9
330
0
100
AcDbSymbolTable
 70
     2
  0
APPID
  5
12
330
9
100
AcDbSymbolTableRecord
100
AcDbRegAppTableRecord
  2
ACAD
 70
     0
  0
APPID
  5
3F
330
9
100
AcDbSymbolTableRecord
100
AcDbRegAppTableRecord
  2
ODA
 70
     0
  0
ENDTAB
  0
TABLE
  2
DIMSTYLE
  5
A
330
0
100
AcDbSymbolTable
 70
     1
  0
DIMSTYLE
105
27
330
A
100
AcDbSymbolTableRecord
100
AcDbDimStyleTableRecord
  2
STANDARD
 70
     0
  3

  4

  5

  6

  7

 40
1.0
 41
0.18
 42
0.0625
 43
0.38
 44
0.18
 45
0.0
 46
0.0
 47
0.0
 48
0.0
140
0.18
141
0.09
142
0.0
143
25.4
144
1.0
145
0.0
146
1.0
147
0.09
 71
     0
 72
     0
 73
     1
 74
     1
 75
     0
 76
     0
 77
     0
 78
     0
170
     0
171
     2
172
     0
173
     0
174
     0
175
     0
176
     0
177
     0
178
     0
270
     2
271
     4
272
     4
273
     2
274
     2
340
11
275
     0
280
     0
281
     0
282
     0
283
     1
284
     0
285
     0
286
     0
287
     3
288
     0
  0
ENDTAB
  0
TABLE
  2
BLOCK_RECORD
  5
1
330
0
100
AcDbSymbolTable
 70
     1
  0
BLOCK_RECORD
  5
1F
330
1
100
AcDbSymbolTableRecord
100
AcDbBlockTableRecord
  2
*MODEL_SPACE
  0
BLOCK_RECORD
  5
1B
330
1
100
AcDbSymbolTableRecord
100
AcDbBlockTableRecord
  2
*PAPER_SPACE
  0
ENDTAB
  0
ENDSEC
  0
SECTION
  2
BLOCKS
  0
BLOCK
  5
20
330
1F
100
AcDbEntity
  8
0
100
AcDbBlockBegin
  2
*MODEL_SPACE
 70
     0
 10
0.0
 20
0.0
 30
0.0
  3
*MODEL_SPACE
  1

  0
ENDBLK
  5
21
330
1F
100
AcDbEntity
  8
0
100
AcDbBlockEnd
  0
BLOCK
  5
1C
330
1B
100
AcDbEntity
 67
     1
  8
0
100
AcDbBlockBegin
  2
*PAPER_SPACE
 70
     0
 10
0.0
 20
0.0
 30
0.0
  3
*PAPER_SPACE
  1

  0
ENDBLK
  5
1D
330
1B
100
AcDbEntity
 67
     1
  8
0
100
AcDbBlockEnd
  0
ENDSEC
  0
SECTION
  2
ENTITIES
  0
SPLINE
  5
41
330
1F
100
AcDbEntity
  8
ROUND
 62
   250
100
AcDbSpline
210
0.0
220
0.0
230
1.0
 70
    11
 71
     3
 72
   116
 73
   112
 74
     0
 42
0.0000000001
 43
0.0000000001
 40
0.0
 40
0.0
 40
0.0
 40
0.0
 40
0.0344827586206897
 40
0.0344827586206897
 40
0.0344827586206897
 40
0.0344827586206897
 40
0.0689655172413793
 40
0.0689655172413793
 40
0.0689655172413793
 40
0.0689655172413793
 40
0.103448275862069
 40
0.103448275862069
 40
0.103448275862069
 40
0.103448275862069
 40
0.1379310344827586
 40
0.1379310344827586
 40
0.1379310344827586
 40
0.1379310344827586
 40
0.1724137931034483
 40
0.1724137931034483
 40
0.1724137931034483
 40
0.1724137931034483
 40
0.2068965517241379
 40
0.2068965517241379
 40
0.2068965517241379
 40
0.2068965517241379
 40
0.2413793103448276
 40
0.2413793103448276
 40
0.2413793103448276
 40
0.2413793103448276
 40
0.2758620689655172
 40
0.2758620689655172
 40
0.2758620689655172
 40
0.2758620689655172
 40
0.3103448275862069
 40
0.3103448275862069
 40
0.3103448275862069
 40
0.3103448275862069
 40
0.3448275862068966
 40
0.3448275862068966
 40
0.3448275862068966
 40
0.3448275862068966
 40
0.3793103448275862
 40
0.3793103448275862
 40
0.3793103448275862
 40
0.3793103448275862
 40
0.4137931034482759
 40
0.4137931034482759
 40
0.4137931034482759
 40
0.4137931034482759
 40
0.4482758620689655
 40
0.4482758620689655
 40
0.4482758620689655
 40
0.4482758620689655
 40
0.4827586206896552
 40
0.4827586206896552
 40
0.4827586206896552
 40
0.4827586206896552
 40
0.5172413793103449
 40
0.5172413793103449
 40
0.5172413793103449
 40
0.5172413793103449
 40
0.5517241379310345
 40
0.5517241379310345
 40
0.5517241379310345
 40
0.5517241379310345
 40
0.5862068965517241
 40
0.5862068965517241
 40
0.5862068965517241
 40
0.5862068965517241
 40
0.6206896551724138
 40
0.6206896551724138
 40
0.6206896551724138
 40
0.6206896551724138
 40
0.6551724137931034
 40
0.6551724137931034
 40
0.6551724137931034
 40
0.6551724137931034
 40
0.6896551724137931
 40
0.6896551724137931
 40
0.6896551724137931
 40
0.6896551724137931
 40
0.7241379310344828
 40
0.7241379310344828
 40
0.7241379310344828
 40
0.7241379310344828
 40
0.7586206896551724
 40
0.7586206896551724
 40
0.7586206896551724
 40
0.7586206896551724
 40
0.7931034482758621
 40
0.7931034482758621
 40
0.7931034482758621
 40
0.7931034482758621
 40
0.8275862068965517
 40
0.8275862068965517
 40
0.8275862068965517
 40
0.8275862068965517
 40
0.8620689655172413
 40
0.8620689655172413
 40
0.8620689655172413
 40
0.8620689655172413
 40
0.896551724137931
 40
0.896551724137931
 40
0.896551724137931
 40
0.896551724137931
 40
0.9310344827586207
 40
0.9310344827586207
 40
0.9310344827586207
 40
0.9310344827586207
 40
1.0
 40
1.0
 40
1.0
 40
1.0
 10
2.9005
 20
29.0339
 30
0.0
 10
2.9005
 20
29.0339
 30
0.0
 10
2.9005
 20
30.4972
 30
0.0
 10
2.9005
 20
30.4972
 30
0.0
 10
2.9005
 20
30.4972
 30
0.0
 10
2.9005
 20
30.4972
 30
0.0
 10
3.122
 20
30.4972
 30
0.0
 10
3.122
 20
30.4972
 30
0.0
 10
3.122
 20
30.4972
 30
0.0
 10
3.122
 20
30.4972
 30
0.0
 10
3.122
 20
30.2921
 30
0.0
 10
3.122
 20
30.2921
 30
0.0
 10
3.122
 20
30.2921
 30
0.0
 10
3.1681
 20
30.3636
 30
0.0
 10
3.2293
 20
30.4215
 30
0.0
 10
3.3055
 20
30.4648
 30
0.0
 10
3.3055
 20
30.4648
 30
0.0
 10
3.3817
 20
30.5085
 30
0.0
 10
3.4687
 20
30.5306
 30
0.0
 10
3.566
 20
30.5306
 30
0.0
 10
3.566
 20
30.5306
 30
0.0
 10
3.6742
 20
30.5306
 30
0.0
 10
3.7631
 20
30.508
 30
0.0
 10
3.8323
 20
30.4629
 30
0.0
 10
3.8323
 20
30.4629
 30
0.0
 10
3.9019
 20
30.4177
 30
0.0
 10
3.9508
 20
30.3552
 30
0.0
 10
3.979
 20
30.2743
 30
0.0
 10
3.979
 20
30.2743
 30
0.0
 10
4.0952
 20
30.445
 30
0.0
 10
4.2457
 20
30.5306
 30
0.0
 10
4.431
 20
30.5306
 30
0.0
 10
4.431
 20
30.5306
 30
0.0
 10
4.5764
 20
30.5306
 30
0.0
 10
4.6879
 20
30.4902
 30
0.0
 10
4.7659
 20
30.4097
 30
0.0
 10
4.7659
 20
30.4097
 30
0.0
 10
4.844
 20
30.3293
 30
0.0
 10
4.8831
 20
30.2056
 30
0.0
 10
4.8831
 20
30.0386
 30
0.0
 10
4.8831
 20
30.0386
 30
0.0
 10
4.8831
 20
30.0386
 30
0.0
 10
4.8831
 20
29.0339
 30
0.0
 10
4.8831
 20
29.0339
 30
0.0
 10
4.8831
 20
29.0339
 30
0.0
 10
4.8831
 20
29.0339
 30
0.0
 10
4.6366
 20
29.0339
 30
0.0
 10
4.6366
 20
29.0339
 30
0.0
 10
4.6366
 20
29.0339
 30
0.0
 10
4.6366
 20
29.0339
 30
0.0
 10
4.6366
 20
29.9558
 30
0.0
 10
4.6366
 20
29.9558
 30
0.0
 10
4.6366
 20
29.9558
 30
0.0
 10
4.6366
 20
30.0551
 30
0.0
 10
4.6286
 20
30.1266
 30
0.0
 10
4.6126
 20
30.1703
 30
0.0
 10
4.6126
 20
30.1703
 30
0.0
 10
4.5961
 20
30.2136
 30
0.0
 10
4.567
 20
30.2489
 30
0.0
 10
4.5251
 20
30.2757
 30
0.0
 10
4.5251
 20
30.2757
 30
0.0
 10
4.4828
 20
30.302
 30
0.0
 10
4.4329
 20
30.3156
 30
0.0
 10
4.376
 20
30.3156
 30
0.0
 10
4.376
 20
30.3156
 30
0.0
 10
4.273
 20
30.3156
 30
0.0
 10
4.1879
 20
30.2813
 30
0.0
 10
4.1197
 20
30.2126
 30
0.0
 10
4.1197
 20
30.2126
 30
0.0
 10
4.0519
 20
30.1444
 30
0.0
 10
4.0176
 20
30.0348
 30
0.0
 10
4.0176
 20
29.8843
 30
0.0
 10
4.0176
 20
29.8843
 30
0.0
 10
4.0176
 20
29.8843
 30
0.0
 10
4.0176
 20
29.0339
 30
0.0
 10
4.0176
 20
29.0339
 30
0.0
 10
4.0176
 20
29.0339
 30
0.0
 10
4.0176
 20
29.0339
 30
0.0
 10
3.7697
 20
29.0339
 30
0.0
 10
3.7697
 20
29.0339
 30
0.0
 10
3.7697
 20
29.0339
 30
0.0
 10
3.7697
 20
29.0339
 30
0.0
 10
3.7697
 20
29.9845
 30
0.0
 10
3.7697
 20
29.9845
 30
0.0
 10
3.7697
 20
29.9845
 30
0.0
 10
3.7697
 20
30.095
 30
0.0
 10
3.7495
 20
30.1778
 30
0.0
 10
3.709
 20
30.2329
 30
0.0
 10
3.709
 20
30.2329
 30
0.0
 10
3.6686
 20
30.2879
 30
0.0
 10
3.6027
 20
30.3156
 30
0.0
 10
3.5105
 20
30.3156
 30
0.0
 10
3.5105
 20
30.3156
 30
0.0
 10
3.4409
 20
30.3156
 30
0.0
 10
3.3765
 20
30.2973
 30
0.0
 10
3.3172
 20
30.2601
 30
0.0
 10
3.3172
 20
30.2601
 30
0.0
 10
3.2579
 20
30.2235
 30
0.0
 10
3.2147
 20
30.1698
 30
0.0
 10
3.1883
 20
30.0993
 30
0.0
 10
3.1883
 20
30.0993
 30
0.0
 10
3.1615
 20
30.0283
 30
0.0
 10
3.1483
 20
29.9262
 30
0.0
 10
3.1483
 20
29.7931
 30
0.0
 10
3.1483
 20
29.7931
 30
0.0
 10
3.1483
 20
29.7931
 30
0.0
 10
3.1483
 20
29.0339
 30
0.0
 10
3.1483
 20
29.0339
 30
0.0
 10
3.1483
 20
29.0339
 30
0.0
 10
3.1483
 20
29.0339
 30
0.0
 10
2.9005
 20
29.0339
 30
0.0
 10
2.9005
 20
29.0339
 30
0.0
  0
SPLINE
  5
42
330
1F
100
AcDbEntity
  8
ROUND
 62
   250
100
AcDbSpline
210
0.0
220
0.0
230
1.0
 70
    11
 71
     3
 72
   112
 73
   108
 74
     0
 42
0.0000000001
 43
0.0000000001
 40
0.0
 40
0.0
 40
0.0
 40
0.0
 40
0.0357142857142857
 40
0.0357142857142857
 40
0.0357142857142857
 40
0.0357142857142857
 40
0.0714285714285714
 40
0.0714285714285714
 40
0.0714285714285714
 40
0.0714285714285714
 40
0.1071428571428571
 40
0.1071428571428571
 40
0.1071428571428571
 40
0.1071428571428571
 40
0.1428571428571428
 40
0.1428571428571428
 40
0.1428571428571428
 40
0.1428571428571428
 40
0.1785714285714286
 40
0.1785714285714286
 40
0.1785714285714286
 40
0.1785714285714286
 40
0.2142857142857143
 40
0.2142857142857143
 40
0.2142857142857143
 40
0.2142857142857143
 40
0.25
 40
0.25
 40
0.25
 40
0.25
 40
0.2857142857142857
 40
0.2857142857142857
 40
0.2857142857142857
 40
0.2857142857142857
 40
0.3214285714285715
 40
0.3214285714285715
 40
0.3214285714285715
 40
0.3214285714285715
 40
0.3571428571428572
 40
0.3571428571428572
 40
0.3571428571428572
 40
0.3571428571428572
 40
0.3928571428571428
 40
0.3928571428571428
 40
0.3928571428571428
 40
0.3928571428571428
 40
0.4285714285714285
 40
0.4285714285714285
 40
0.4285714285714285
 40
0.4285714285714285
 40
0.4642857142857143
 40
0.4642857142857143
 40
0.4642857142857143
 40
0.4642857142857143
 40
0.5
 40
0.5
 40
0.5
 40
0.5
 40
0.5357142857142857
 40
0.5357142857142857
 40
0.5357142857142857
 40
0.5357142857142857
 40
0.5714285714285714
 40
0.5714285714285714
 40
0.5714285714285714
 40
0.5714285714285714
 40
0.6071428571428571
 40
0.6071428571428571
 40
0.6071428571428571
 40
0.6071428571428571
 40
0.6428571428571429
 40
0.6428571428571429
 40
0.6428571428571429
 40
0.6428571428571429
 40
0.6785714285714286
 40
0.6785714285714286
 40
0.6785714285714286
 40
0.6785714285714286
 40
0.7142857142857143
 40
0.7142857142857143
 40
0.7142857142857143
 40
0.7142857142857143
 40
0.75
 40
0.75
 40
0.75
 40
0.75
 40
0.7857142857142857
 40
0.7857142857142857
 40
0.7857142857142857
 40
0.7857142857142857
 40
0.8214285714285714
 40
0.8214285714285714
 40
0.8214285714285714
 40
0.8214285714285714
 40
0.8571428571428571
 40
0.8571428571428571
 40
0.8571428571428571
 40
0.8571428571428571
 40
0.8928571428571429
 40
0.8928571428571429
 40
0.8928571428571429
 40
0.8928571428571429
 40
0.9285714285714286
 40
0.9285714285714286
 40
0.9285714285714286
 40
0.9285714285714286
 40
1.0
 40
1.0
 40
1.0
 40
1.0
 10
6.2062
 20
29.2145
 30
0.0
 10
6.114
 20
29.1364
 30
0.0
 10
6.0256
 20
29.0814
 30
0.0
 10
5.9409
 20
29.049
 30
0.0
 10
5.9409
 20
29.049
 30
0.0
 10
5.8558
 20
29.017
 30
0.0
 10
5.7645
 20
29.001
 30
0.0
 10
5.6672
 20
29.001
 30
0.0
 10
5.6672
 20
29.001
 30
0.0
 10
5.5063
 20
29.001
 30
0.0
 10
5.3831
 20
29.04
 30
0.0
 10
5.2965
 20
29.1186
 30
0.0
 10
5.2965
 20
29.1186
 30
0.0
 10
5.2104
 20
29.1971
 30
0.0
 10
5.1672
 20
29.2978
 30
0.0
 10
5.1672
 20
29.4196
 30
0.0
 10
5.1672
 20
29.4196
 30
0.0
 10
5.1672
 20
29.4916
 30
0.0
 10
5.1832
 20
29.5569
 30
0.0
 10
5.2161
 20
29.6162
 30
0.0
 10
5.2161
 20
29.6162
 30
0.0
 10
5.2485
 20
29.6755
 30
0.0
 10
5.2913
 20
29.723
 30
0.0
 10
5.344
 20
29.7587
 30
0.0
 10
5.344
 20
29.7587
 30
0.0
 10
5.3972
 20
29.7945
 30
0.0
 10
5.4564
 20
29.8218
 30
0.0
 10
5.5228
 20
29.8401
 30
0.0
 10
5.5228
 20
29.8401
 30
0.0
 10
5.5712
 20
29.8528
 30
0.0
 10
5.6446
 20
29.8655
 30
0.0
 10
5.7429
 20
29.8773
 30
0.0
 10
5.7429
 20
29.8773
 30
0.0
 10
5.9433
 20
29.9013
 30
0.0
 10
6.091
 20
29.9295
 30
0.0
 10
6.1855
 20
29.9629
 30
0.0
 10
6.1855
 20
29.9629
 30
0.0
 10
6.1865
 20
29.9967
 30
0.0
 10
6.1869
 20
30.0184
 30
0.0
 10
6.1869
 20
30.0273
 30
0.0
 10
6.1869
 20
30.0273
 30
0.0
 10
6.1869
 20
30.1284
 30
0.0
 10
6.1634
 20
30.1999
 30
0.0
 10
6.1164
 20
30.2409
 30
0.0
 10
6.1164
 20
30.2409
 30
0.0
 10
6.0533
 20
30.2973
 30
0.0
 10
5.9588
 20
30.3251
 30
0.0
 10
5.8341
 20
30.3251
 30
0.0
 10
5.8341
 20
30.3251
 30
0.0
 10
5.7175
 20
30.3251
 30
0.0
 10
5.6314
 20
30.3048
 30
0.0
 10
5.5754
 20
30.2639
 30
0.0
 10
5.5754
 20
30.2639
 30
0.0
 10
5.5199
 20
30.223
 30
0.0
 10
5.479
 20
30.1506
 30
0.0
 10
5.4522
 20
30.0466
 30
0.0
 10
5.4522
 20
30.0466
 30
0.0
 10
5.4522
 20
30.0466
 30
0.0
 10
5.21
 20
30.08
 30
0.0
 10
5.21
 20
30.08
 30
0.0
 10
5.21
 20
30.08
 30
0.0
 10
5.2321
 20
30.1835
 30
0.0
 10
5.2683
 20
30.2677
 30
0.0
 10
5.3186
 20
30.3312
 30
0.0
 10
5.3186
 20
30.3312
 30
0.0
 10
5.369
 20
30.3951
 30
0.0
 10
5.4423
 20
30.4445
 30
0.0
 10
5.5378
 20
30.4789
 30
0.0
 10
5.5378
 20
30.4789
 30
0.0
 10
5.6333
 20
30.5132
 30
0.0
 10
5.7438
 20
30.5306
 30
0.0
 10
5.8699
 20
30.5306
 30
0.0
 10
5.8699
 20
30.5306
 30
0.0
 10
5.995
 20
30.5306
 30
0.0
 10
6.0961
 20
30.5156
 30
0.0
 10
6.1742
 20
30.4864
 30
0.0
 10
6.1742
 20
30.4864
 30
0.0
 10
6.2523
 20
30.4568
 30
0.0
 10
6.3097
 20
30.4201
 30
0.0
 10
6.3468
 20
30.3754
 30
0.0
 10
6.3468
 20
30.3754
 30
0.0
 10
6.3835
 20
30.3307
 30
0.0
 10
6.4089
 20
30.2747
 30
0.0
 10
6.424
 20
30.2065
 30
0.0
 10
6.424
 20
30.2065
 30
0.0
 10
6.432
 20
30.1642
 30
0.0
 10
6.4362
 20
30.088
 30
0.0
 10
6.4362
 20
29.9779
 30
0.0
 10
6.4362
 20
29.9779
 30
0.0
 10
6.4362
 20
29.9779
 30
0.0
 10
6.4362
 20
29.6473
 30
0.0
 10
6.4362
 20
29.6473
 30
0.0
 10
6.4362
 20
29.6473
 30
0.0
 10
6.4362
 20
29.4163
 30
0.0
 10
6.4414
 20
29.2705
 30
0.0
 10
6.4522
 20
29.2098
 30
0.0
 10
6.4522
 20
29.2098
 30
0.0
 10
6.4626
 20
29.1487
 30
0.0
 10
6.4837
 20
29.0899
 30
0.0
 10
6.5148
 20
29.0339
 30
0.0
 10
6.5148
 20
29.0339
 30
0.0
 10
6.5148
 20
29.0339
 30
0.0
 10
6.2556
 20
29.0339
 30
0.0
 10
6.2556
 20
29.0339
 30
0.0
 10
6.2556
 20
29.0339
 30
0.0
 10
6.2302
 20
29.0852
 30
0.0
 10
6.2133
 20
29.1454
 30
0.0
 10
6.2062
 20
29.2145
 30
0.0
  0
SPLINE
  5
43
330
1F
100
AcDbEntity
  8
ROUND
 62
   250
100
AcDbSpline
210
0.0
220
0.0
230
1.0
 70
    11
 71
     3
 72
    44
 73
    40
 74
     0
 42
0.0000000001
 43
0.0000000001
 40
0.0
 40
0.0
 40
0.0
 40
0.0
 40
0.0909090909090909
 40
0.0909090909090909
 40
0.0909090909090909
 40
0.0909090909090909
 40
0.1818181818181818
 40
0.1818181818181818
 40
0.1818181818181818
 40
0.1818181818181818
 40
0.2727272727272727
 40
0.2727272727272727
 40
0.2727272727272727
 40
0.2727272727272727
 40
0.3636363636363636
 40
0.3636363636363636
 40
0.3636363636363636
 40
0.3636363636363636
 40
0.4545454545454545
 40
0.4545454545454545
 40
0.4545454545454545
 40
0.4545454545454545
 40
0.5454545454545454
 40
0.5454545454545454
 40
0.5454545454545454
 40
0.5454545454545454
 40
0.6363636363636364
 40
0.6363636363636364
 40
0.6363636363636364
 40
0.6363636363636364
 40
0.7272727272727273
 40
0.7272727272727273
 40
0.7272727272727273
 40
0.7272727272727273
 40
0.8181818181818182
 40
0.8181818181818182
 40
0.8181818181818182
 40
0.8181818181818182
 40
1.0
 40
1.0
 40
1.0
 40
1.0
 10
6.1855
 20
29.7686
 30
0.0
 10
6.0952
 20
29.7315
 30
0.0
 10
5.9602
 20
29.7004
 30
0.0
 10
5.7805
 20
29.6745
 30
0.0
 10
5.7805
 20
29.6745
 30
0.0
 10
5.6785
 20
29.66
 30
0.0
 10
5.606
 20
29.6435
 30
0.0
 10
5.5642
 20
29.6252
 30
0.0
 10
5.5642
 20
29.6252
 30
0.0
 10
5.5218
 20
29.6068
 30
0.0
 10
5.4889
 20
29.58
 30
0.0
 10
5.4663
 20
29.5442
 30
0.0
 10
5.4663
 20
29.5442
 30
0.0
 10
5.4433
 20
29.509
 30
0.0
 10
5.4315
 20
29.4699
 30
0.0
 10
5.4315
 20
29.4267
 30
0.0
 10
5.4315
 20
29.4267
 30
0.0
 10
5.4315
 20
29.3603
 30
0.0
 10
5.4569
 20
29.3053
 30
0.0
 10
5.5068
 20
29.2611
 30
0.0
 10
5.5068
 20
29.2611
 30
0.0
 10
5.5566
 20
29.2173
 30
0.0
 10
5.63
 20
29.1952
 30
0.0
 10
5.7264
 20
29.1952
 30
0.0
 10
5.7264
 20
29.1952
 30
0.0
 10
5.8219
 20
29.1952
 30
0.0
 10
5.9071
 20
29.2159
 30
0.0
 10
5.9814
 20
29.2578
 30
0.0
 10
5.9814
 20
29.2578
 30
0.0
 10
6.0557
 20
29.2997
 30
0.0
 10
6.1107
 20
29.357
 30
0.0
 10
6.1455
 20
29.4295
 30
0.0
 10
6.1455
 20
29.4295
 30
0.0
 10
6.1723
 20
29.4855
 30
0.0
 10
6.1855
 20
29.5682
 30
0.0
 10
6.1855
 20
29.6774
 30
0.0
 10
6.1855
 20
29.6774
 30
0.0
 10
6.1855
 20
29.6774
 30
0.0
 10
6.1855
 20
29.7686
 30
0.0
 10
6.1855
 20
29.7686
 30
0.0
  0
SPLINE
  5
44
330
1F
100
AcDbEntity
  8
ROUND
 62
   250
100
AcDbSpline
210
0.0
220
0.0
230
1.0
 70
    11
 71
     3
 72
    64
 73
    60
 74
     0
 42
0.0000000001
 43
0.0000000001
 40
0.0
 40
0.0
 40
0.0
 40
0.0
 40
0.0625
 40
0.0625
 40
0.0625
 40
0.0625
 40
0.125
 40
0.125
 40
0.125
 40
0.125
 40
0.1875
 40
0.1875
 40
0.1875
 40
0.1875
 40
0.25
 40
0.25
 40
0.25
 40
0.25
 40
0.3125
 40
0.3125
 40
0.3125
 40
0.3125
 40
0.375
 40
0.375
 40
0.375
 40
0.375
 40
0.4375
 40
0.4375
 40
0.4375
 40
0.4375
 40
0.5
 40
0.5
 40
0.5
 40
0.5
 40
0.5625
 40
0.5625
 40
0.5625
 40
0.5625
 40
0.625
 40
0.625
 40
0.625
 40
0.625
 40
0.6875
 40
0.6875
 40
0.6875
 40
0.6875
 40
0.75
 40
0.75
 40
0.75
 40
0.75
 40
0.8125
 40
0.8125
 40
0.8125
 40
0.8125
 40
0.875
 40
0.875
 40
0.875
 40
0.875
 40
1.0
 40
1.0
 40
1.0
 40
1.0
 10
6.6554
 20
29.0339
 30
0.0
 10
6.6554
 20
29.0339
 30
0.0
 10
7.1902
 20
29.7945
 30
0.0
 10
7.1902
 20
29.7945
 30
0.0
 10
7.1902
 20
29.7945
 30
0.0
 10
7.1902
 20
29.7945
 30
0.0
 10
6.6954
 20
30.4972
 30
0.0
 10
6.6954
 20
30.4972
 30
0.0
 10
6.6954
 20
30.4972
 30
0.0
 10
6.6954
 20
30.4972
 30
0.0
 10
7.0053
 20
30.4972
 30
0.0
 10
7.0053
 20
30.4972
 30
0.0
 10
7.0053
 20
30.4972
 30
0.0
 10
7.0053
 20
30.4972
 30
0.0
 10
7.2302
 20
30.1543
 30
0.0
 10
7.2302
 20
30.1543
 30
0.0
 10
7.2302
 20
30.1543
 30
0.0
 10
7.272
 20
30.0889
 30
0.0
 10
7.3064
 20
30.0344
 30
0.0
 10
7.3318
 20
29.9902
 30
0.0
 10
7.3318
 20
29.9902
 30
0.0
 10
7.3722
 20
30.0508
 30
0.0
 10
7.4094
 20
30.1045
 30
0.0
 10
7.4437
 20
30.1515
 30
0.0
 10
7.4437
 20
30.1515
 30
0.0
 10
7.4437
 20
30.1515
 30
0.0
 10
7.6902
 20
30.4972
 30
0.0
 10
7.6902
 20
30.4972
 30
0.0
 10
7.6902
 20
30.4972
 30
0.0
 10
7.6902
 20
30.4972
 30
0.0
 10
7.9865
 20
30.4972
 30
0.0
 10
7.9865
 20
30.4972
 30
0.0
 10
7.9865
 20
30.4972
 30
0.0
 10
7.9865
 20
30.4972
 30
0.0
 10
7.4809
 20
29.8081
 30
0.0
 10
7.4809
 20
29.8081
 30
0.0
 10
7.4809
 20
29.8081
 30
0.0
 10
7.4809
 20
29.8081
 30
0.0
 10
8.0251
 20
29.0339
 30
0.0
 10
8.0251
 20
29.0339
 30
0.0
 10
8.0251
 20
29.0339
 30
0.0
 10
8.0251
 20
29.0339
 30
0.0
 10
7.7208
 20
29.0339
 30
0.0
 10
7.7208
 20
29.0339
 30
0.0
 10
7.7208
 20
29.0339
 30
0.0
 10
7.7208
 20
29.0339
 30
0.0
 10
7.4202
 20
29.4887
 30
0.0
 10
7.4202
 20
29.4887
 30
0.0
 10
7.4202
 20
29.4887
 30
0.0
 10
7.4202
 20
29.4887
 30
0.0
 10
7.3403
 20
29.6115
 30
0.0
 10
7.3403
 20
29.6115
 30
0.0
 10
7.3403
 20
29.6115
 30
0.0
 10
7.3403
 20
29.6115
 30
0.0
 10
6.956
 20
29.0339
 30
0.0
 10
6.956
 20
29.0339
 30
0.0
 10
6.956
 20
29.0339
 30
0.0
 10
6.956
 20
29.0339
 30
0.0
 10
6.6554
 20
29.0339
 30
0.0
 10
6.6554
 20
29.0339
 30
0.0
  0
SPLINE
  5
45
330
1F
100
AcDbEntity
  8
ROUND
 62
   250
100
AcDbSpline
210
0.0
220
0.0
230
1.0
 70
    11
 71
     3
 72
   124
 73
   120
 74
     0
 42
0.0000000001
 43
0.0000000001
 40
0.0
 40
0.0
 40
0.0
 40
0.0
 40
0.032258064516129
 40
0.032258064516129
 40
0.032258064516129
 40
0.032258064516129
 40
0.0645161290322581
 40
0.0645161290322581
 40
0.0645161290322581
 40
0.0645161290322581
 40
0.0967741935483871
 40
0.0967741935483871
 40
0.0967741935483871
 40
0.0967741935483871
 40
0.1290322580645161
 40
0.1290322580645161
 40
0.1290322580645161
 40
0.1290322580645161
 40
0.1612903225806452
 40
0.1612903225806452
 40
0.1612903225806452
 40
0.1612903225806452
 40
0.1935483870967742
 40
0.1935483870967742
 40
0.1935483870967742
 40
0.1935483870967742
 40
0.2258064516129032
 40
0.2258064516129032
 40
0.2258064516129032
 40
0.2258064516129032
 40
0.2580645161290323
 40
0.2580645161290323
 40
0.2580645161290323
 40
0.2580645161290323
 40
0.2903225806451613
 40
0.2903225806451613
 40
0.2903225806451613
 40
0.2903225806451613
 40
0.3225806451612903
 40
0.3225806451612903
 40
0.3225806451612903
 40
0.3225806451612903
 40
0.3548387096774194
 40
0.3548387096774194
 40
0.3548387096774194
 40
0.3548387096774194
 40
0.3870967741935484
 40
0.3870967741935484
 40
0.3870967741935484
 40
0.3870967741935484
 40
0.4193548387096774
 40
0.4193548387096774
 40
0.4193548387096774
 40
0.4193548387096774
 40
0.4516129032258064
 40
0.4516129032258064
 40
0.4516129032258064
 40
0.4516129032258064
 40
0.4838709677419355
 40
0.4838709677419355
 40
0.4838709677419355
 40
0.4838709677419355
 40
0.5161290322580645
 40
0.5161290322580645
 40
0.5161290322580645
 40
0.5161290322580645
 40
0.5483870967741935
 40
0.5483870967741935
 40
0.5483870967741935
 40
0.5483870967741935
 40
0.5806451612903226
 40
0.5806451612903226
 40
0.5806451612903226
 40
0.5806451612903226
 40
0.6129032258064516
 40
0.6129032258064516
 40
0.6129032258064516
 40
0.6129032258064516
 40
0.6451612903225806
 40
0.6451612903225806
 40
0.6451612903225806
 40
0.6451612903225806
 40
0.6774193548387096
 40
0.6774193548387096
 40
0.6774193548387096
 40
0.6774193548387096
 40
0.7096774193548387
 40
0.7096774193548387
 40
0.7096774193548387
 40
0.7096774193548387
 40
0.7419354838709677
 40
0.7419354838709677
 40
0.7419354838709677
 40
0.7419354838709677
 40
0.7741935483870968
 40
0.7741935483870968
 40
0.7741935483870968
 40
0.7741935483870968
 40
0.8064516129032258
 40
0.8064516129032258
 40
0.8064516129032258
 40
0.8064516129032258
 40
0.8387096774193549
 40
0.8387096774193549
 40
0.8387096774193549
 40
0.8387096774193549
 40
0.8709677419354839
 40
0.8709677419354839
 40
0.8709677419354839
 40
0.8709677419354839
 40
0.9032258064516129
 40
0.9032258064516129
 40
0.9032258064516129
 40
0.9032258064516129
 40
0.9354838709677419
 40
0.9354838709677419
 40
0.9354838709677419
 40
0.9354838709677419
 40
1.0
 40
1.0
 40
1.0
 40
1.0
 10
8.9484
 20
29.5673
 30
0.0
 10
8.9484
 20
29.5673
 30
0.0
 10
9.1963
 20
29.6002
 30
0.0
 10
9.1963
 20
29.6002
 30
0.0
 10
9.1963
 20
29.6002
 30
0.0
 10
9.225
 20
29.4596
 30
0.0
 10
9.2735
 20
29.3585
 30
0.0
 10
9.3417
 20
29.2964
 30
0.0
 10
9.3417
 20
29.2964
 30
0.0
 10
9.4103
 20
29.2343
 30
0.0
 10
9.4936
 20
29.2032
 30
0.0
 10
9.5919
 20
29.2032
 30
0.0
 10
9.5919
 20
29.2032
 30
0.0
 10
9.7085
 20
29.2032
 30
0.0
 10
9.8073
 20
29.2437
 30
0.0
 10
9.8878
 20
29.3246
 30
0.0
 10
9.8878
 20
29.3246
 30
0.0
 10
9.9677
 20
29.4055
 30
0.0
 10
10.0082
 20
29.5057
 30
0.0
 10
10.0082
 20
29.6252
 30
0.0
 10
10.0082
 20
29.6252
 30
0.0
 10
10.0082
 20
29.739
 30
0.0
 10
9.971
 20
29.8331
 30
0.0
 10
9.8967
 20
29.9069
 30
0.0
 10
9.8967
 20
29.9069
 30
0.0
 10
9.8219
 20
29.9807
 30
0.0
 10
9.7274
 20
30.0179
 30
0.0
 10
9.6126
 20
30.0179
 30
0.0
 10
9.6126
 20
30.0179
 30
0.0
 10
9.5656
 20
30.0179
 30
0.0
 10
9.5072
 20
30.0085
 30
0.0
 10
9.4376
 20
29.9902
 30
0.0
 10
9.4376
 20
29.9902
 30
0.0
 10
9.4376
 20
29.9902
 30
0.0
 10
9.4654
 20
30.2079
 30
0.0
 10
9.4654
 20
30.2079
 30
0.0
 10
9.4654
 20
30.2079
 30
0.0
 10
9.4818
 20
30.2061
 30
0.0
 10
9.495
 20
30.2051
 30
0.0
 10
9.5053
 20
30.2051
 30
0.0
 10
9.5053
 20
30.2051
 30
0.0
 10
9.6107
 20
30.2051
 30
0.0
 10
9.7057
 20
30.2329
 30
0.0
 10
9.7904
 20
30.2879
 30
0.0
 10
9.7904
 20
30.2879
 30
0.0
 10
9.8751
 20
30.3429
 30
0.0
 10
9.9174
 20
30.4281
 30
0.0
 10
9.9174
 20
30.5428
 30
0.0
 10
9.9174
 20
30.5428
 30
0.0
 10
9.9174
 20
30.6336
 30
0.0
 10
9.8863
 20
30.7093
 30
0.0
 10
9.8247
 20
30.7686
 30
0.0
 10
9.8247
 20
30.7686
 30
0.0
 10
9.7631
 20
30.8283
 30
0.0
 10
9.6836
 20
30.8585
 30
0.0
 10
9.5862
 20
30.8585
 30
0.0
 10
9.5862
 20
30.8585
 30
0.0
 10
9.4898
 20
30.8585
 30
0.0
 10
9.4094
 20
30.8279
 30
0.0
 10
9.3454
 20
30.7677
 30
0.0
 10
9.3454
 20
30.7677
 30
0.0
 10
9.281
 20
30.707
 30
0.0
 10
9.2396
 20
30.6157
 30
0.0
 10
9.2212
 20
30.4944
 30
0.0
 10
9.2212
 20
30.4944
 30
0.0
 10
9.2212
 20
30.4944
 30
0.0
 10
8.9734
 20
30.5386
 30
0.0
 10
8.9734
 20
30.5386
 30
0.0
 10
8.9734
 20
30.5386
 30
0.0
 10
9.0035
 20
30.7051
 30
0.0
 10
9.0726
 20
30.834
 30
0.0
 10
9.1799
 20
30.9252
 30
0.0
 10
9.1799
 20
30.9252
 30
0.0
 10
9.2876
 20
31.0165
 30
0.0
 10
9.4212
 20
31.0626
 30
0.0
 10
9.5811
 20
31.0626
 30
0.0
 10
9.5811
 20
31.0626
 30
0.0
 10
9.6911
 20
31.0626
 30
0.0
 10
9.7927
 20
31.0386
 30
0.0
 10
9.8854
 20
30.9916
 30
0.0
 10
9.8854
 20
30.9916
 30
0.0
 10
9.9781
 20
30.9441
 30
0.0
 10
10.0491
 20
30.8796
 30
0.0
 10
10.0985
 20
30.7978
 30
0.0
 10
10.0985
 20
30.7978
 30
0.0
 10
10.1474
 20
30.7159
 30
0.0
 10
10.1723
 20
30.6294
 30
0.0
 10
10.1723
 20
30.5372
 30
0.0
 10
10.1723
 20
30.5372
 30
0.0
 10
10.1723
 20
30.4502
 30
0.0
 10
10.1488
 20
30.3707
 30
0.0
 10
10.1018
 20
30.2987
 30
0.0
 10
10.1018
 20
30.2987
 30
0.0
 10
10.0547
 20
30.2272
 30
0.0
 10
9.9856
 20
30.1703
 30
0.0
 10
9.8939
 20
30.128
 30
0.0
 10
9.8939
 20
30.128
 30
0.0
 10
10.0133
 20
30.1007
 30
0.0
 10
10.106
 20
30.0433
 30
0.0
 10
10.1723
 20
29.9563
 30
0.0
 10
10.1723
 20
29.9563
 30
0.0
 10
10.2382
 20
29.8697
 30
0.0
 10
10.2711
 20
29.7611
 30
0.0
 10
10.2711
 20
29.6308
 30
0.0
 10
10.2711
 20
29.6308
 30
0.0
 10
10.2711
 20
29.4544
 30
0.0
 10
10.2071
 20
29.3048
 30
0.0
 10
10.0783
 20
29.1821
 30
0.0
 10
10.0783
 20
29.1821
 30
0.0
 10
9.9498
 20
29.0593
 30
0.0
 10
9.7871
 20
28.9982
 30
0.0
 10
9.5905
 20
28.9982
 30
0.0
 10
9.5905
 20
28.9982
 30
0.0
 10
9.4132
 20
28.9982
 30
0.0
 10
9.2659
 20
29.0508
 30
0.0
 10
9.1488
 20
29.1567
 30
0.0
 10
9.1488
 20
29.1567
 30
0.0
 10
9.0317
 20
29.262
 30
0.0
 10
8.9649
 20
29.3989
 30
0.0
 10
8.9484
 20
29.5673
 30
0.0
  0
SPLINE
  5
46
330
1F
100
AcDbEntity
  8
ROUND
 62
   250
100
AcDbSpline
210
0.0
220
0.0
230
1.0
 70
    11
 71
     3
 72
   124
 73
   120
 74
     0
 42
0.0000000001
 43
0.0000000001
 40
0.0
 40
0.0
 40
0.0
 40
0.0
 40
0.032258064516129
 40
0.032258064516129
 40
0.032258064516129
 40
0.032258064516129
 40
0.0645161290322581
 40
0.0645161290322581
 40
0.0645161290322581
 40
0.0645161290322581
 40
0.0967741935483871
 40
0.0967741935483871
 40
0.0967741935483871
 40
0.0967741935483871
 40
0.1290322580645161
 40
0.1290322580645161
 40
0.1290322580645161
 40
0.1290322580645161
 40
0.1612903225806452
 40
0.1612903225806452
 40
0.1612903225806452
 40
0.1612903225806452
 40
0.1935483870967742
 40
0.1935483870967742
 40
0.1935483870967742
 40
0.1935483870967742
 40
0.2258064516129032
 40
0.2258064516129032
 40
0.2258064516129032
 40
0.2258064516129032
 40
0.2580645161290323
 40
0.2580645161290323
 40
0.2580645161290323
 40
0.2580645161290323
 40
0.2903225806451613
 40
0.2903225806451613
 40
0.2903225806451613
 40
0.2903225806451613
 40
0.3225806451612903
 40
0.3225806451612903
 40
0.3225806451612903
 40
0.3225806451612903
 40
0.3548387096774194
 40
0.3548387096774194
 40
0.3548387096774194
 40
0.3548387096774194
 40
0.3870967741935484
 40
0.3870967741935484
 40
0.3870967741935484
 40
0.3870967741935484
 40
0.4193548387096774
 40
0.4193548387096774
 40
0.4193548387096774
 40
0.4193548387096774
 40
0.4516129032258064
 40
0.4516129032258064
 40
0.4516129032258064
 40
0.4516129032258064
 40
0.4838709677419355
 40
0.4838709677419355
 40
0.4838709677419355
 40
0.4838709677419355
 40
0.5161290322580645
 40
0.5161290322580645
 40
0.5161290322580645
 40
0.5161290322580645
 40
0.5483870967741935
 40
0.5483870967741935
 40
0.5483870967741935
 40
0.5483870967741935
 40
0.5806451612903226
 40
0.5806451612903226
 40
0.5806451612903226
 40
0.5806451612903226
 40
0.6129032258064516
 40
0.6129032258064516
 40
0.6129032258064516
 40
0.6129032258064516
 40
0.6451612903225806
 40
0.6451612903225806
 40
0.6451612903225806
 40
0.6451612903225806
 40
0.6774193548387096
 40
0.6774193548387096
 40
0.6774193548387096
 40
0.6774193548387096
 40
0.7096774193548387
 40
0.7096774193548387
 40
0.7096774193548387
 40
0.7096774193548387
 40
0.7419354838709677
 40
0.7419354838709677
 40
0.7419354838709677
 40
0.7419354838709677
 40
0.7741935483870968
 40
0.7741935483870968
 40
0.7741935483870968
 40
0.7741935483870968
 40
0.8064516129032258
 40
0.8064516129032258
 40
0.8064516129032258
 40
0.8064516129032258
 40
0.8387096774193549
 40
0.8387096774193549
 40
0.8387096774193549
 40
0.8387096774193549
 40
0.8709677419354839
 40
0.8709677419354839
 40
0.8709677419354839
 40
0.8709677419354839
 40
0.9032258064516129
 40
0.9032258064516129
 40
0.9032258064516129
 40
0.9032258064516129
 40
0.9354838709677419
 40
0.9354838709677419
 40
0.9354838709677419
 40
0.9354838709677419
 40
1.0
 40
1.0
 40
1.0
 40
1.0
 10
10.518
 20
29.5673
 30
0.0
 10
10.518
 20
29.5673
 30
0.0
 10
10.7659
 20
29.6002
 30
0.0
 10
10.7659
 20
29.6002
 30
0.0
 10
10.7659
 20
29.6002
 30
0.0
 10
10.7946
 20
29.4596
 30
0.0
 10
10.8431
 20
29.3585
 30
0.0
 10
10.9113
 20
29.2964
 30
0.0
 10
10.9113
 20
29.2964
 30
0.0
 10
10.9799
 20
29.2343
 30
0.0
 10
11.0632
 20
29.2032
 30
0.0
 10
11.1615
 20
29.2032
 30
0.0
 10
11.1615
 20
29.2032
 30
0.0
 10
11.2781
 20
29.2032
 30
0.0
 10
11.3769
 20
29.2437
 30
0.0
 10
11.4574
 20
29.3246
 30
0.0
 10
11.4574
 20
29.3246
 30
0.0
 10
11.5373
 20
29.4055
 30
0.0
 10
11.5778
 20
29.5057
 30
0.0
 10
11.5778
 20
29.6252
 30
0.0
 10
11.5778
 20
29.6252
 30
0.0
 10
11.5778
 20
29.739
 30
0.0
 10
11.5406
 20
29.8331
 30
0.0
 10
11.4663
 20
29.9069
 30
0.0
 10
11.4663
 20
29.9069
 30
0.0
 10
11.3915
 20
29.9807
 30
0.0
 10
11.297
 20
30.0179
 30
0.0
 10
11.1822
 20
30.0179
 30
0.0
 10
11.1822
 20
30.0179
 30
0.0
 10
11.1352
 20
30.0179
 30
0.0
 10
11.0768
 20
30.0085
 30
0.0
 10
11.0072
 20
29.9902
 30
0.0
 10
11.0072
 20
29.9902
 30
0.0
 10
11.0072
 20
29.9902
 30
0.0
 10
11.035
 20
30.2079
 30
0.0
 10
11.035
 20
30.2079
 30
0.0
 10
11.035
 20
30.2079
 30
0.0
 10
11.0514
 20
30.2061
 30
0.0
 10
11.0646
 20
30.2051
 30
0.0
 10
11.0749
 20
30.2051
 30
0.0
 10
11.0749
 20
30.2051
 30
0.0
 10
11.1803
 20
30.2051
 30
0.0
 10
11.2753
 20
30.2329
 30
0.0
 10
11.36
 20
30.2879
 30
0.0
 10
11.36
 20
30.2879
 30
0.0
 10
11.4447
 20
30.3429
 30
0.0
 10
11.487
 20
30.4281
 30
0.0
 10
11.487
 20
30.5428
 30
0.0
 10
11.487
 20
30.5428
 30
0.0
 10
11.487
 20
30.6336
 30
0.0
 10
11.4559
 20
30.7093
 30
0.0
 10
11.3943
 20
30.7686
 30
0.0
 10
11.3943
 20
30.7686
 30
0.0
 10
11.3327
 20
30.8283
 30
0.0
 10
11.2532
 20
30.8585
 30
0.0
 10
11.1558
 20
30.8585
 30
0.0
 10
11.1558
 20
30.8585
 30
0.0
 10
11.0594
 20
30.8585
 30
0.0
 10
10.979
 20
30.8279
 30
0.0
 10
10.915
 20
30.7677
 30
0.0
 10
10.915
 20
30.7677
 30
0.0
 10
10.8506
 20
30.707
 30
0.0
 10
10.8092
 20
30.6157
 30
0.0
 10
10.7908
 20
30.4944
 30
0.0
 10
10.7908
 20
30.4944
 30
0.0
 10
10.7908
 20
30.4944
 30
0.0
 10
10.543
 20
30.5386
 30
0.0
 10
10.543
 20
30.5386
 30
0.0
 10
10.543
 20
30.5386
 30
0.0
 10
10.5731
 20
30.7051
 30
0.0
 10
10.6422
 20
30.834
 30
0.0
 10
10.7495
 20
30.9252
 30
0.0
 10
10.7495
 20
30.9252
 30
0.0
 10
10.8572
 20
31.0165
 30
0.0
 10
10.9908
 20
31.0626
 30
0.0
 10
11.1507
 20
31.0626
 30
0.0
 10
11.1507
 20
31.0626
 30
0.0
 10
11.2607
 20
31.0626
 30
0.0
 10
11.3623
 20
31.0386
 30
0.0
 10
11.455
 20
30.9916
 30
0.0
 10
11.455
 20
30.9916
 30
0.0
 10
11.5477
 20
30.9441
 30
0.0
 10
11.6187
 20
30.8796
 30
0.0
 10
11.6681
 20
30.7978
 30
0.0
 10
11.6681
 20
30.7978
 30
0.0
 10
11.717
 20
30.7159
 30
0.0
 10
11.7419
 20
30.6294
 30
0.0
 10
11.7419
 20
30.5372
 30
0.0
 10
11.7419
 20
30.5372
 30
0.0
 10
11.7419
 20
30.4502
 30
0.0
 10
11.7184
 20
30.3707
 30
0.0
 10
11.6714
 20
30.2987
 30
0.0
 10
11.6714
 20
30.2987
 30
0.0
 10
11.6243
 20
30.2272
 30
0.0
 10
11.5552
 20
30.1703
 30
0.0
 10
11.4635
 20
30.128
 30
0.0
 10
11.4635
 20
30.128
 30
0.0
 10
11.5829
 20
30.1007
 30
0.0
 10
11.6756
 20
30.0433
 30
0.0
 10
11.7419
 20
29.9563
 30
0.0
 10
11.7419
 20
29.9563
 30
0.0
 10
11.8078
 20
29.8697
 30
0.0
 10
11.8407
 20
29.7611
 30
0.0
 10
11.8407
 20
29.6308
 30
0.0
 10
11.8407
 20
29.6308
 30
0.0
 10
11.8407
 20
29.4544
 30
0.0
 10
11.7767
 20
29.3048
 30
0.0
 10
11.6479
 20
29.1821
 30
0.0
 10
11.6479
 20
29.1821
 30
0.0
 10
11.5194
 20
29.0593
 30
0.0
 10
11.3567
 20
28.9982
 30
0.0
 10
11.1601
 20
28.9982
 30
0.0
 10
11.1601
 20
28.9982
 30
0.0
 10
10.9828
 20
28.9982
 30
0.0
 10
10.8355
 20
29.0508
 30
0.0
 10
10.7184
 20
29.1567
 30
0.0
 10
10.7184
 20
29.1567
 30
0.0
 10
10.6013
 20
29.262
 30
0.0
 10
10.5345
 20
29.3989
 30
0.0
 10
10.518
 20
29.5673
 30
0.0
  0
SPLINE
  5
47
330
1F
100
AcDbEntity
  8
ROUND
 62
   250
100
AcDbSpline
210
0.0
220
0.0
230
1.0
 70
    11
 71
     3
 72
    52
 73
    48
 74
     0
 42
0.0000000001
 43
0.0000000001
 40
0.0
 40
0.0
 40
0.0
 40
0.0
 40
0.0769230769230769
 40
0.0769230769230769
 40
0.0769230769230769
 40
0.0769230769230769
 40
0.1538461538461539
 40
0.1538461538461539
 40
0.1538461538461539
 40
0.1538461538461539
 40
0.2307692307692308
 40
0.2307692307692308
 40
0.2307692307692308
 40
0.2307692307692308
 40
0.3076923076923077
 40
0.3076923076923077
 40
0.3076923076923077
 40
0.3076923076923077
 40
0.3846153846153846
 40
0.3846153846153846
 40
0.3846153846153846
 40
0.3846153846153846
 40
0.4615384615384616
 40
0.4615384615384616
 40
0.4615384615384616
 40
0.4615384615384616
 40
0.5384615384615384
 40
0.5384615384615384
 40
0.5384615384615384
 40
0.5384615384615384
 40
0.6153846153846154
 40
0.6153846153846154
 40
0.6153846153846154
 40
0.6153846153846154
 40
0.6923076923076923
 40
0.6923076923076923
 40
0.6923076923076923
 40
0.6923076923076923
 40
0.7692307692307693
 40
0.7692307692307693
 40
0.7692307692307693
 40
0.7692307692307693
 40
0.8461538461538461
 40
0.8461538461538461
 40
0.8461538461538461
 40
0.8461538461538461
 40
1.0
 40
1.0
 40
1.0
 40
1.0
 10
12.0862
 20
30.0301
 30
0.0
 10
12.0862
 20
30.2691
 30
0.0
 10
12.1107
 20
30.4615
 30
0.0
 10
12.1601
 20
30.6068
 30
0.0
 10
12.1601
 20
30.6068
 30
0.0
 10
12.209
 20
30.7526
 30
0.0
 10
12.2824
 20
30.865
 30
0.0
 10
12.3793
 20
30.9441
 30
0.0
 10
12.3793
 20
30.9441
 30
0.0
 10
12.4762
 20
31.0231
 30
0.0
 10
12.598
 20
31.0626
 30
0.0
 10
12.7447
 20
31.0626
 30
0.0
 10
12.7447
 20
31.0626
 30
0.0
 10
12.8534
 20
31.0626
 30
0.0
 10
12.9484
 20
31.0405
 30
0.0
 10
13.0302
 20
30.9967
 30
0.0
 10
13.0302
 20
30.9967
 30
0.0
 10
13.1121
 20
30.9535
 30
0.0
 10
13.1794
 20
30.8904
 30
0.0
 10
13.233
 20
30.8081
 30
0.0
 10
13.233
 20
30.8081
 30
0.0
 10
13.2861
 20
30.7258
 30
0.0
 10
13.328
 20
30.6256
 30
0.0
 10
13.3581
 20
30.5076
 30
0.0
 10
13.3581
 20
30.5076
 30
0.0
 10
13.3887
 20
30.3895
 30
0.0
 10
13.4037
 20
30.2305
 30
0.0
 10
13.4037
 20
30.0301
 30
0.0
 10
13.4037
 20
30.0301
 30
0.0
 10
13.4037
 20
29.7931
 30
0.0
 10
13.3793
 20
29.6021
 30
0.0
 10
13.3308
 20
29.4563
 30
0.0
 10
13.3308
 20
29.4563
 30
0.0
 10
13.2819
 20
29.3105
 30
0.0
 10
13.209
 20
29.1981
 30
0.0
 10
13.1121
 20
29.1186
 30
0.0
 10
13.1121
 20
29.1186
 30
0.0
 10
13.0152
 20
29.0391
 30
0.0
 10
12.8929
 20
28.9996
 30
0.0
 10
12.7447
 20
28.9996
 30
0.0
 10
12.7447
 20
28.9996
 30
0.0
 10
12.55
 20
28.9996
 30
0.0
 10
12.3971
 20
29.0692
 30
0.0
 10
12.2861
 20
29.2089
 30
0.0
 10
12.2861
 20
29.2089
 30
0.0
 10
12.153
 20
29.3768
 30
0.0
 10
12.0862
 20
29.651
 30
0.0
 10
12.0862
 20
30.0301
 30
0.0
  0
SPLINE
  5
48
330
1F
100
AcDbEntity
  8
ROUND
 62
   250
100
AcDbSpline
210
0.0
220
0.0
230
1.0
 70
    11
 71
     3
 72
    36
 73
    32
 74
     0
 42
0.0000000001
 43
0.0000000001
 40
0.0
 40
0.0
 40
0.0
 40
0.0
 40
0.1111111111111111
 40
0.1111111111111111
 40
0.1111111111111111
 40
0.1111111111111111
 40
0.2222222222222222
 40
0.2222222222222222
 40
0.2222222222222222
 40
0.2222222222222222
 40
0.3333333333333333
 40
0.3333333333333333
 40
0.3333333333333333
 40
0.3333333333333333
 40
0.4444444444444444
 40
0.4444444444444444
 40
0.4444444444444444
 40
0.4444444444444444
 40
0.5555555555555556
 40
0.5555555555555556
 40
0.5555555555555556
 40
0.5555555555555556
 40
0.6666666666666666
 40
0.6666666666666666
 40
0.6666666666666666
 40
0.6666666666666666
 40
0.7777777777777778
 40
0.7777777777777778
 40
0.7777777777777778
 40
0.7777777777777778
 40
1.0
 40
1.0
 40
1.0
 40
1.0
 10
12.3412
 20
30.0301
 30
0.0
 10
12.3412
 20
29.6985
 30
0.0
 10
12.3802
 20
29.4779
 30
0.0
 10
12.4578
 20
29.3679
 30
0.0
 10
12.4578
 20
29.3679
 30
0.0
 10
12.5354
 20
29.2583
 30
0.0
 10
12.6309
 20
29.2032
 30
0.0
 10
12.7447
 20
29.2032
 30
0.0
 10
12.7447
 20
29.2032
 30
0.0
 10
12.859
 20
29.2032
 30
0.0
 10
12.9545
 20
29.2587
 30
0.0
 10
13.0321
 20
29.3688
 30
0.0
 10
13.0321
 20
29.3688
 30
0.0
 10
13.1097
 20
29.4789
 30
0.0
 10
13.1488
 20
29.6995
 30
0.0
 10
13.1488
 20
30.0301
 30
0.0
 10
13.1488
 20
30.0301
 30
0.0
 10
13.1488
 20
30.3627
 30
0.0
 10
13.1097
 20
30.5838
 30
0.0
 10
13.0321
 20
30.6929
 30
0.0
 10
13.0321
 20
30.6929
 30
0.0
 10
12.9545
 20
30.8025
 30
0.0
 10
12.8581
 20
30.857
 30
0.0
 10
12.7424
 20
30.857
 30
0.0
 10
12.7424
 20
30.857
 30
0.0
 10
12.6281
 20
30.857
 30
0.0
 10
12.5373
 20
30.8086
 30
0.0
 10
12.4691
 20
30.7122
 30
0.0
 10
12.4691
 20
30.7122
 30
0.0
 10
12.384
 20
30.5894
 30
0.0
 10
12.3412
 20
30.3617
 30
0.0
 10
12.3412
 20
30.0301
 30
0.0
  0
SPLINE
  5
49
330
1F
100
AcDbEntity
  8
ROUND
 62
   250
100
AcDbSpline
210
0.0
220
0.0
230
1.0
 70
    11
 71
     3
 72
    48
 73
    44
 74
     0
 42
0.0000000001
 43
0.0000000001
 40
0.0
 40
0.0
 40
0.0
 40
0.0
 40
0.0833333333333333
 40
0.0833333333333333
 40
0.0833333333333333
 40
0.0833333333333333
 40
0.1666666666666667
 40
0.1666666666666667
 40
0.1666666666666667
 40
0.1666666666666667
 40
0.25
 40
0.25
 40
0.25
 40
0.25
 40
0.3333333333333333
 40
0.3333333333333333
 40
0.3333333333333333
 40
0.3333333333333333
 40
0.4166666666666667
 40
0.4166666666666667
 40
0.4166666666666667
 40
0.4166666666666667
 40
0.5
 40
0.5
 40
0.5
 40
0.5
 40
0.5833333333333334
 40
0.5833333333333334
 40
0.5833333333333334
 40
0.5833333333333334
 40
0.6666666666666666
 40
0.6666666666666666
 40
0.6666666666666666
 40
0.6666666666666666
 40
0.75
 40
0.75
 40
0.75
 40
0.75
 40
0.8333333333333334
 40
0.8333333333333334
 40
0.8333333333333334
 40
0.8333333333333334
 40
1.0
 40
1.0
 40
1.0
 40
1.0
 10
-39.6299
 20
2.7871
 30
0.0
 10
-39.6299
 20
2.7871
 30
0.0
 10
-40.1134
 20
2.7871
 30
0.0
 10
-40.1134
 20
2.7871
 30
0.0
 10
-40.1134
 20
2.7871
 30
0.0
 10
-40.1134
 20
2.7871
 30
0.0
 10
-40.1134
 20
1.9108
 30
0.0
 10
-40.1134
 20
1.9108
 30
0.0
 10
-40.1134
 20
1.9108
 30
0.0
 10
-40.1134
 20
1.9108
 30
0.0
 10
-40.3411
 20
1.9108
 30
0.0
 10
-40.3411
 20
1.9108
 30
0.0
 10
-40.3411
 20
1.9108
 30
0.0
 10
-40.3411
 20
1.9108
 30
0.0
 10
-41.6501
 20
2.8328
 30
0.0
 10
-41.6501
 20
2.8328
 30
0.0
 10
-41.6501
 20
2.8328
 30
0.0
 10
-41.6501
 20
2.8328
 30
0.0
 10
-41.6501
 20
3.0355
 30
0.0
 10
-41.6501
 20
3.0355
 30
0.0
 10
-41.6501
 20
3.0355
 30
0.0
 10
-41.6501
 20
3.0355
 30
0.0
 10
-40.3411
 20
3.0355
 30
0.0
 10
-40.3411
 20
3.0355
 30
0.0
 10
-40.3411
 20
3.0355
 30
0.0
 10
-40.3411
 20
3.0355
 30
0.0
 10
-40.3411
 20
3.3083
 30
0.0
 10
-40.3411
 20
3.3083
 30
0.0
 10
-40.3411
 20
3.3083
 30
0.0
 10
-40.3411
 20
3.3083
 30
0.0
 10
-40.1134
 20
3.3083
 30
0.0
 10
-40.1134
 20
3.3083
 30
0.0
 10
-40.1134
 20
3.3083
 30
0.0
 10
-40.1134
 20
3.3083
 30
0.0
 10
-40.1134
 20
3.0355
 30
0.0
 10
-40.1134
 20
3.0355
 30
0.0
 10
-40.1134
 20
3.0355
 30
0.0
 10
-40.1134
 20
3.0355
 30
0.0
 10
-39.6299
 20
3.0355
 30
0.0
 10
-39.6299
 20
3.0355
 30
0.0
 10
-39.6299
 20
3.0355
 30
0.0
 10
-39.6299
 20
3.0355
 30
0.0
 10
-39.6299
 20
2.7871
 30
0.0
 10
-39.6299
 20
2.7871
 30
0.0
  0
SPLINE
  5
4A
330
1F
100
AcDbEntity
  8
ROUND
 62
   250
100
AcDbSpline
210
0.0
220
0.0
230
1.0
 70
    11
 71
     3
 72
    16
 73
    12
 74
     0
 42
0.0000000001
 43
0.0000000001
 40
0.0
 40
0.0
 40
0.0
 40
0.0
 40
0.25
 40
0.25
 40
0.25
 40
0.25
 40
0.5
 40
0.5
 40
0.5
 40
0.5
 40
1.0
 40
1.0
 40
1.0
 40
1.0
 10
-40.3411
 20
2.7871
 30
0.0
 10
-40.3411
 20
2.7871
 30
0.0
 10
-41.2517
 20
2.7871
 30
0.0
 10
-41.2517
 20
2.7871
 30
0.0
 10
-41.2517
 20
2.7871
 30
0.0
 10
-41.2517
 20
2.7871
 30
0.0
 10
-40.3411
 20
2.155
 30
0.0
 10
-40.3411
 20
2.155
 30
0.0
 10
-40.3411
 20
2.155
 30
0.0
 10
-40.3411
 20
2.155
 30
0.0
 10
-40.3411
 20
2.7871
 30
0.0
 10
-40.3411
 20
2.7871
 30
0.0
  0
SPLINE
  5
4B
330
1F
100
AcDbEntity
  8
ROUND
 62
   250
100
AcDbSpline
210
0.0
220
0.0
230
1.0
 70
    11
 71
     3
 72
    52
 73
    48
 74
     0
 42
0.0000000001
 43
0.0000000001
 40
0.0
 40
0.0
 40
0.0
 40
0.0
 40
0.0769230769230769
 40
0.0769230769230769
 40
0.0769230769230769
 40
0.0769230769230769
 40
0.1538461538461539
 40
0.1538461538461539
 40
0.1538461538461539
 40
0.1538461538461539
 40
0.2307692307692308
 40
0.2307692307692308
 40
0.2307692307692308
 40
0.2307692307692308
 40
0.3076923076923077
 40
0.3076923076923077
 40
0.3076923076923077
 40
0.3076923076923077
 40
0.3846153846153846
 40
0.3846153846153846
 40
0.3846153846153846
 40
0.3846153846153846
 40
0.4615384615384616
 40
0.4615384615384616
 40
0.4615384615384616
 40
0.4615384615384616
 40
0.5384615384615384
 40
0.5384615384615384
 40
0.5384615384615384
 40
0.5384615384615384
 40
0.6153846153846154
 40
0.6153846153846154
 40
0.6153846153846154
 40
0.6153846153846154
 40
0.6923076923076923
 40
0.6923076923076923
 40
0.6923076923076923
 40
0.6923076923076923
 40
0.7692307692307693
 40
0.7692307692307693
 40
0.7692307692307693
 40
0.7692307692307693
 40
0.8461538461538461
 40
0.8461538461538461
 40
0.8461538461538461
 40
0.8461538461538461
 40
1.0
 40
1.0
 40
1.0
 40
1.0
 10
-40.6261
 20
3.5618
 30
0.0
 10
-40.8651
 20
3.5618
 30
0.0
 10
-41.0575
 20
3.5863
 30
0.0
 10
-41.2028
 20
3.6357
 30
0.0
 10
-41.2028
 20
3.6357
 30
0.0
 10
-41.3486
 20
3.6846
 30
0.0
 10
-41.461
 20
3.758
 30
0.0
 10
-41.5401
 20
3.8549
 30
0.0
 10
-41.5401
 20
3.8549
 30
0.0
 10
-41.6191
 20
3.9518
 30
0.0
 10
-41.6586
 20
4.0736
 30
0.0
 10
-41.6586
 20
4.2203
 30
0.0
 10
-41.6586
 20
4.2203
 30
0.0
 10
-41.6586
 20
4.329
 30
0.0
 10
-41.6365
 20
4.424
 30
0.0
 10
-41.5927
 20
4.5058
 30
0.0
 10
-41.5927
 20
4.5058
 30
0.0
 10
-41.5495
 20
4.5877
 30
0.0
 10
-41.4864
 20
4.655
 30
0.0
 10
-41.4041
 20
4.7086
 30
0.0
 10
-41.4041
 20
4.7086
 30
0.0
 10
-41.3218
 20
4.7617
 30
0.0
 10
-41.2216
 20
4.8036
 30
0.0
 10
-41.1036
 20
4.8337
 30
0.0
 10
-41.1036
 20
4.8337
 30
0.0
 10
-40.9855
 20
4.8643
 30
0.0
 10
-40.8265
 20
4.8793
 30
0.0
 10
-40.6261
 20
4.8793
 30
0.0
 10
-40.6261
 20
4.8793
 30
0.0
 10
-40.3891
 20
4.8793
 30
0.0
 10
-40.1981
 20
4.8549
 30
0.0
 10
-40.0523
 20
4.8064
 30
0.0
 10
-40.0523
 20
4.8064
 30
0.0
 10
-39.9065
 20
4.7575
 30
0.0
 10
-39.7941
 20
4.6846
 30
0.0
 10
-39.7146
 20
4.5877
 30
0.0
 10
-39.7146
 20
4.5877
 30
0.0
 10
-39.6351
 20
4.4908
 30
0.0
 10
-39.5956
 20
4.3685
 30
0.0
 10
-39.5956
 20
4.2203
 30
0.0
 10
-39.5956
 20
4.2203
 30
0.0
 10
-39.5956
 20
4.0256
 30
0.0
 10
-39.6652
 20
3.8727
 30
0.0
 10
-39.8049
 20
3.7617
 30
0.0
 10
-39.8049
 20
3.7617
 30
0.0
 10
-39.9728
 20
3.6286
 30
0.0
 10
-40.247
 20
3.5618
 30
0.0
 10
-40.6261
 20
3.5618
 30
0.0
  0
SPLINE
  5
4C
330
1F
100
AcDbEntity
  8
ROUND
 62
   250
100
AcDbSpline
210
0.0
220
0.0
230
1.0
 70
    11
 71
     3
 72
    36
 73
    32
 74
     0
 42
0.0000000001
 43
0.0000000001
 40
0.0
 40
0.0
 40
0.0
 40
0.0
 40
0.1111111111111111
 40
0.1111111111111111
 40
0.1111111111111111
 40
0.1111111111111111
 40
0.2222222222222222
 40
0.2222222222222222
 40
0.2222222222222222
 40
0.2222222222222222
 40
0.3333333333333333
 40
0.3333333333333333
 40
0.3333333333333333
 40
0.3333333333333333
 40
0.4444444444444444
 40
0.4444444444444444
 40
0.4444444444444444
 40
0.4444444444444444
 40
0.5555555555555556
 40
0.5555555555555556
 40
0.5555555555555556
 40
0.5555555555555556
 40
0.6666666666666666
 40
0.6666666666666666
 40
0.6666666666666666
 40
0.6666666666666666
 40
0.7777777777777778
 40
0.7777777777777778
 40
0.7777777777777778
 40
0.7777777777777778
 40
1.0
 40
1.0
 40
1.0
 40
1.0
 10
-40.6261
 20
3.8168
 30
0.0
 10
-40.2945
 20
3.8168
 30
0.0
 10
-40.0739
 20
3.8558
 30
0.0
 10
-39.9639
 20
3.9334
 30
0.0
 10
-39.9639
 20
3.9334
 30
0.0
 10
-39.8543
 20
4.011
 30
0.0
 10
-39.7992
 20
4.1065
 30
0.0
 10
-39.7992
 20
4.2203
 30
0.0
 10
-39.7992
 20
4.2203
 30
0.0
 10
-39.7992
 20
4.3346
 30
0.0
 10
-39.8547
 20
4.4301
 30
0.0
 10
-39.9648
 20
4.5077
 30
0.0
 10
-39.9648
 20
4.5077
 30
0.0
 10
-40.0749
 20
4.5853
 30
0.0
 10
-40.2955
 20
4.6244
 30
0.0
 10
-40.6261
 20
4.6244
 30
0.0
 10
-40.6261
 20
4.6244
 30
0.0
 10
-40.9587
 20
4.6244
 30
0.0
 10
-41.1798
 20
4.5853
 30
0.0
 10
-41.2889
 20
4.5077
 30
0.0
 10
-41.2889
 20
4.5077
 30
0.0
 10
-41.3985
 20
4.4301
 30
0.0
 10
-41.453
 20
4.3337
 30
0.0
 10
-41.453
 20
4.218
 30
0.0
 10
-41.453
 20
4.218
 30
0.0
 10
-41.453
 20
4.1037
 30
0.0
 10
-41.4046
 20
4.0129
 30
0.0
 10
-41.3082
 20
3.9447
 30
0.0
 10
-41.3082
 20
3.9447
 30
0.0
 10
-41.1854
 20
3.8596
 30
0.0
 10
-40.9577
 20
3.8168
 30
0.0
 10
-40.6261
 20
3.8168
 30
0.0
  0
SPLINE
  5
4D
330
1F
100
AcDbEntity
  8
ROUND
 62
   250
100
AcDbSpline
210
0.0
220
0.0
230
1.0
 70
    11
 71
     3
 72
    20
 73
    16
 74
     0
 42
0.0000000001
 43
0.0000000001
 40
0.0
 40
0.0
 40
0.0
 40
0.0
 40
0.2
 40
0.2
 40
0.2
 40
0.2
 40
0.4
 40
0.4
 40
0.4
 40
0.4
 40
0.6
 40
0.6
 40
0.6
 40
0.6
 40
1.0
 40
1.0
 40
1.0
 40
1.0
 10
-40.2362
 20
5.8878
 30
0.0
 10
-40.2362
 20
5.8878
 30
0.0
 10
-40.4855
 20
5.8878
 30
0.0
 10
-40.4855
 20
5.8878
 30
0.0
 10
-40.4855
 20
5.8878
 30
0.0
 10
-40.4855
 20
5.8878
 30
0.0
 10
-40.4855
 20
6.6502
 30
0.0
 10
-40.4855
 20
6.6502
 30
0.0
 10
-40.4855
 20
6.6502
 30
0.0
 10
-40.4855
 20
6.6502
 30
0.0
 10
-40.2362
 20
6.6502
 30
0.0
 10
-40.2362
 20
6.6502
 30
0.0
 10
-40.2362
 20
6.6502
 30
0.0
 10
-40.2362
 20
6.6502
 30
0.0
 10
-40.2362
 20
5.8878
 30
0.0
 10
-40.2362
 20
5.8878
 30
0.0
  0
SPLINE
  5
4E
330
1F
100
AcDbEntity
  8
ROUND
 62
   250
100
AcDbSpline
210
0.0
220
0.0
230
1.0
 70
    11
 71
     3
 72
    92
 73
    88
 74
     0
 42
0.0000000001
 43
0.0000000001
 40
0.0
 40
0.0
 40
0.0
 40
0.0
 40
0.0434782608695652
 40
0.0434782608695652
 40
0.0434782608695652
 40
0.0434782608695652
 40
0.0869565217391304
 40
0.0869565217391304
 40
0.0869565217391304
 40
0.0869565217391304
 40
0.1304347826086956
 40
0.1304347826086956
 40
0.1304347826086956
 40
0.1304347826086956
 40
0.1739130434782609
 40
0.1739130434782609
 40
0.1739130434782609
 40
0.1739130434782609
 40
0.2173913043478261
 40
0.2173913043478261
 40
0.2173913043478261
 40
0.2173913043478261
 40
0.2608695652173913
 40
0.2608695652173913
 40
0.2608695652173913
 40
0.2608695652173913
 40
0.3043478260869565
 40
0.3043478260869565
 40
0.3043478260869565
 40
0.3043478260869565
 40
0.3478260869565217
 40
0.3478260869565217
 40
0.3478260869565217
 40
0.3478260869565217
 40
0.391304347826087
 40
0.391304347826087
 40
0.391304347826087
 40
0.391304347826087
 40
0.4347826086956522
 40
0.4347826086956522
 40
0.4347826086956522
 40
0.4347826086956522
 40
0.4782608695652174
 40
0.4782608695652174
 40
0.4782608695652174
 40
0.4782608695652174
 40
0.5217391304347826
 40
0.5217391304347826
 40
0.5217391304347826
 40
0.5217391304347826
 40
0.5652173913043478
 40
0.5652173913043478
 40
0.5652173913043478
 40
0.5652173913043478
 40
0.6086956521739131
 40
0.6086956521739131
 40
0.6086956521739131
 40
0.6086956521739131
 40
0.6521739130434783
 40
0.6521739130434783
 40
0.6521739130434783
 40
0.6521739130434783
 40
0.6956521739130435
 40
0.6956521739130435
 40
0.6956521739130435
 40
0.6956521739130435
 40
0.7391304347826086
 40
0.7391304347826086
 40
0.7391304347826086
 40
0.7391304347826086
 40
0.782608695652174
 40
0.782608695652174
 40
0.782608695652174
 40
0.782608695652174
 40
0.8260869565217391
 40
0.8260869565217391
 40
0.8260869565217391
 40
0.8260869565217391
 40
0.8695652173913043
 40
0.8695652173913043
 40
0.8695652173913043
 40
0.8695652173913043
 40
0.9130434782608695
 40
0.9130434782608695
 40
0.9130434782608695
 40
0.9130434782608695
 40
1.0
 40
1.0
 40
1.0
 40
1.0
 10
-40.097
 20
7.6766
 30
0.0
 10
-40.097
 20
7.6766
 30
0.0
 10
-40.1191
 20
7.9151
 30
0.0
 10
-40.1191
 20
7.9151
 30
0.0
 10
-40.1191
 20
7.9151
 30
0.0
 10
-40.0071
 20
7.9353
 30
0.0
 10
-39.9258
 20
7.9739
 30
0.0
 10
-39.875
 20
8.0308
 30
0.0
 10
-39.875
 20
8.0308
 30
0.0
 10
-39.8246
 20
8.0877
 30
0.0
 10
-39.7992
 20
8.1606
 30
0.0
 10
-39.7992
 20
8.25
 30
0.0
 10
-39.7992
 20
8.25
 30
0.0
 10
-39.7992
 20
8.3262
 30
0.0
 10
-39.8166
 20
8.3929
 30
0.0
 10
-39.8519
 20
8.4503
 30
0.0
 10
-39.8519
 20
8.4503
 30
0.0
 10
-39.8867
 20
8.5077
 30
0.0
 10
-39.9333
 20
8.5548
 30
0.0
 10
-39.9916
 20
8.5914
 30
0.0
 10
-39.9916
 20
8.5914
 30
0.0
 10
-40.0499
 20
8.6286
 30
0.0
 10
-40.129
 20
8.6592
 30
0.0
 10
-40.2277
 20
8.6841
 30
0.0
 10
-40.2277
 20
8.6841
 30
0.0
 10
-40.327
 20
8.7086
 30
0.0
 10
-40.4281
 20
8.7213
 30
0.0
 10
-40.5311
 20
8.7213
 30
0.0
 10
-40.5311
 20
8.7213
 30
0.0
 10
-40.5419
 20
8.7213
 30
0.0
 10
-40.5589
 20
8.7208
 30
0.0
 10
-40.5805
 20
8.7199
 30
0.0
 10
-40.5805
 20
8.7199
 30
0.0
 10
-40.502
 20
8.67
 30
0.0
 10
-40.4375
 20
8.6023
 30
0.0
 10
-40.3886
 20
8.5167
 30
0.0
 10
-40.3886
 20
8.5167
 30
0.0
 10
-40.3392
 20
8.4306
 30
0.0
 10
-40.3148
 20
8.3374
 30
0.0
 10
-40.3148
 20
8.2377
 30
0.0
 10
-40.3148
 20
8.2377
 30
0.0
 10
-40.3148
 20
8.0703
 30
0.0
 10
-40.3754
 20
7.9287
 30
0.0
 10
-40.4968
 20
7.813
 30
0.0
 10
-40.4968
 20
7.813
 30
0.0
 10
-40.6181
 20
7.6973
 30
0.0
 10
-40.7776
 20
7.6394
 30
0.0
 10
-40.9761
 20
7.6394
 30
0.0
 10
-40.9761
 20
7.6394
 30
0.0
 10
-41.1812
 20
7.6394
 30
0.0
 10
-41.3458
 20
7.6996
 30
0.0
 10
-41.4709
 20
7.8205
 30
0.0
 10
-41.4709
 20
7.8205
 30
0.0
 10
-41.596
 20
7.9414
 30
0.0
 10
-41.6586
 20
8.0929
 30
0.0
 10
-41.6586
 20
8.2749
 30
0.0
 10
-41.6586
 20
8.2749
 30
0.0
 10
-41.6586
 20
8.4061
 30
0.0
 10
-41.6228
 20
8.5261
 30
0.0
 10
-41.5523
 20
8.6352
 30
0.0
 10
-41.5523
 20
8.6352
 30
0.0
 10
-41.4817
 20
8.7438
 30
0.0
 10
-41.3806
 20
8.8266
 30
0.0
 10
-41.2498
 20
8.8831
 30
0.0
 10
-41.2498
 20
8.8831
 30
0.0
 10
-41.1191
 20
8.9395
 30
0.0
 10
-40.9295
 20
8.9677
 30
0.0
 10
-40.6812
 20
8.9677
 30
0.0
 10
-40.6812
 20
8.9677
 30
0.0
 10
-40.4234
 20
8.9677
 30
0.0
 10
-40.2179
 20
8.94
 30
0.0
 10
-40.0645
 20
8.884
 30
0.0
 10
-40.0645
 20
8.884
 30
0.0
 10
-39.9116
 20
8.8276
 30
0.0
 10
-39.7955
 20
8.7443
 30
0.0
 10
-39.7155
 20
8.6338
 30
0.0
 10
-39.7155
 20
8.6338
 30
0.0
 10
-39.6355
 20
8.5228
 30
0.0
 10
-39.5956
 20
8.3934
 30
0.0
 10
-39.5956
 20
8.2443
 30
0.0
 10
-39.5956
 20
8.2443
 30
0.0
 10
-39.5956
 20
8.0863
 30
0.0
 10
-39.6393
 20
7.9574
 30
0.0
 10
-39.7273
 20
7.8572
 30
0.0
 10
-39.7273
 20
7.8572
 30
0.0
 10
-39.8148
 20
7.757
 30
0.0
 10
-39.938
 20
7.6968
 30
0.0
 10
-40.097
 20
7.6766
 30
0.0
  0
SPLINE
  5
4F
330
1F
100
AcDbEntity
  8
ROUND
 62
   250
100
AcDbSpline
210
0.0
220
0.0
230
1.0
 70
    11
 71
     3
 72
    36
 73
    32
 74
     0
 42
0.0000000001
 43
0.0000000001
 40
0.0
 40
0.0
 40
0.0
 40
0.0
 40
0.1111111111111111
 40
0.1111111111111111
 40
0.1111111111111111
 40
0.1111111111111111
 40
0.2222222222222222
 40
0.2222222222222222
 40
0.2222222222222222
 40
0.2222222222222222
 40
0.3333333333333333
 40
0.3333333333333333
 40
0.3333333333333333
 40
0.3333333333333333
 40
0.4444444444444444
 40
0.4444444444444444
 40
0.4444444444444444
 40
0.4444444444444444
 40
0.5555555555555556
 40
0.5555555555555556
 40
0.5555555555555556
 40
0.5555555555555556
 40
0.6666666666666666
 40
0.6666666666666666
 40
0.6666666666666666
 40
0.6666666666666666
 40
0.7777777777777778
 40
0.7777777777777778
 40
0.7777777777777778
 40
0.7777777777777778
 40
1.0
 40
1.0
 40
1.0
 40
1.0
 10
-40.9888
 20
8.6921
 30
0.0
 10
-41.1308
 20
8.6921
 30
0.0
 10
-41.2442
 20
8.6545
 30
0.0
 10
-41.3275
 20
8.5787
 30
0.0
 10
-41.3275
 20
8.5787
 30
0.0
 10
-41.4112
 20
8.5025
 30
0.0
 10
-41.453
 20
8.4118
 30
0.0
 10
-41.453
 20
8.305
 30
0.0
 10
-41.453
 20
8.305
 30
0.0
 10
-41.453
 20
8.1949
 30
0.0
 10
-41.4079
 20
8.099
 30
0.0
 10
-41.318
 20
8.0171
 30
0.0
 10
-41.318
 20
8.0171
 30
0.0
 10
-41.2277
 20
7.9353
 30
0.0
 10
-41.1111
 20
7.8944
 30
0.0
 10
-40.9681
 20
7.8944
 30
0.0
 10
-40.9681
 20
7.8944
 30
0.0
 10
-40.8392
 20
7.8944
 30
0.0
 10
-40.7348
 20
7.9334
 30
0.0
 10
-40.6544
 20
8.011
 30
0.0
 10
-40.6544
 20
8.011
 30
0.0
 10
-40.5739
 20
8.0886
 30
0.0
 10
-40.5339
 20
8.1841
 30
0.0
 10
-40.5339
 20
8.2979
 30
0.0
 10
-40.5339
 20
8.2979
 30
0.0
 10
-40.5339
 20
8.4132
 30
0.0
 10
-40.5739
 20
8.5072
 30
0.0
 10
-40.6544
 20
8.5811
 30
0.0
 10
-40.6544
 20
8.5811
 30
0.0
 10
-40.7348
 20
8.6554
 30
0.0
 10
-40.8463
 20
8.6921
 30
0.0
 10
-40.9888
 20
8.6921
 30
0.0
  0
SPLINE
  5
50
330
1F
100
AcDbEntity
  8
ROUND
 62
   250
100
AcDbSpline
210
0.0
220
0.0
230
1.0
 70
    11
 71
     3
 72
    52
 73
    48
 74
     0
 42
0.0000000001
 43
0.0000000001
 40
0.0
 40
0.0
 40
0.0
 40
0.0
 40
0.0769230769230769
 40
0.0769230769230769
 40
0.0769230769230769
 40
0.0769230769230769
 40
0.1538461538461539
 40
0.1538461538461539
 40
0.1538461538461539
 40
0.1538461538461539
 40
0.2307692307692308
 40
0.2307692307692308
 40
0.2307692307692308
 40
0.2307692307692308
 40
0.3076923076923077
 40
0.3076923076923077
 40
0.3076923076923077
 40
0.3076923076923077
 40
0.3846153846153846
 40
0.3846153846153846
 40
0.3846153846153846
 40
0.3846153846153846
 40
0.4615384615384616
 40
0.4615384615384616
 40
0.4615384615384616
 40
0.4615384615384616
 40
0.5384615384615384
 40
0.5384615384615384
 40
0.5384615384615384
 40
0.5384615384615384
 40
0.6153846153846154
 40
0.6153846153846154
 40
0.6153846153846154
 40
0.6153846153846154
 40
0.6923076923076923
 40
0.6923076923076923
 40
0.6923076923076923
 40
0.6923076923076923
 40
0.7692307692307693
 40
0.7692307692307693
 40
0.7692307692307693
 40
0.7692307692307693
 40
0.8461538461538461
 40
0.8461538461538461
 40
0.8461538461538461
 40
0.8461538461538461
 40
1.0
 40
1.0
 40
1.0
 40
1.0
 10
-40.6261
 20
9.209
 30
0.0
 10
-40.8651
 20
9.209
 30
0.0
 10
-41.0575
 20
9.2335
 30
0.0
 10
-41.2028
 20
9.2829
 30
0.0
 10
-41.2028
 20
9.2829
 30
0.0
 10
-41.3486
 20
9.3318
 30
0.0
 10
-41.461
 20
9.4052
 30
0.0
 10
-41.5401
 20
9.5021
 30
0.0
 10
-41.5401
 20
9.5021
 30
0.0
 10
-41.6191
 20
9.599
 30
0.0
 10
-41.6586
 20
9.7208
 30
0.0
 10
-41.6586
 20
9.8675
 30
0.0
 10
-41.6586
 20
9.8675
 30
0.0
 10
-41.6586
 20
9.9762
 30
0.0
 10
-41.6365
 20
10.0712
 30
0.0
 10
-41.5927
 20
10.153
 30
0.0
 10
-41.5927
 20
10.153
 30
0.0
 10
-41.5495
 20
10.2349
 30
0.0
 10
-41.4864
 20
10.3022
 30
0.0
 10
-41.4041
 20
10.3558
 30
0.0
 10
-41.4041
 20
10.3558
 30
0.0
 10
-41.3218
 20
10.4089
 30
0.0
 10
-41.2216
 20
10.4508
 30
0.0
 10
-41.1036
 20
10.4809
 30
0.0
 10
-41.1036
 20
10.4809
 30
0.0
 10
-40.9855
 20
10.5115
 30
0.0
 10
-40.8265
 20
10.5265
 30
0.0
 10
-40.6261
 20
10.5265
 30
0.0
 10
-40.6261
 20
10.5265
 30
0.0
 10
-40.3891
 20
10.5265
 30
0.0
 10
-40.1981
 20
10.5021
 30
0.0
 10
-40.0523
 20
10.4536
 30
0.0
 10
-40.0523
 20
10.4536
 30
0.0
 10
-39.9065
 20
10.4047
 30
0.0
 10
-39.7941
 20
10.3318
 30
0.0
 10
-39.7146
 20
10.2349
 30
0.0
 10
-39.7146
 20
10.2349
 30
0.0
 10
-39.6351
 20
10.138
 30
0.0
 10
-39.5956
 20
10.0157
 30
0.0
 10
-39.5956
 20
9.8675
 30
0.0
 10
-39.5956
 20
9.8675
 30
0.0
 10
-39.5956
 20
9.6728
 30
0.0
 10
-39.6652
 20
9.5199
 30
0.0
 10
-39.8049
 20
9.4089
 30
0.0
 10
-39.8049
 20
9.4089
 30
0.0
 10
-39.9728
 20
9.2758
 30
0.0
 10
-40.247
 20
9.209
 30
0.0
 10
-40.6261
 20
9.209
 30
0.0
  0
SPLINE
  5
51
330
1F
100
AcDbEntity
  8
ROUND
 62
   250
100
AcDbSpline
210
0.0
220
0.0
230
1.0
 70
    11
 71
     3
 72
    36
 73
    32
 74
     0
 42
0.0000000001
 43
0.0000000001
 40
0.0
 40
0.0
 40
0.0
 40
0.0
 40
0.1111111111111111
 40
0.1111111111111111
 40
0.1111111111111111
 40
0.1111111111111111
 40
0.2222222222222222
 40
0.2222222222222222
 40
0.2222222222222222
 40
0.2222222222222222
 40
0.3333333333333333
 40
0.3333333333333333
 40
0.3333333333333333
 40
0.3333333333333333
 40
0.4444444444444444
 40
0.4444444444444444
 40
0.4444444444444444
 40
0.4444444444444444
 40
0.5555555555555556
 40
0.5555555555555556
 40
0.5555555555555556
 40
0.5555555555555556
 40
0.6666666666666666
 40
0.6666666666666666
 40
0.6666666666666666
 40
0.6666666666666666
 40
0.7777777777777778
 40
0.7777777777777778
 40
0.7777777777777778
 40
0.7777777777777778
 40
1.0
 40
1.0
 40
1.0
 40
1.0
 10
-40.6261
 20
9.464
 30
0.0
 10
-40.2945
 20
9.464
 30
0.0
 10
-40.0739
 20
9.503
 30
0.0
 10
-39.9639
 20
9.5806
 30
0.0
 10
-39.9639
 20
9.5806
 30
0.0
 10
-39.8543
 20
9.6582
 30
0.0
 10
-39.7992
 20
9.7537
 30
0.0
 10
-39.7992
 20
9.8675
 30
0.0
 10
-39.7992
 20
9.8675
 30
0.0
 10
-39.7992
 20
9.9818
 30
0.0
 10
-39.8547
 20
10.0773
 30
0.0
 10
-39.9648
 20
10.1549
 30
0.0
 10
-39.9648
 20
10.1549
 30
0.0
 10
-40.0749
 20
10.2325
 30
0.0
 10
-40.2955
 20
10.2716
 30
0.0
 10
-40.6261
 20
10.2716
 30
0.0
 10
-40.6261
 20
10.2716
 30
0.0
 10
-40.9587
 20
10.2716
 30
0.0
 10
-41.1798
 20
10.2325
 30
0.0
 10
-41.2889
 20
10.1549
 30
0.0
 10
-41.2889
 20
10.1549
 30
0.0
 10
-41.3985
 20
10.0773
 30
0.0
 10
-41.453
 20
9.9809
 30
0.0
 10
-41.453
 20
9.8652
 30
0.0
 10
-41.453
 20
9.8652
 30
0.0
 10
-41.453
 20
9.7509
 30
0.0
 10
-41.4046
 20
9.6601
 30
0.0
 10
-41.3082
 20
9.5919
 30
0.0
 10
-41.3082
 20
9.5919
 30
0.0
 10
-41.1854
 20
9.5068
 30
0.0
 10
-40.9577
 20
9.464
 30
0.0
 10
-40.6261
 20
9.464
 30
0.0
  0
SPLINE
  5
52
330
1F
100
AcDbEntity
  8
ROUND
 62
   250
100
AcDbSpline
210
0.0
220
0.0
230
1.0
 70
    11
 71
     3
 72
    84
 73
    80
 74
     0
 42
0.0000000001
 43
0.0000000001
 40
0.0
 40
0.0
 40
0.0
 40
0.0
 40
0.0476190476190476
 40
0.0476190476190476
 40
0.0476190476190476
 40
0.0476190476190476
 40
0.0952380952380952
 40
0.0952380952380952
 40
0.0952380952380952
 40
0.0952380952380952
 40
0.1428571428571428
 40
0.1428571428571428
 40
0.1428571428571428
 40
0.1428571428571428
 40
0.1904761904761905
 40
0.1904761904761905
 40
0.1904761904761905
 40
0.1904761904761905
 40
0.2380952380952381
 40
0.2380952380952381
 40
0.2380952380952381
 40
0.2380952380952381
 40
0.2857142857142857
 40
0.2857142857142857
 40
0.2857142857142857
 40
0.2857142857142857
 40
0.3333333333333333
 40
0.3333333333333333
 40
0.3333333333333333
 40
0.3333333333333333
 40
0.3809523809523809
 40
0.3809523809523809
 40
0.3809523809523809
 40
0.3809523809523809
 40
0.4285714285714285
 40
0.4285714285714285
 40
0.4285714285714285
 40
0.4285714285714285
 40
0.4761904761904762
 40
0.4761904761904762
 40
0.4761904761904762
 40
0.4761904761904762
 40
0.5238095238095238
 40
0.5238095238095238
 40
0.5238095238095238
 40
0.5238095238095238
 40
0.5714285714285714
 40
0.5714285714285714
 40
0.5714285714285714
 40
0.5714285714285714
 40
0.6190476190476191
 40
0.6190476190476191
 40
0.6190476190476191
 40
0.6190476190476191
 40
0.6666666666666666
 40
0.6666666666666666
 40
0.6666666666666666
 40
0.6666666666666666
 40
0.7142857142857143
 40
0.7142857142857143
 40
0.7142857142857143
 40
0.7142857142857143
 40
0.7619047619047619
 40
0.7619047619047619
 40
0.7619047619047619
 40
0.7619047619047619
 40
0.8095238095238095
 40
0.8095238095238095
 40
0.8095238095238095
 40
0.8095238095238095
 40
0.8571428571428571
 40
0.8571428571428571
 40
0.8571428571428571
 40
0.8571428571428571
 40
0.9047619047619048
 40
0.9047619047619048
 40
0.9047619047619048
 40
0.9047619047619048
 40
1.0
 40
1.0
 40
1.0
 40
1.0
 10
5.7633
 20
3.9179
 30
0.0
 10
5.7633
 20
3.9179
 30
0.0
 10
5.5041
 20
4.1494
 30
0.0
 10
5.5041
 20
4.1494
 30
0.0
 10
5.5041
 20
4.1494
 30
0.0
 10
5.5041
 20
4.1494
 30
0.0
 10
5.6198
 20
4.2857
 30
0.0
 10
5.6198
 20
4.2857
 30
0.0
 10
5.6198
 20
4.2857
 30
0.0
 10
5.6198
 20
4.2857
 30
0.0
 10
5.8927
 20
4.0435
 30
0.0
 10
5.8927
 20
4.0435
 30
0.0
 10
5.8927
 20
4.0435
 30
0.0
 10
6.0102
 20
4.1225
 30
0.0
 10
6.1132
 20
4.1757
 30
0.0
 10
6.2013
 20
4.2034
 30
0.0
 10
6.2013
 20
4.2034
 30
0.0
 10
6.317
 20
4.2402
 30
0.0
 10
6.4467
 20
4.2585
 30
0.0
 10
6.5897
 20
4.2585
 30
0.0
 10
6.5897
 20
4.2585
 30
0.0
 10
6.7967
 20
4.2585
 30
0.0
 10
6.9811
 20
4.2166
 30
0.0
 10
7.1424
 20
4.1328
 30
0.0
 10
7.1424
 20
4.1328
 30
0.0
 10
7.3043
 20
4.0491
 30
0.0
 10
7.4266
 20
3.9321
 30
0.0
 10
7.5093
 20
3.781
 30
0.0
 10
7.5093
 20
3.781
 30
0.0
 10
7.5916
 20
3.6296
 30
0.0
 10
7.6331
 20
3.4692
 30
0.0
 10
7.6331
 20
3.2994
 30
0.0
 10
7.6331
 20
3.2994
 30
0.0
 10
7.6331
 20
3.1724
 30
0.0
 10
7.6151
 20
3.0576
 30
0.0
 10
7.5794
 20
2.9546
 30
0.0
 10
7.5794
 20
2.9546
 30
0.0
 10
7.5516
 20
2.8756
 30
0.0
 10
7.4989
 20
2.7833
 30
0.0
 10
7.4209
 20
2.6775
 30
0.0
 10
7.4209
 20
2.6775
 30
0.0
 10
7.4209
 20
2.6775
 30
0.0
 10
7.68
 20
2.4461
 30
0.0
 10
7.68
 20
2.4461
 30
0.0
 10
7.68
 20
2.4461
 30
0.0
 10
7.68
 20
2.4461
 30
0.0
 10
7.5643
 20
2.3097
 30
0.0
 10
7.5643
 20
2.3097
 30
0.0
 10
7.5643
 20
2.3097
 30
0.0
 10
7.5643
 20
2.3097
 30
0.0
 10
7.293
 20
2.5524
 30
0.0
 10
7.293
 20
2.5524
 30
0.0
 10
7.293
 20
2.5524
 30
0.0
 10
7.1561
 20
2.4622
 30
0.0
 10
7.0389
 20
2.4019
 30
0.0
 10
6.942
 20
2.3717
 30
0.0
 10
6.942
 20
2.3717
 30
0.0
 10
6.8451
 20
2.3417
 30
0.0
 10
6.7286
 20
2.3262
 30
0.0
 10
6.5926
 20
2.3262
 30
0.0
 10
6.5926
 20
2.3262
 30
0.0
 10
6.3851
 20
2.3262
 30
0.0
 10
6.2003
 20
2.3675
 30
0.0
 10
6.038
 20
2.4503
 30
0.0
 10
6.038
 20
2.4503
 30
0.0
 10
5.8757
 20
2.5331
 30
0.0
 10
5.7529
 20
2.6488
 30
0.0
 10
5.6693
 20
2.7984
 30
0.0
 10
5.6693
 20
2.7984
 30
0.0
 10
5.5859
 20
2.9475
 30
0.0
 10
5.5441
 20
3.1136
 30
0.0
 10
5.5441
 20
3.2966
 30
0.0
 10
5.5441
 20
3.2966
 30
0.0
 10
5.5441
 20
3.4198
 30
0.0
 10
5.56
 20
3.5274
 30
0.0
 10
5.593
 20
3.6197
 30
0.0
 10
5.593
 20
3.6197
 30
0.0
 10
5.6254
 20
3.7119
 30
0.0
 10
5.6825
 20
3.8116
 30
0.0
 10
5.7633
 20
3.9179
 30
0.0
  0
SPLINE
  5
53
330
1F
100
AcDbEntity
  8
ROUND
 62
   250
100
AcDbSpline
210
0.0
220
0.0
230
1.0
 70
    11
 71
     3
 72
    32
 73
    28
 74
     0
 42
0.0000000001
 43
0.0000000001
 40
0.0
 40
0.0
 40
0.0
 40
0.0
 40
0.125
 40
0.125
 40
0.125
 40
0.125
 40
0.25
 40
0.25
 40
0.25
 40
0.25
 40
0.375
 40
0.375
 40
0.375
 40
0.375
 40
0.5
 40
0.5
 40
0.5
 40
0.5
 40
0.625
 40
0.625
 40
0.625
 40
0.625
 40
0.75
 40
0.75
 40
0.75
 40
0.75
 40
1.0
 40
1.0
 40
1.0
 40
1.0
 10
5.9491
 20
3.7529
 30
0.0
 10
5.8813
 20
3.6663
 30
0.0
 10
5.8348
 20
3.5906
 30
0.0
 10
5.8099
 20
3.5261
 30
0.0
 10
5.8099
 20
3.5261
 30
0.0
 10
5.7854
 20
3.4612
 30
0.0
 10
5.7727
 20
3.385
 30
0.0
 10
5.7727
 20
3.2979
 30
0.0
 10
5.7727
 20
3.2979
 30
0.0
 10
5.7727
 20
3.0967
 30
0.0
 10
5.8409
 20
2.9305
 30
0.0
 10
5.9774
 20
2.7989
 30
0.0
 10
5.9774
 20
2.7989
 30
0.0
 10
6.1137
 20
2.6676
 30
0.0
 10
6.3173
 20
2.6018
 30
0.0
 10
6.5888
 20
2.6018
 30
0.0
 10
6.5888
 20
2.6018
 30
0.0
 10
6.6951
 20
2.6018
 30
0.0
 10
6.7897
 20
2.6121
 30
0.0
 10
6.8724
 20
2.6324
 30
0.0
 10
6.8724
 20
2.6324
 30
0.0
 10
6.934
 20
2.647
 30
0.0
 10
7.0098
 20
2.6775
 30
0.0
 10
7.0997
 20
2.7246
 30
0.0
 10
7.0997
 20
2.7246
 30
0.0
 10
7.0997
 20
2.7246
 30
0.0
 10
5.9491
 20
3.7529
 30
0.0
 10
5.9491
 20
3.7529
 30
0.0
  0
SPLINE
  5
54
330
1F
100
AcDbEntity
  8
ROUND
 62
   250
100
AcDbSpline
210
0.0
220
0.0
230
1.0
 70
    11
 71
     3
 72
    28
 73
    24
 74
     0
 42
0.0000000001
 43
0.0000000001
 40
0.0
 40
0.0
 40
0.0
 40
0.0
 40
0.1428571428571428
 40
0.1428571428571428
 40
0.1428571428571428
 40
0.1428571428571428
 40
0.2857142857142857
 40
0.2857142857142857
 40
0.2857142857142857
 40
0.2857142857142857
 40
0.4285714285714285
 40
0.4285714285714285
 40
0.4285714285714285
 40
0.4285714285714285
 40
0.5714285714285714
 40
0.5714285714285714
 40
0.5714285714285714
 40
0.5714285714285714
 40
0.7142857142857143
 40
0.7142857142857143
 40
0.7142857142857143
 40
0.7142857142857143
 40
1.0
 40
1.0
 40
1.0
 40
1.0
 10
6.0912
 20
3.8657
 30
0.0
 10
6.0912
 20
3.8657
 30
0.0
 10
7.2374
 20
2.8417
 30
0.0
 10
7.2374
 20
2.8417
 30
0.0
 10
7.2374
 20
2.8417
 30
0.0
 10
7.2953
 20
2.9122
 30
0.0
 10
7.3358
 20
2.9776
 30
0.0
 10
7.3588
 20
3.0374
 30
0.0
 10
7.3588
 20
3.0374
 30
0.0
 10
7.3894
 20
3.1155
 30
0.0
 10
7.4044
 20
3.2002
 30
0.0
 10
7.4044
 20
3.2909
 30
0.0
 10
7.4044
 20
3.2909
 30
0.0
 10
7.4044
 20
3.4913
 30
0.0
 10
7.3339
 20
3.6563
 30
0.0
 10
7.1923
 20
3.7871
 30
0.0
 10
7.1923
 20
3.7871
 30
0.0
 10
7.0507
 20
3.9175
 30
0.0
 10
6.8522
 20
3.9829
 30
0.0
 10
6.5968
 20
3.9829
 30
0.0
 10
6.5968
 20
3.9829
 30
0.0
 10
6.4059
 20
3.9829
 30
0.0
 10
6.237
 20
3.9438
 30
0.0
 10
6.0912
 20
3.8657
 30
0.0
  0
SPLINE
  5
55
330
1F
100
AcDbEntity
  8
ROUND
 62
   250
100
AcDbSpline
210
0.0
220
0.0
230
1.0
 70
    11
 71
     3
 72
   124
 73
   120
 74
     0
 42
0.0000000001
 43
0.0000000001
 40
0.0
 40
0.0
 40
0.0
 40
0.0
 40
0.032258064516129
 40
0.032258064516129
 40
0.032258064516129
 40
0.032258064516129
 40
0.0645161290322581
 40
0.0645161290322581
 40
0.0645161290322581
 40
0.0645161290322581
 40
0.0967741935483871
 40
0.0967741935483871
 40
0.0967741935483871
 40
0.0967741935483871
 40
0.1290322580645161
 40
0.1290322580645161
 40
0.1290322580645161
 40
0.1290322580645161
 40
0.1612903225806452
 40
0.1612903225806452
 40
0.1612903225806452
 40
0.1612903225806452
 40
0.1935483870967742
 40
0.1935483870967742
 40
0.1935483870967742
 40
0.1935483870967742
 40
0.2258064516129032
 40
0.2258064516129032
 40
0.2258064516129032
 40
0.2258064516129032
 40
0.2580645161290323
 40
0.2580645161290323
 40
0.2580645161290323
 40
0.2580645161290323
 40
0.2903225806451613
 40
0.2903225806451613
 40
0.2903225806451613
 40
0.2903225806451613
 40
0.3225806451612903
 40
0.3225806451612903
 40
0.3225806451612903
 40
0.3225806451612903
 40
0.3548387096774194
 40
0.3548387096774194
 40
0.3548387096774194
 40
0.3548387096774194
 40
0.3870967741935484
 40
0.3870967741935484
 40
0.3870967741935484
 40
0.3870967741935484
 40
0.4193548387096774
 40
0.4193548387096774
 40
0.4193548387096774
 40
0.4193548387096774
 40
0.4516129032258064
 40
0.4516129032258064
 40
0.4516129032258064
 40
0.4516129032258064
 40
0.4838709677419355
 40
0.4838709677419355
 40
0.4838709677419355
 40
0.4838709677419355
 40
0.5161290322580645
 40
0.5161290322580645
 40
0.5161290322580645
 40
0.5161290322580645
 40
0.5483870967741935
 40
0.5483870967741935
 40
0.5483870967741935
 40
0.5483870967741935
 40
0.5806451612903226
 40
0.5806451612903226
 40
0.5806451612903226
 40
0.5806451612903226
 40
0.6129032258064516
 40
0.6129032258064516
 40
0.6129032258064516
 40
0.6129032258064516
 40
0.6451612903225806
 40
0.6451612903225806
 40
0.6451612903225806
 40
0.6451612903225806
 40
0.6774193548387096
 40
0.6774193548387096
 40
0.6774193548387096
 40
0.6774193548387096
 40
0.7096774193548387
 40
0.7096774193548387
 40
0.7096774193548387
 40
0.7096774193548387
 40
0.7419354838709677
 40
0.7419354838709677
 40
0.7419354838709677
 40
0.7419354838709677
 40
0.7741935483870968
 40
0.7741935483870968
 40
0.7741935483870968
 40
0.7741935483870968
 40
0.8064516129032258
 40
0.8064516129032258
 40
0.8064516129032258
 40
0.8064516129032258
 40
0.8387096774193549
 40
0.8387096774193549
 40
0.8387096774193549
 40
0.8387096774193549
 40
0.8709677419354839
 40
0.8709677419354839
 40
0.8709677419354839
 40
0.8709677419354839
 40
0.9032258064516129
 40
0.9032258064516129
 40
0.9032258064516129
 40
0.9032258064516129
 40
0.9354838709677419
 40
0.9354838709677419
 40
0.9354838709677419
 40
0.9354838709677419
 40
1.0
 40
1.0
 40
1.0
 40
1.0
 10
7.0653
 20
4.5092
 30
0.0
 10
7.0653
 20
4.5092
 30
0.0
 10
7.0323
 20
4.757
 30
0.0
 10
7.0323
 20
4.757
 30
0.0
 10
7.0323
 20
4.757
 30
0.0
 10
7.173
 20
4.7858
 30
0.0
 10
7.2742
 20
4.8342
 30
0.0
 10
7.3362
 20
4.9023
 30
0.0
 10
7.3362
 20
4.9023
 30
0.0
 10
7.3983
 20
4.9711
 30
0.0
 10
7.4293
 20
5.0543
 30
0.0
 10
7.4293
 20
5.1527
 30
0.0
 10
7.4293
 20
5.1527
 30
0.0
 10
7.4293
 20
5.2692
 30
0.0
 10
7.3889
 20
5.3681
 30
0.0
 10
7.308
 20
5.4484
 30
0.0
 10
7.308
 20
5.4484
 30
0.0
 10
7.2271
 20
5.5285
 30
0.0
 10
7.127
 20
5.5689
 30
0.0
 10
7.0074
 20
5.5689
 30
0.0
 10
7.0074
 20
5.5689
 30
0.0
 10
6.8936
 20
5.5689
 30
0.0
 10
6.7995
 20
5.5317
 30
0.0
 10
6.7257
 20
5.4574
 30
0.0
 10
6.7257
 20
5.4574
 30
0.0
 10
6.6518
 20
5.3827
 30
0.0
 10
6.6147
 20
5.2881
 30
0.0
 10
6.6147
 20
5.1733
 30
0.0
 10
6.6147
 20
5.1733
 30
0.0
 10
6.6147
 20
5.1262
 30
0.0
 10
6.6241
 20
5.068
 30
0.0
 10
6.6424
 20
4.9983
 30
0.0
 10
6.6424
 20
4.9983
 30
0.0
 10
6.6424
 20
4.9983
 30
0.0
 10
6.4247
 20
5.0261
 30
0.0
 10
6.4247
 20
5.0261
 30
0.0
 10
6.4247
 20
5.0261
 30
0.0
 10
6.4266
 20
5.0426
 30
0.0
 10
6.4274
 20
5.0558
 30
0.0
 10
6.4274
 20
5.0661
 30
0.0
 10
6.4274
 20
5.0661
 30
0.0
 10
6.4274
 20
5.1715
 30
0.0
 10
6.3997
 20
5.2665
 30
0.0
 10
6.3447
 20
5.3512
 30
0.0
 10
6.3447
 20
5.3512
 30
0.0
 10
6.2897
 20
5.4357
 30
0.0
 10
6.2045
 20
5.4781
 30
0.0
 10
6.0897
 20
5.4781
 30
0.0
 10
6.0897
 20
5.4781
 30
0.0
 10
5.9989
 20
5.4781
 30
0.0
 10
5.9232
 20
5.4471
 30
0.0
 10
5.8639
 20
5.3854
 30
0.0
 10
5.8639
 20
5.3854
 30
0.0
 10
5.8042
 20
5.3239
 30
0.0
 10
5.7741
 20
5.2443
 30
0.0
 10
5.7741
 20
5.1469
 30
0.0
 10
5.7741
 20
5.1469
 30
0.0
 10
5.7741
 20
5.0505
 30
0.0
 10
5.8047
 20
4.9701
 30
0.0
 10
5.8649
 20
4.9062
 30
0.0
 10
5.8649
 20
4.9062
 30
0.0
 10
5.9255
 20
4.8417
 30
0.0
 10
6.0168
 20
4.8003
 30
0.0
 10
6.1381
 20
4.7819
 30
0.0
 10
6.1381
 20
4.7819
 30
0.0
 10
6.1381
 20
4.7819
 30
0.0
 10
6.0939
 20
4.5341
 30
0.0
 10
6.0939
 20
4.5341
 30
0.0
 10
6.0939
 20
4.5341
 30
0.0
 10
5.9274
 20
4.5642
 30
0.0
 10
5.7985
 20
4.6333
 30
0.0
 10
5.7074
 20
4.7406
 30
0.0
 10
5.7074
 20
4.7406
 30
0.0
 10
5.6161
 20
4.8483
 30
0.0
 10
5.57
 20
4.9819
 30
0.0
 10
5.57
 20
5.1418
 30
0.0
 10
5.57
 20
5.1418
 30
0.0
 10
5.57
 20
5.2519
 30
0.0
 10
5.5939
 20
5.3535
 30
0.0
 10
5.641
 20
5.4462
 30
0.0
 10
5.641
 20
5.4462
 30
0.0
 10
5.6886
 20
5.5388
 30
0.0
 10
5.7529
 20
5.6098
 30
0.0
 10
5.8348
 20
5.6593
 30
0.0
 10
5.8348
 20
5.6593
 30
0.0
 10
5.9166
 20
5.7081
 30
0.0
 10
6.0031
 20
5.7331
 30
0.0
 10
6.0954
 20
5.7331
 30
0.0
 10
6.0954
 20
5.7331
 30
0.0
 10
6.1823
 20
5.7331
 30
0.0
 10
6.2619
 20
5.7096
 30
0.0
 10
6.3339
 20
5.6625
 30
0.0
 10
6.3339
 20
5.6625
 30
0.0
 10
6.4054
 20
5.6154
 30
0.0
 10
6.4623
 20
5.5463
 30
0.0
 10
6.5046
 20
5.4547
 30
0.0
 10
6.5046
 20
5.4547
 30
0.0
 10
6.5319
 20
5.5741
 30
0.0
 10
6.5893
 20
5.6667
 30
0.0
 10
6.6763
 20
5.7331
 30
0.0
 10
6.6763
 20
5.7331
 30
0.0
 10
6.7628
 20
5.7989
 30
0.0
 10
6.8715
 20
5.8319
 30
0.0
 10
7.0018
 20
5.8319
 30
0.0
 10
7.0018
 20
5.8319
 30
0.0
 10
7.1781
 20
5.8319
 30
0.0
 10
7.3277
 20
5.7679
 30
0.0
 10
7.4505
 20
5.639
 30
0.0
 10
7.4505
 20
5.639
 30
0.0
 10
7.5733
 20
5.5106
 30
0.0
 10
7.6344
 20
5.3478
 30
0.0
 10
7.6344
 20
5.1512
 30
0.0
 10
7.6344
 20
5.1512
 30
0.0
 10
7.6344
 20
4.9738
 30
0.0
 10
7.5818
 20
4.8266
 30
0.0
 10
7.4759
 20
4.7095
 30
0.0
 10
7.4759
 20
4.7095
 30
0.0
 10
7.3705
 20
4.5924
 30
0.0
 10
7.2337
 20
4.5256
 30
0.0
 10
7.0653
 20
4.5092
 30
0.0
  0
SPLINE
  5
56
330
1F
100
AcDbEntity
  8
ROUND
 62
   250
100
AcDbSpline
210
0.0
220
0.0
230
1.0
 70
    11
 71
     3
 72
    92
 73
    88
 74
     0
 42
0.0000000001
 43
0.0000000001
 40
0.0
 40
0.0
 40
0.0
 40
0.0
 40
0.0434782608695652
 40
0.0434782608695652
 40
0.0434782608695652
 40
0.0434782608695652
 40
0.0869565217391304
 40
0.0869565217391304
 40
0.0869565217391304
 40
0.0869565217391304
 40
0.1304347826086956
 40
0.1304347826086956
 40
0.1304347826086956
 40
0.1304347826086956
 40
0.1739130434782609
 40
0.1739130434782609
 40
0.1739130434782609
 40
0.1739130434782609
 40
0.2173913043478261
 40
0.2173913043478261
 40
0.2173913043478261
 40
0.2173913043478261
 40
0.2608695652173913
 40
0.2608695652173913
 40
0.2608695652173913
 40
0.2608695652173913
 40
0.3043478260869565
 40
0.3043478260869565
 40
0.3043478260869565
 40
0.3043478260869565
 40
0.3478260869565217
 40
0.3478260869565217
 40
0.3478260869565217
 40
0.3478260869565217
 40
0.391304347826087
 40
0.391304347826087
 40
0.391304347826087
 40
0.391304347826087
 40
0.4347826086956522
 40
0.4347826086956522
 40
0.4347826086956522
 40
0.4347826086956522
 40
0.4782608695652174
 40
0.4782608695652174
 40
0.4782608695652174
 40
0.4782608695652174
 40
0.5217391304347826
 40
0.5217391304347826
 40
0.5217391304347826
 40
0.5217391304347826
 40
0.5652173913043478
 40
0.5652173913043478
 40
0.5652173913043478
 40
0.5652173913043478
 40
0.6086956521739131
 40
0.6086956521739131
 40
0.6086956521739131
 40
0.6086956521739131
 40
0.6521739130434783
 40
0.6521739130434783
 40
0.6521739130434783
 40
0.6521739130434783
 40
0.6956521739130435
 40
0.6956521739130435
 40
0.6956521739130435
 40
0.6956521739130435
 40
0.7391304347826086
 40
0.7391304347826086
 40
0.7391304347826086
 40
0.7391304347826086
 40
0.782608695652174
 40
0.782608695652174
 40
0.782608695652174
 40
0.782608695652174
 40
0.8260869565217391
 40
0.8260869565217391
 40
0.8260869565217391
 40
0.8260869565217391
 40
0.8695652173913043
 40
0.8695652173913043
 40
0.8695652173913043
 40
0.8695652173913043
 40
0.9130434782608695
 40
0.9130434782608695
 40
0.9130434782608695
 40
0.9130434782608695
 40
1.0
 40
1.0
 40
1.0
 40
1.0
 10
7.3602
 20
7.3812
 30
0.0
 10
7.3602
 20
7.3812
 30
0.0
 10
7.5987
 20
7.3812
 30
0.0
 10
7.5987
 20
7.3812
 30
0.0
 10
7.5987
 20
7.3812
 30
0.0
 10
7.5987
 20
7.3812
 30
0.0
 10
7.5987
 20
6.0458
 30
0.0
 10
7.5987
 20
6.0458
 30
0.0
 10
7.5987
 20
6.0458
 30
0.0
 10
7.5389
 20
6.044
 30
0.0
 10
7.4816
 20
6.0534
 30
0.0
 10
7.4266
 20
6.0746
 30
0.0
 10
7.4266
 20
6.0746
 30
0.0
 10
7.3353
 20
6.1085
 30
0.0
 10
7.2459
 20
6.163
 30
0.0
 10
7.1575
 20
6.2377
 30
0.0
 10
7.1575
 20
6.2377
 30
0.0
 10
7.0695
 20
6.3131
 30
0.0
 10
6.9674
 20
6.4212
 30
0.0
 10
6.8517
 20
6.5624
 30
0.0
 10
6.8517
 20
6.5624
 30
0.0
 10
6.6716
 20
6.782
 30
0.0
 10
6.5291
 20
6.9307
 30
0.0
 10
6.4237
 20
7.0077
 30
0.0
 10
6.4237
 20
7.0077
 30
0.0
 10
6.3188
 20
7.085
 30
0.0
 10
6.2191
 20
7.1236
 30
0.0
 10
6.1254
 20
7.1236
 30
0.0
 10
6.1254
 20
7.1236
 30
0.0
 10
6.0272
 20
7.1236
 30
0.0
 10
5.9444
 20
7.0882
 30
0.0
 10
5.8766
 20
7.0181
 30
0.0
 10
5.8766
 20
7.0181
 30
0.0
 10
5.8094
 20
6.9476
 30
0.0
 10
5.7755
 20
6.8558
 30
0.0
 10
5.7755
 20
6.743
 30
0.0
 10
5.7755
 20
6.743
 30
0.0
 10
5.7755
 20
6.6236
 30
0.0
 10
5.8112
 20
6.528
 30
0.0
 10
5.8832
 20
6.4565
 30
0.0
 10
5.8832
 20
6.4565
 30
0.0
 10
5.9547
 20
6.3846
 30
0.0
 10
6.0539
 20
6.3483
 30
0.0
 10
6.1805
 20
6.3473
 30
0.0
 10
6.1805
 20
6.3473
 30
0.0
 10
6.1805
 20
6.3473
 30
0.0
 10
6.1547
 20
6.0924
 30
0.0
 10
6.1547
 20
6.0924
 30
0.0
 10
6.1547
 20
6.0924
 30
0.0
 10
5.9642
 20
6.1098
 30
0.0
 10
5.8193
 20
6.1757
 30
0.0
 10
5.7196
 20
6.2895
 30
0.0
 10
5.7196
 20
6.2895
 30
0.0
 10
5.6198
 20
6.4034
 30
0.0
 10
5.57
 20
6.5567
 30
0.0
 10
5.57
 20
6.7486
 30
0.0
 10
5.57
 20
6.7486
 30
0.0
 10
5.57
 20
6.9424
 30
0.0
 10
5.624
 20
7.0958
 30
0.0
 10
5.7313
 20
7.2086
 30
0.0
 10
5.7313
 20
7.2086
 30
0.0
 10
5.839
 20
7.322
 30
0.0
 10
5.9721
 20
7.3785
 30
0.0
 10
6.1312
 20
7.3785
 30
0.0
 10
6.1312
 20
7.3785
 30
0.0
 10
6.212
 20
7.3785
 30
0.0
 10
6.2916
 20
7.3619
 30
0.0
 10
6.3696
 20
7.3286
 30
0.0
 10
6.3696
 20
7.3286
 30
0.0
 10
6.4477
 20
7.2957
 30
0.0
 10
6.5301
 20
7.2406
 30
0.0
 10
6.6161
 20
7.1639
 30
0.0
 10
6.6161
 20
7.1639
 30
0.0
 10
6.7027
 20
7.0873
 30
0.0
 10
6.8212
 20
6.9598
 30
0.0
 10
6.9717
 20
6.7816
 30
0.0
 10
6.9717
 20
6.7816
 30
0.0
 10
7.0968
 20
6.6329
 30
0.0
 10
7.1815
 20
6.5374
 30
0.0
 10
7.2262
 20
6.495
 30
0.0
 10
7.2262
 20
6.495
 30
0.0
 10
7.2704
 20
6.4528
 30
0.0
 10
7.315
 20
6.4179
 30
0.0
 10
7.3602
 20
6.3902
 30
0.0
 10
7.3602
 20
6.3902
 30
0.0
 10
7.3602
 20
6.3902
 30
0.0
 10
7.3602
 20
7.3812
 30
0.0
 10
7.3602
 20
7.3812
 30
0.0
  0
SPLINE
  5
57
330
1F
100
AcDbEntity
  8
ROUND
 62
   250
100
AcDbSpline
210
0.0
220
0.0
230
1.0
 70
    11
 71
     3
 72
    20
 73
    16
 74
     0
 42
0.0000000001
 43
0.0000000001
 40
0.0
 40
0.0
 40
0.0
 40
0.0
 40
0.2
 40
0.2
 40
0.2
 40
0.2
 40
0.4
 40
0.4
 40
0.4
 40
0.4
 40
0.6
 40
0.6
 40
0.6
 40
0.6
 40
1.0
 40
1.0
 40
1.0
 40
1.0
 10
8.977
 20
2.3499
 30
0.0
 10
8.977
 20
2.3499
 30
0.0
 10
8.5536
 20
-0.6501
 30
0.0
 10
8.5536
 20
-0.6501
 30
0.0
 10
8.5536
 20
-0.6501
 30
0.0
 10
8.5536
 20
-0.6501
 30
0.0
 10
8.4595
 20
-0.6501
 30
0.0
 10
8.4595
 20
-0.6501
 30
0.0
 10
8.4595
 20
-0.6501
 30
0.0
 10
8.4595
 20
-0.6501
 30
0.0
 10
8.008
 20
2.3499
 30
0.0
 10
8.008
 20
2.3499
 30
0.0
 10
8.008
 20
2.3499
 30
0.0
 10
8.008
 20
2.3499
 30
0.0
 10
8.977
 20
2.3499
 30
0.0
 10
8.977
 20
2.3499
 30
0.0
  0
SPLINE
  5
58
330
1F
100
AcDbEntity
  8
ROUND
 62
   250
100
AcDbSpline
210
0.0
220
0.0
230
1.0
 70
    11
 71
     3
 72
    20
 73
    16
 74
     0
 42
0.0000000001
 43
0.0000000001
 40
0.0
 40
0.0
 40
0.0
 40
0.0
 40
0.2
 40
0.2
 40
0.2
 40
0.2
 40
0.4
 40
0.4
 40
0.4
 40
0.4
 40
0.6
 40
0.6
 40
0.6
 40
0.6
 40
1.0
 40
1.0
 40
1.0
 40
1.0
 10
8.0228
 20
-13.0467
 30
0.0
 10
8.0228
 20
-13.0467
 30
0.0
 10
8.4462
 20
-10.0466
 30
0.0
 10
8.4462
 20
-10.0466
 30
0.0
 10
8.4462
 20
-10.0466
 30
0.0
 10
8.4462
 20
-10.0466
 30
0.0
 10
8.5402
 20
-10.0466
 30
0.0
 10
8.5402
 20
-10.0466
 30
0.0
 10
8.5402
 20
-10.0466
 30
0.0
 10
8.5402
 20
-10.0466
 30
0.0
 10
8.9918
 20
-13.0467
 30
0.0
 10
8.9918
 20
-13.0467
 30
0.0
 10
8.9918
 20
-13.0467
 30
0.0
 10
8.9918
 20
-13.0467
 30
0.0
 10
8.0228
 20
-13.0467
 30
0.0
 10
8.0228
 20
-13.0467
 30
0.0
  0
SPLINE
  5
59
330
1F
100
AcDbEntity
  8
ROUND
 62
   250
100
AcDbSpline
210
0.0
220
0.0
230
1.0
 70
    11
 71
     3
 72
    20
 73
    16
 74
     0
 42
0.0000000001
 43
0.0000000001
 40
0.0
 40
0.0
 40
0.0
 40
0.0
 40
0.2
 40
0.2
 40
0.2
 40
0.2
 40
0.4
 40
0.4
 40
0.4
 40
0.4
 40
0.6
 40
0.6
 40
0.6
 40
0.6
 40
1.0
 40
1.0
 40
1.0
 40
1.0
 10
-32.5662
 20
21.6057
 30
0.0
 10
-32.5662
 20
21.6057
 30
0.0
 10
-29.5662
 20
21.1823
 30
0.0
 10
-29.5662
 20
21.1823
 30
0.0
 10
-29.5662
 20
21.1823
 30
0.0
 10
-29.5662
 20
21.1823
 30
0.0
 10
-29.5662
 20
21.0883
 30
0.0
 10
-29.5662
 20
21.0883
 30
0.0
 10
-29.5662
 20
21.0883
 30
0.0
 10
-29.5662
 20
21.0883
 30
0.0
 10
-32.5662
 20
20.6368
 30
0.0
 10
-32.5662
 20
20.6368
 30
0.0
 10
-32.5662
 20
20.6368
 30
0.0
 10
-32.5662
 20
20.6368
 30
0.0
 10
-32.5662
 20
21.6057
 30
0.0
 10
-32.5662
 20
21.6057
 30
0.0
  0
SPLINE
  5
5A
330
1F
100
AcDbEntity
  8
ROUND
 62
   250
100
AcDbSpline
210
0.0
220
0.0
230
1.0
 70
    11
 71
     3
 72
    20
 73
    16
 74
     0
 42
0.0000000001
 43
0.0000000001
 40
0.0
 40
0.0
 40
0.0
 40
0.0
 40
0.2
 40
0.2
 40
0.2
 40
0.2
 40
0.4
 40
0.4
 40
0.4
 40
0.4
 40
0.6
 40
0.6
 40
0.6
 40
0.6
 40
1.0
 40
1.0
 40
1.0
 40
1.0
 10
-14.9885
 20
20.6118
 30
0.0
 10
-14.9885
 20
20.6118
 30
0.0
 10
-17.9886
 20
21.0352
 30
0.0
 10
-17.9886
 20
21.0352
 30
0.0
 10
-17.9886
 20
21.0352
 30
0.0
 10
-17.9886
 20
21.0352
 30
0.0
 10
-17.9886
 20
21.1292
 30
0.0
 10
-17.9886
 20
21.1292
 30
0.0
 10
-17.9886
 20
21.1292
 30
0.0
 10
-17.9886
 20
21.1292
 30
0.0
 10
-14.9885
 20
21.5807
 30
0.0
 10
-14.9885
 20
21.5807
 30
0.0
 10
-14.9885
 20
21.5807
 30
0.0
 10
-14.9885
 20
21.5807
 30
0.0
 10
-14.9885
 20
20.6118
 30
0.0
 10
-14.9885
 20
20.6118
 30
0.0
  0
SPLINE
  5
5B
330
1F
100
AcDbEntity
  8
ROUND
 62
   250
100
AcDbSpline
210
0.0
220
0.0
230
1.0
 70
    11
 71
     3
 72
    92
 73
    88
 74
     0
 42
0.0000000001
 43
0.0000000001
 40
0.0
 40
0.0
 40
0.0
 40
0.0
 40
0.0434782608695652
 40
0.0434782608695652
 40
0.0434782608695652
 40
0.0434782608695652
 40
0.0869565217391304
 40
0.0869565217391304
 40
0.0869565217391304
 40
0.0869565217391304
 40
0.1304347826086956
 40
0.1304347826086956
 40
0.1304347826086956
 40
0.1304347826086956
 40
0.1739130434782609
 40
0.1739130434782609
 40
0.1739130434782609
 40
0.1739130434782609
 40
0.2173913043478261
 40
0.2173913043478261
 40
0.2173913043478261
 40
0.2173913043478261
 40
0.2608695652173913
 40
0.2608695652173913
 40
0.2608695652173913
 40
0.2608695652173913
 40
0.3043478260869565
 40
0.3043478260869565
 40
0.3043478260869565
 40
0.3043478260869565
 40
0.3478260869565217
 40
0.3478260869565217
 40
0.3478260869565217
 40
0.3478260869565217
 40
0.391304347826087
 40
0.391304347826087
 40
0.391304347826087
 40
0.391304347826087
 40
0.4347826086956522
 40
0.4347826086956522
 40
0.4347826086956522
 40
0.4347826086956522
 40
0.4782608695652174
 40
0.4782608695652174
 40
0.4782608695652174
 40
0.4782608695652174
 40
0.5217391304347826
 40
0.5217391304347826
 40
0.5217391304347826
 40
0.5217391304347826
 40
0.5652173913043478
 40
0.5652173913043478
 40
0.5652173913043478
 40
0.5652173913043478
 40
0.6086956521739131
 40
0.6086956521739131
 40
0.6086956521739131
 40
0.6086956521739131
 40
0.6521739130434783
 40
0.6521739130434783
 40
0.6521739130434783
 40
0.6521739130434783
 40
0.6956521739130435
 40
0.6956521739130435
 40
0.6956521739130435
 40
0.6956521739130435
 40
0.7391304347826086
 40
0.7391304347826086
 40
0.7391304347826086
 40
0.7391304347826086
 40
0.782608695652174
 40
0.782608695652174
 40
0.782608695652174
 40
0.782608695652174
 40
0.8260869565217391
 40
0.8260869565217391
 40
0.8260869565217391
 40
0.8260869565217391
 40
0.8695652173913043
 40
0.8695652173913043
 40
0.8695652173913043
 40
0.8695652173913043
 40
0.9130434782608695
 40
0.9130434782608695
 40
0.9130434782608695
 40
0.9130434782608695
 40
1.0
 40
1.0
 40
1.0
 40
1.0
 10
-39.6103
 20
-19.6163
 30
0.0
 10
-39.6103
 20
-19.6163
 30
0.0
 10
-39.6324
 20
-19.3778
 30
0.0
 10
-39.6324
 20
-19.3778
 30
0.0
 10
-39.6324
 20
-19.3778
 30
0.0
 10
-39.5204
 20
-19.3576
 30
0.0
 10
-39.4391
 20
-19.319
 30
0.0
 10
-39.3883
 20
-19.2621
 30
0.0
 10
-39.3883
 20
-19.2621
 30
0.0
 10
-39.3379
 20
-19.2052
 30
0.0
 10
-39.3125
 20
-19.1323
 30
0.0
 10
-39.3125
 20
-19.0429
 30
0.0
 10
-39.3125
 20
-19.0429
 30
0.0
 10
-39.3125
 20
-18.9667
 30
0.0
 10
-39.3299
 20
-18.9
 30
0.0
 10
-39.3652
 20
-18.8426
 30
0.0
 10
-39.3652
 20
-18.8426
 30
0.0
 10
-39.4
 20
-18.7852
 30
0.0
 10
-39.4466
 20
-18.7381
 30
0.0
 10
-39.5049
 20
-18.7015
 30
0.0
 10
-39.5049
 20
-18.7015
 30
0.0
 10
-39.5632
 20
-18.6643
 30
0.0
 10
-39.6423
 20
-18.6337
 30
0.0
 10
-39.741
 20
-18.6088
 30
0.0
 10
-39.741
 20
-18.6088
 30
0.0
 10
-39.8403
 20
-18.5843
 30
0.0
 10
-39.9414
 20
-18.5716
 30
0.0
 10
-40.0444
 20
-18.5716
 30
0.0
 10
-40.0444
 20
-18.5716
 30
0.0
 10
-40.0552
 20
-18.5716
 30
0.0
 10
-40.0722
 20
-18.5721
 30
0.0
 10
-40.0938
 20
-18.573
 30
0.0
 10
-40.0938
 20
-18.573
 30
0.0
 10
-40.0153
 20
-18.6229
 30
0.0
 10
-39.9508
 20
-18.6906
 30
0.0
 10
-39.9019
 20
-18.7762
 30
0.0
 10
-39.9019
 20
-18.7762
 30
0.0
 10
-39.8525
 20
-18.8623
 30
0.0
 10
-39.8281
 20
-18.9555
 30
0.0
 10
-39.8281
 20
-19.0552
 30
0.0
 10
-39.8281
 20
-19.0552
 30
0.0
 10
-39.8281
 20
-19.2226
 30
0.0
 10
-39.8887
 20
-19.3642
 30
0.0
 10
-40.0101
 20
-19.4799
 30
0.0
 10
-40.0101
 20
-19.4799
 30
0.0
 10
-40.1314
 20
-19.5956
 30
0.0
 10
-40.2909
 20
-19.6535
 30
0.0
 10
-40.4894
 20
-19.6535
 30
0.0
 10
-40.4894
 20
-19.6535
 30
0.0
 10
-40.6945
 20
-19.6535
 30
0.0
 10
-40.8591
 20
-19.5933
 30
0.0
 10
-40.9842
 20
-19.4724
 30
0.0
 10
-40.9842
 20
-19.4724
 30
0.0
 10
-41.1093
 20
-19.3515
 30
0.0
 10
-41.1719
 20
-19.2
 30
0.0
 10
-41.1719
 20
-19.018
 30
0.0
 10
-41.1719
 20
-19.018
 30
0.0
 10
-41.1719
 20
-18.8868
 30
0.0
 10
-41.1361
 20
-18.7668
 30
0.0
 10
-41.0656
 20
-18.6577
 30
0.0
 10
-41.0656
 20
-18.6577
 30
0.0
 10
-40.995
 20
-18.5491
 30
0.0
 10
-40.8939
 20
-18.4663
 30
0.0
 10
-40.7631
 20
-18.4098
 30
0.0
 10
-40.7631
 20
-18.4098
 30
0.0
 10
-40.6324
 20
-18.3534
 30
0.0
 10
-40.4428
 20
-18.3252
 30
0.0
 10
-40.1945
 20
-18.3252
 30
0.0
 10
-40.1945
 20
-18.3252
 30
0.0
 10
-39.9367
 20
-18.3252
 30
0.0
 10
-39.7312
 20
-18.3529
 30
0.0
 10
-39.5778
 20
-18.4089
 30
0.0
 10
-39.5778
 20
-18.4089
 30
0.0
 10
-39.4249
 20
-18.4653
 30
0.0
 10
-39.3088
 20
-18.5486
 30
0.0
 10
-39.2288
 20
-18.6591
 30
0.0
 10
-39.2288
 20
-18.6591
 30
0.0
 10
-39.1488
 20
-18.7701
 30
0.0
 10
-39.1089
 20
-18.8995
 30
0.0
 10
-39.1089
 20
-19.0486
 30
0.0
 10
-39.1089
 20
-19.0486
 30
0.0
 10
-39.1089
 20
-19.2066
 30
0.0
 10
-39.1526
 20
-19.3355
 30
0.0
 10
-39.2406
 20
-19.4357
 30
0.0
 10
-39.2406
 20
-19.4357
 30
0.0
 10
-39.3281
 20
-19.5359
 30
0.0
 10
-39.4513
 20
-19.5961
 30
0.0
 10
-39.6103
 20
-19.6163
 30
0.0
  0
SPLINE
  5
5C
330
1F
100
AcDbEntity
  8
ROUND
 62
   250
100
AcDbSpline
210
0.0
220
0.0
230
1.0
 70
    11
 71
     3
 72
    36
 73
    32
 74
     0
 42
0.0000000001
 43
0.0000000001
 40
0.0
 40
0.0
 40
0.0
 40
0.0
 40
0.1111111111111111
 40
0.1111111111111111
 40
0.1111111111111111
 40
0.1111111111111111
 40
0.2222222222222222
 40
0.2222222222222222
 40
0.2222222222222222
 40
0.2222222222222222
 40
0.3333333333333333
 40
0.3333333333333333
 40
0.3333333333333333
 40
0.3333333333333333
 40
0.4444444444444444
 40
0.4444444444444444
 40
0.4444444444444444
 40
0.4444444444444444
 40
0.5555555555555556
 40
0.5555555555555556
 40
0.5555555555555556
 40
0.5555555555555556
 40
0.6666666666666666
 40
0.6666666666666666
 40
0.6666666666666666
 40
0.6666666666666666
 40
0.7777777777777778
 40
0.7777777777777778
 40
0.7777777777777778
 40
0.7777777777777778
 40
1.0
 40
1.0
 40
1.0
 40
1.0
 10
-40.5021
 20
-18.6008
 30
0.0
 10
-40.6441
 20
-18.6008
 30
0.0
 10
-40.7575
 20
-18.6384
 30
0.0
 10
-40.8408
 20
-18.7142
 30
0.0
 10
-40.8408
 20
-18.7142
 30
0.0
 10
-40.9245
 20
-18.7904
 30
0.0
 10
-40.9663
 20
-18.8811
 30
0.0
 10
-40.9663
 20
-18.9879
 30
0.0
 10
-40.9663
 20
-18.9879
 30
0.0
 10
-40.9663
 20
-19.098
 30
0.0
 10
-40.9212
 20
-19.1939
 30
0.0
 10
-40.8313
 20
-19.2758
 30
0.0
 10
-40.8313
 20
-19.2758
 30
0.0
 10
-40.741
 20
-19.3576
 30
0.0
 10
-40.6244
 20
-19.3985
 30
0.0
 10
-40.4814
 20
-19.3985
 30
0.0
 10
-40.4814
 20
-19.3985
 30
0.0
 10
-40.3525
 20
-19.3985
 30
0.0
 10
-40.2481
 20
-19.3595
 30
0.0
 10
-40.1677
 20
-19.2819
 30
0.0
 10
-40.1677
 20
-19.2819
 30
0.0
 10
-40.0872
 20
-19.2043
 30
0.0
 10
-40.0472
 20
-19.1088
 30
0.0
 10
-40.0472
 20
-18.995
 30
0.0
 10
-40.0472
 20
-18.995
 30
0.0
 10
-40.0472
 20
-18.8797
 30
0.0
 10
-40.0872
 20
-18.7857
 30
0.0
 10
-40.1677
 20
-18.7118
 30
0.0
 10
-40.1677
 20
-18.7118
 30
0.0
 10
-40.2481
 20
-18.6375
 30
0.0
 10
-40.3596
 20
-18.6008
 30
0.0
 10
-40.5021
 20
-18.6008
 30
0.0
  0
SPLINE
  5
5D
330
1F
100
AcDbEntity
  8
ROUND
 62
   250
100
AcDbSpline
210
0.0
220
0.0
230
1.0
 70
    11
 71
     3
 72
    52
 73
    48
 74
     0
 42
0.0000000001
 43
0.0000000001
 40
0.0
 40
0.0
 40
0.0
 40
0.0
 40
0.0769230769230769
 40
0.0769230769230769
 40
0.0769230769230769
 40
0.0769230769230769
 40
0.1538461538461539
 40
0.1538461538461539
 40
0.1538461538461539
 40
0.1538461538461539
 40
0.2307692307692308
 40
0.2307692307692308
 40
0.2307692307692308
 40
0.2307692307692308
 40
0.3076923076923077
 40
0.3076923076923077
 40
0.3076923076923077
 40
0.3076923076923077
 40
0.3846153846153846
 40
0.3846153846153846
 40
0.3846153846153846
 40
0.3846153846153846
 40
0.4615384615384616
 40
0.4615384615384616
 40
0.4615384615384616
 40
0.4615384615384616
 40
0.5384615384615384
 40
0.5384615384615384
 40
0.5384615384615384
 40
0.5384615384615384
 40
0.6153846153846154
 40
0.6153846153846154
 40
0.6153846153846154
 40
0.6153846153846154
 40
0.6923076923076923
 40
0.6923076923076923
 40
0.6923076923076923
 40
0.6923076923076923
 40
0.7692307692307693
 40
0.7692307692307693
 40
0.7692307692307693
 40
0.7692307692307693
 40
0.8461538461538461
 40
0.8461538461538461
 40
0.8461538461538461
 40
0.8461538461538461
 40
1.0
 40
1.0
 40
1.0
 40
1.0
 10
-40.1394
 20
-18.0839
 30
0.0
 10
-40.3784
 20
-18.0839
 30
0.0
 10
-40.5708
 20
-18.0594
 30
0.0
 10
-40.7161
 20
-18.01
 30
0.0
 10
-40.7161
 20
-18.01
 30
0.0
 10
-40.8619
 20
-17.9611
 30
0.0
 10
-40.9743
 20
-17.8877
 30
0.0
 10
-41.0534
 20
-17.7908
 30
0.0
 10
-41.0534
 20
-17.7908
 30
0.0
 10
-41.1324
 20
-17.6939
 30
0.0
 10
-41.1719
 20
-17.5721
 30
0.0
 10
-41.1719
 20
-17.4254
 30
0.0
 10
-41.1719
 20
-17.4254
 30
0.0
 10
-41.1719
 20
-17.3167
 30
0.0
 10
-41.1498
 20
-17.2217
 30
0.0
 10
-41.106
 20
-17.1399
 30
0.0
 10
-41.106
 20
-17.1399
 30
0.0
 10
-41.0628
 20
-17.058
 30
0.0
 10
-40.9997
 20
-16.9907
 30
0.0
 10
-40.9174
 20
-16.9371
 30
0.0
 10
-40.9174
 20
-16.9371
 30
0.0
 10
-40.8351
 20
-16.884
 30
0.0
 10
-40.7349
 20
-16.8421
 30
0.0
 10
-40.6169
 20
-16.812
 30
0.0
 10
-40.6169
 20
-16.812
 30
0.0
 10
-40.4988
 20
-16.7814
 30
0.0
 10
-40.3398
 20
-16.7664
 30
0.0
 10
-40.1394
 20
-16.7664
 30
0.0
 10
-40.1394
 20
-16.7664
 30
0.0
 10
-39.9024
 20
-16.7664
 30
0.0
 10
-39.7114
 20
-16.7908
 30
0.0
 10
-39.5656
 20
-16.8393
 30
0.0
 10
-39.5656
 20
-16.8393
 30
0.0
 10
-39.4198
 20
-16.8882
 30
0.0
 10
-39.3074
 20
-16.9611
 30
0.0
 10
-39.2279
 20
-17.058
 30
0.0
 10
-39.2279
 20
-17.058
 30
0.0
 10
-39.1484
 20
-17.1549
 30
0.0
 10
-39.1089
 20
-17.2772
 30
0.0
 10
-39.1089
 20
-17.4254
 30
0.0
 10
-39.1089
 20
-17.4254
 30
0.0
 10
-39.1089
 20
-17.6201
 30
0.0
 10
-39.1785
 20
-17.773
 30
0.0
 10
-39.3182
 20
-17.884
 30
0.0
 10
-39.3182
 20
-17.884
 30
0.0
 10
-39.4861
 20
-18.0171
 30
0.0
 10
-39.7603
 20
-18.0839
 30
0.0
 10
-40.1394
 20
-18.0839
 30
0.0
  0
SPLINE
  5
5E
330
1F
100
AcDbEntity
  8
ROUND
 62
   250
100
AcDbSpline
210
0.0
220
0.0
230
1.0
 70
    11
 71
     3
 72
    36
 73
    32
 74
     0
 42
0.0000000001
 43
0.0000000001
 40
0.0
 40
0.0
 40
0.0
 40
0.0
 40
0.1111111111111111
 40
0.1111111111111111
 40
0.1111111111111111
 40
0.1111111111111111
 40
0.2222222222222222
 40
0.2222222222222222
 40
0.2222222222222222
 40
0.2222222222222222
 40
0.3333333333333333
 40
0.3333333333333333
 40
0.3333333333333333
 40
0.3333333333333333
 40
0.4444444444444444
 40
0.4444444444444444
 40
0.4444444444444444
 40
0.4444444444444444
 40
0.5555555555555556
 40
0.5555555555555556
 40
0.5555555555555556
 40
0.5555555555555556
 40
0.6666666666666666
 40
0.6666666666666666
 40
0.6666666666666666
 40
0.6666666666666666
 40
0.7777777777777778
 40
0.7777777777777778
 40
0.7777777777777778
 40
0.7777777777777778
 40
1.0
 40
1.0
 40
1.0
 40
1.0
 10
-40.1394
 20
-17.8289
 30
0.0
 10
-39.8078
 20
-17.8289
 30
0.0
 10
-39.5872
 20
-17.7899
 30
0.0
 10
-39.4772
 20
-17.7123
 30
0.0
 10
-39.4772
 20
-17.7123
 30
0.0
 10
-39.3676
 20
-17.6347
 30
0.0
 10
-39.3125
 20
-17.5392
 30
0.0
 10
-39.3125
 20
-17.4254
 30
0.0
 10
-39.3125
 20
-17.4254
 30
0.0
 10
-39.3125
 20
-17.3111
 30
0.0
 10
-39.368
 20
-17.2156
 30
0.0
 10
-39.4781
 20
-17.138
 30
0.0
 10
-39.4781
 20
-17.138
 30
0.0
 10
-39.5882
 20
-17.0604
 30
0.0
 10
-39.8088
 20
-17.0213
 30
0.0
 10
-40.1394
 20
-17.0213
 30
0.0
 10
-40.1394
 20
-17.0213
 30
0.0
 10
-40.472
 20
-17.0213
 30
0.0
 10
-40.6931
 20
-17.0604
 30
0.0
 10
-40.8022
 20
-17.138
 30
0.0
 10
-40.8022
 20
-17.138
 30
0.0
 10
-40.9118
 20
-17.2156
 30
0.0
 10
-40.9663
 20
-17.312
 30
0.0
 10
-40.9663
 20
-17.4277
 30
0.0
 10
-40.9663
 20
-17.4277
 30
0.0
 10
-40.9663
 20
-17.542
 30
0.0
 10
-40.9179
 20
-17.6328
 30
0.0
 10
-40.8215
 20
-17.701
 30
0.0
 10
-40.8215
 20
-17.701
 30
0.0
 10
-40.6987
 20
-17.7861
 30
0.0
 10
-40.471
 20
-17.8289
 30
0.0
 10
-40.1394
 20
-17.8289
 30
0.0
  0
SPLINE
  5
5F
330
1F
100
AcDbEntity
  8
ROUND
 62
   250
100
AcDbSpline
210
0.0
220
0.0
230
1.0
 70
    11
 71
     3
 72
   120
 73
   116
 74
     0
 42
0.0000000001
 43
0.0000000001
 40
0.0
 40
0.0
 40
0.0
 40
0.0
 40
0.0333333333333333
 40
0.0333333333333333
 40
0.0333333333333333
 40
0.0333333333333333
 40
0.0666666666666667
 40
0.0666666666666667
 40
0.0666666666666667
 40
0.0666666666666667
 40
0.1
 40
0.1
 40
0.1
 40
0.1
 40
0.1333333333333333
 40
0.1333333333333333
 40
0.1333333333333333
 40
0.1333333333333333
 40
0.1666666666666667
 40
0.1666666666666667
 40
0.1666666666666667
 40
0.1666666666666667
 40
0.2
 40
0.2
 40
0.2
 40
0.2
 40
0.2333333333333333
 40
0.2333333333333333
 40
0.2333333333333333
 40
0.2333333333333333
 40
0.2666666666666667
 40
0.2666666666666667
 40
0.2666666666666667
 40
0.2666666666666667
 40
0.3
 40
0.3
 40
0.3
 40
0.3
 40
0.3333333333333333
 40
0.3333333333333333
 40
0.3333333333333333
 40
0.3333333333333333
 40
0.3666666666666666
 40
0.3666666666666666
 40
0.3666666666666666
 40
0.3666666666666666
 40
0.4
 40
0.4
 40
0.4
 40
0.4
 40
0.4333333333333333
 40
0.4333333333333333
 40
0.4333333333333333
 40
0.4333333333333333
 40
0.4666666666666667
 40
0.4666666666666667
 40
0.4666666666666667
 40
0.4666666666666667
 40
0.5
 40
0.5
 40
0.5
 40
0.5
 40
0.5333333333333333
 40
0.5333333333333333
 40
0.5333333333333333
 40
0.5333333333333333
 40
0.5666666666666667
 40
0.5666666666666667
 40
0.5666666666666667
 40
0.5666666666666667
 40
0.6
 40
0.6
 40
0.6
 40
0.6
 40
0.6333333333333333
 40
0.6333333333333333
 40
0.6333333333333333
 40
0.6333333333333333
 40
0.6666666666666666
 40
0.6666666666666666
 40
0.6666666666666666
 40
0.6666666666666666
 40
0.7
 40
0.7
 40
0.7
 40
0.7
 40
0.7333333333333333
 40
0.7333333333333333
 40
0.7333333333333333
 40
0.7333333333333333
 40
0.7666666666666667
 40
0.7666666666666667
 40
0.7666666666666667
 40
0.7666666666666667
 40
0.8
 40
0.8
 40
0.8
 40
0.8
 40
0.8333333333333334
 40
0.8333333333333334
 40
0.8333333333333334
 40
0.8333333333333334
 40
0.8666666666666667
 40
0.8666666666666667
 40
0.8666666666666667
 40
0.8666666666666667
 40
0.9
 40
0.9
 40
0.9
 40
0.9
 40
0.9333333333333333
 40
0.9333333333333333
 40
0.9333333333333333
 40
0.9333333333333333
 40
1.0
 40
1.0
 40
1.0
 40
1.0
 10
-26.0202
 20
22.4987
 30
0.0
 10
-26.0202
 20
22.4987
 30
0.0
 10
-26.0202
 20
22.7353
 30
0.0
 10
-26.0202
 20
22.7353
 30
0.0
 10
-26.0202
 20
22.7353
 30
0.0
 10
-26.0202
 20
22.7353
 30
0.0
 10
-25.1646
 20
22.7367
 30
0.0
 10
-25.1646
 20
22.7367
 30
0.0
 10
-25.1646
 20
22.7367
 30
0.0
 10
-25.1646
 20
22.7367
 30
0.0
 10
-25.1646
 20
21.9874
 30
0.0
 10
-25.1646
 20
21.9874
 30
0.0
 10
-25.1646
 20
21.9874
 30
0.0
 10
-25.2958
 20
21.8825
 30
0.0
 10
-25.4313
 20
21.8039
 30
0.0
 10
-25.571
 20
21.7508
 30
0.0
 10
-25.571
 20
21.7508
 30
0.0
 10
-25.7107
 20
21.6981
 30
0.0
 10
-25.8541
 20
21.6718
 30
0.0
 10
-26.0009
 20
21.6718
 30
0.0
 10
-26.0009
 20
21.6718
 30
0.0
 10
-26.1994
 20
21.6718
 30
0.0
 10
-26.38
 20
21.7141
 30
0.0
 10
-26.5418
 20
21.7992
 30
0.0
 10
-26.5418
 20
21.7992
 30
0.0
 10
-26.7041
 20
21.8839
 30
0.0
 10
-26.8264
 20
22.0071
 30
0.0
 10
-26.9092
 20
22.1675
 30
0.0
 10
-26.9092
 20
22.1675
 30
0.0
 10
-26.992
 20
22.3284
 30
0.0
 10
-27.0334
 20
22.5081
 30
0.0
 10
-27.0334
 20
22.7066
 30
0.0
 10
-27.0334
 20
22.7066
 30
0.0
 10
-27.0334
 20
22.9032
 30
0.0
 10
-26.992
 20
23.0866
 30
0.0
 10
-26.9096
 20
23.2569
 30
0.0
 10
-26.9096
 20
23.2569
 30
0.0
 10
-26.8278
 20
23.4276
 30
0.0
 10
-26.7093
 20
23.5542
 30
0.0
 10
-26.555
 20
23.637
 30
0.0
 10
-26.555
 20
23.637
 30
0.0
 10
-26.4007
 20
23.7193
 30
0.0
 10
-26.2229
 20
23.7607
 30
0.0
 10
-26.0216
 20
23.7607
 30
0.0
 10
-26.0216
 20
23.7607
 30
0.0
 10
-25.8758
 20
23.7607
 30
0.0
 10
-25.7436
 20
23.7371
 30
0.0
 10
-25.6255
 20
23.6896
 30
0.0
 10
-25.6255
 20
23.6896
 30
0.0
 10
-25.5075
 20
23.6426
 30
0.0
 10
-25.4148
 20
23.5767
 30
0.0
 10
-25.348
 20
23.4921
 30
0.0
 10
-25.348
 20
23.4921
 30
0.0
 10
-25.2808
 20
23.4074
 30
0.0
 10
-25.23
 20
23.2974
 30
0.0
 10
-25.1947
 20
23.1614
 30
0.0
 10
-25.1947
 20
23.1614
 30
0.0
 10
-25.1947
 20
23.1614
 30
0.0
 10
-25.436
 20
23.0951
 30
0.0
 10
-25.436
 20
23.0951
 30
0.0
 10
-25.436
 20
23.0951
 30
0.0
 10
-25.4666
 20
23.1981
 30
0.0
 10
-25.5042
 20
23.279
 30
0.0
 10
-25.5489
 20
23.3378
 30
0.0
 10
-25.5489
 20
23.3378
 30
0.0
 10
-25.594
 20
23.3966
 30
0.0
 10
-25.6585
 20
23.4436
 30
0.0
 10
-25.7422
 20
23.4789
 30
0.0
 10
-25.7422
 20
23.4789
 30
0.0
 10
-25.8255
 20
23.5142
 30
0.0
 10
-25.9186
 20
23.5321
 30
0.0
 10
-26.0202
 20
23.5321
 30
0.0
 10
-26.0202
 20
23.5321
 30
0.0
 10
-26.1425
 20
23.5321
 30
0.0
 10
-26.2483
 20
23.5132
 30
0.0
 10
-26.3372
 20
23.4761
 30
0.0
 10
-26.3372
 20
23.4761
 30
0.0
 10
-26.4266
 20
23.4389
 30
0.0
 10
-26.4981
 20
23.39
 30
0.0
 10
-26.5531
 20
23.3293
 30
0.0
 10
-26.5531
 20
23.3293
 30
0.0
 10
-26.6077
 20
23.2687
 30
0.0
 10
-26.65
 20
23.2023
 30
0.0
 10
-26.6806
 20
23.1294
 30
0.0
 10
-26.6806
 20
23.1294
 30
0.0
 10
-26.7318
 20
23.0048
 30
0.0
 10
-26.7577
 20
22.8693
 30
0.0
 10
-26.7577
 20
22.723
 30
0.0
 10
-26.7577
 20
22.723
 30
0.0
 10
-26.7577
 20
22.5429
 30
0.0
 10
-26.7267
 20
22.3924
 30
0.0
 10
-26.6646
 20
22.271
 30
0.0
 10
-26.6646
 20
22.271
 30
0.0
 10
-26.6025
 20
22.1497
 30
0.0
 10
-26.5122
 20
22.0598
 30
0.0
 10
-26.3937
 20
22.001
 30
0.0
 10
-26.3937
 20
22.001
 30
0.0
 10
-26.2751
 20
21.9422
 30
0.0
 10
-26.1495
 20
21.9126
 30
0.0
 10
-26.0164
 20
21.9126
 30
0.0
 10
-26.0164
 20
21.9126
 30
0.0
 10
-25.9002
 20
21.9126
 30
0.0
 10
-25.7874
 20
21.9352
 30
0.0
 10
-25.6773
 20
21.9799
 30
0.0
 10
-25.6773
 20
21.9799
 30
0.0
 10
-25.5667
 20
22.0241
 30
0.0
 10
-25.4835
 20
22.0716
 30
0.0
 10
-25.4266
 20
22.1224
 30
0.0
 10
-25.4266
 20
22.1224
 30
0.0
 10
-25.4266
 20
22.1224
 30
0.0
 10
-25.4266
 20
22.4987
 30
0.0
 10
-25.4266
 20
22.4987
 30
0.0
 10
-25.4266
 20
22.4987
 30
0.0
 10
-25.4266
 20
22.4987
 30
0.0
 10
-26.0202
 20
22.4987
 30
0.0
 10
-26.0202
 20
22.4987
 30
0.0
  0
SPLINE
  5
60
330
1F
100
AcDbEntity
  8
ROUND
 62
   250
100
AcDbSpline
210
0.0
220
0.0
230
1.0
 70
    11
 71
     3
 72
    92
 73
    88
 74
     0
 42
0.0000000001
 43
0.0000000001
 40
0.0
 40
0.0
 40
0.0
 40
0.0
 40
0.0434782608695652
 40
0.0434782608695652
 40
0.0434782608695652
 40
0.0434782608695652
 40
0.0869565217391304
 40
0.0869565217391304
 40
0.0869565217391304
 40
0.0869565217391304
 40
0.1304347826086956
 40
0.1304347826086956
 40
0.1304347826086956
 40
0.1304347826086956
 40
0.1739130434782609
 40
0.1739130434782609
 40
0.1739130434782609
 40
0.1739130434782609
 40
0.2173913043478261
 40
0.2173913043478261
 40
0.2173913043478261
 40
0.2173913043478261
 40
0.2608695652173913
 40
0.2608695652173913
 40
0.2608695652173913
 40
0.2608695652173913
 40
0.3043478260869565
 40
0.3043478260869565
 40
0.3043478260869565
 40
0.3043478260869565
 40
0.3478260869565217
 40
0.3478260869565217
 40
0.3478260869565217
 40
0.3478260869565217
 40
0.391304347826087
 40
0.391304347826087
 40
0.391304347826087
 40
0.391304347826087
 40
0.4347826086956522
 40
0.4347826086956522
 40
0.4347826086956522
 40
0.4347826086956522
 40
0.4782608695652174
 40
0.4782608695652174
 40
0.4782608695652174
 40
0.4782608695652174
 40
0.5217391304347826
 40
0.5217391304347826
 40
0.5217391304347826
 40
0.5217391304347826
 40
0.5652173913043478
 40
0.5652173913043478
 40
0.5652173913043478
 40
0.5652173913043478
 40
0.6086956521739131
 40
0.6086956521739131
 40
0.6086956521739131
 40
0.6086956521739131
 40
0.6521739130434783
 40
0.6521739130434783
 40
0.6521739130434783
 40
0.6521739130434783
 40
0.6956521739130435
 40
0.6956521739130435
 40
0.6956521739130435
 40
0.6956521739130435
 40
0.7391304347826086
 40
0.7391304347826086
 40
0.7391304347826086
 40
0.7391304347826086
 40
0.782608695652174
 40
0.782608695652174
 40
0.782608695652174
 40
0.782608695652174
 40
0.8260869565217391
 40
0.8260869565217391
 40
0.8260869565217391
 40
0.8260869565217391
 40
0.8695652173913043
 40
0.8695652173913043
 40
0.8695652173913043
 40
0.8695652173913043
 40
0.9130434782608695
 40
0.9130434782608695
 40
0.9130434782608695
 40
0.9130434782608695
 40
1.0
 40
1.0
 40
1.0
 40
1.0
 10
-24.087
 20
22.2353
 30
0.0
 10
-24.087
 20
22.2353
 30
0.0
 10
-23.8264
 20
22.2574
 30
0.0
 10
-23.8264
 20
22.2574
 30
0.0
 10
-23.8264
 20
22.2574
 30
0.0
 10
-23.8071
 20
22.1304
 30
0.0
 10
-23.7624
 20
22.0354
 30
0.0
 10
-23.6923
 20
21.9714
 30
0.0
 10
-23.6923
 20
21.9714
 30
0.0
 10
-23.6218
 20
21.9074
 30
0.0
 10
-23.5371
 20
21.8754
 30
0.0
 10
-23.4379
 20
21.8754
 30
0.0
 10
-23.4379
 20
21.8754
 30
0.0
 10
-23.3184
 20
21.8754
 30
0.0
 10
-23.2173
 20
21.9206
 30
0.0
 10
-23.135
 20
22.0104
 30
0.0
 10
-23.135
 20
22.0104
 30
0.0
 10
-23.0522
 20
22.1007
 30
0.0
 10
-23.0108
 20
22.2202
 30
0.0
 10
-23.0108
 20
22.3688
 30
0.0
 10
-23.0108
 20
22.3688
 30
0.0
 10
-23.0108
 20
22.5104
 30
0.0
 10
-23.0503
 20
22.6219
 30
0.0
 10
-23.1298
 20
22.7037
 30
0.0
 10
-23.1298
 20
22.7037
 30
0.0
 10
-23.2093
 20
22.7856
 30
0.0
 10
-23.3132
 20
22.8265
 30
0.0
 10
-23.4421
 20
22.8265
 30
0.0
 10
-23.4421
 20
22.8265
 30
0.0
 10
-23.5221
 20
22.8265
 30
0.0
 10
-23.594
 20
22.8082
 30
0.0
 10
-23.6585
 20
22.772
 30
0.0
 10
-23.6585
 20
22.772
 30
0.0
 10
-23.7229
 20
22.7357
 30
0.0
 10
-23.7732
 20
22.6887
 30
0.0
 10
-23.8099
 20
22.6308
 30
0.0
 10
-23.8099
 20
22.6308
 30
0.0
 10
-23.8099
 20
22.6308
 30
0.0
 10
-24.0428
 20
22.6609
 30
0.0
 10
-24.0428
 20
22.6609
 30
0.0
 10
-24.0428
 20
22.6609
 30
0.0
 10
-24.0428
 20
22.6609
 30
0.0
 10
-23.8471
 20
23.6986
 30
0.0
 10
-23.8471
 20
23.6986
 30
0.0
 10
-23.8471
 20
23.6986
 30
0.0
 10
-23.8471
 20
23.6986
 30
0.0
 10
-22.8424
 20
23.6986
 30
0.0
 10
-22.8424
 20
23.6986
 30
0.0
 10
-22.8424
 20
23.6986
 30
0.0
 10
-22.8424
 20
23.6986
 30
0.0
 10
-22.8424
 20
23.4615
 30
0.0
 10
-22.8424
 20
23.4615
 30
0.0
 10
-22.8424
 20
23.4615
 30
0.0
 10
-22.8424
 20
23.4615
 30
0.0
 10
-23.6486
 20
23.4615
 30
0.0
 10
-23.6486
 20
23.4615
 30
0.0
 10
-23.6486
 20
23.4615
 30
0.0
 10
-23.6486
 20
23.4615
 30
0.0
 10
-23.7577
 20
22.9187
 30
0.0
 10
-23.7577
 20
22.9187
 30
0.0
 10
-23.7577
 20
22.9187
 30
0.0
 10
-23.6364
 20
23.0034
 30
0.0
 10
-23.5089
 20
23.0457
 30
0.0
 10
-23.3758
 20
23.0457
 30
0.0
 10
-23.3758
 20
23.0457
 30
0.0
 10
-23.1994
 20
23.0457
 30
0.0
 10
-23.0508
 20
22.9846
 30
0.0
 10
-22.9294
 20
22.8623
 30
0.0
 10
-22.9294
 20
22.8623
 30
0.0
 10
-22.8081
 20
22.74
 30
0.0
 10
-22.7474
 20
22.5829
 30
0.0
 10
-22.7474
 20
22.391
 30
0.0
 10
-22.7474
 20
22.391
 30
0.0
 10
-22.7474
 20
22.208
 30
0.0
 10
-22.801
 20
22.0499
 30
0.0
 10
-22.9073
 20
21.9168
 30
0.0
 10
-22.9073
 20
21.9168
 30
0.0
 10
-23.0371
 20
21.7536
 30
0.0
 10
-23.214
 20
21.6718
 30
0.0
 10
-23.4379
 20
21.6718
 30
0.0
 10
-23.4379
 20
21.6718
 30
0.0
 10
-23.6218
 20
21.6718
 30
0.0
 10
-23.7718
 20
21.723
 30
0.0
 10
-23.888
 20
21.826
 30
0.0
 10
-23.888
 20
21.826
 30
0.0
 10
-24.0042
 20
21.9291
 30
0.0
 10
-24.0705
 20
22.0655
 30
0.0
 10
-24.087
 20
22.2353
 30
0.0
  0
SPLINE
  5
61
330
1F
100
AcDbEntity
  8
ROUND
 62
   250
100
AcDbSpline
210
0.0
220
0.0
230
1.0
 70
    11
 71
     3
 72
    20
 73
    16
 74
     0
 42
0.0000000001
 43
0.0000000001
 40
0.0
 40
0.0
 40
0.0
 40
0.0
 40
0.2
 40
0.2
 40
0.2
 40
0.2
 40
0.4
 40
0.4
 40
0.4
 40
0.4
 40
0.6
 40
0.6
 40
0.6
 40
0.6
 40
1.0
 40
1.0
 40
1.0
 40
1.0
 10
-22.6345
 20
21.6718
 30
0.0
 10
-22.6345
 20
21.6718
 30
0.0
 10
-22.0489
 20
23.7607
 30
0.0
 10
-22.0489
 20
23.7607
 30
0.0
 10
-22.0489
 20
23.7607
 30
0.0
 10
-22.0489
 20
23.7607
 30
0.0
 10
-21.8504
 20
23.7607
 30
0.0
 10
-21.8504
 20
23.7607
 30
0.0
 10
-21.8504
 20
23.7607
 30
0.0
 10
-21.8504
 20
23.7607
 30
0.0
 10
-22.4346
 20
21.6718
 30
0.0
 10
-22.4346
 20
21.6718
 30
0.0
 10
-22.4346
 20
21.6718
 30
0.0
 10
-22.4346
 20
21.6718
 30
0.0
 10
-22.6345
 20
21.6718
 30
0.0
 10
-22.6345
 20
21.6718
 30
0.0
  0
SPLINE
  5
62
330
1F
100
AcDbEntity
  8
ROUND
 62
   250
100
AcDbSpline
210
0.0
220
0.0
230
1.0
 70
    11
 71
     3
 72
    48
 73
    44
 74
     0
 42
0.0000000001
 43
0.0000000001
 40
0.0
 40
0.0
 40
0.0
 40
0.0
 40
0.0833333333333333
 40
0.0833333333333333
 40
0.0833333333333333
 40
0.0833333333333333
 40
0.1666666666666667
 40
0.1666666666666667
 40
0.1666666666666667
 40
0.1666666666666667
 40
0.25
 40
0.25
 40
0.25
 40
0.25
 40
0.3333333333333333
 40
0.3333333333333333
 40
0.3333333333333333
 40
0.3333333333333333
 40
0.4166666666666667
 40
0.4166666666666667
 40
0.4166666666666667
 40
0.4166666666666667
 40
0.5
 40
0.5
 40
0.5
 40
0.5
 40
0.5833333333333334
 40
0.5833333333333334
 40
0.5833333333333334
 40
0.5833333333333334
 40
0.6666666666666666
 40
0.6666666666666666
 40
0.6666666666666666
 40
0.6666666666666666
 40
0.75
 40
0.75
 40
0.75
 40
0.75
 40
0.8333333333333334
 40
0.8333333333333334
 40
0.8333333333333334
 40
0.8333333333333334
 40
1.0
 40
1.0
 40
1.0
 40
1.0
 10
-20.9384
 20
21.7061
 30
0.0
 10
-20.9384
 20
21.7061
 30
0.0
 10
-20.9384
 20
22.1896
 30
0.0
 10
-20.9384
 20
22.1896
 30
0.0
 10
-20.9384
 20
22.1896
 30
0.0
 10
-20.9384
 20
22.1896
 30
0.0
 10
-21.8147
 20
22.1896
 30
0.0
 10
-21.8147
 20
22.1896
 30
0.0
 10
-21.8147
 20
22.1896
 30
0.0
 10
-21.8147
 20
22.1896
 30
0.0
 10
-21.8147
 20
22.4173
 30
0.0
 10
-21.8147
 20
22.4173
 30
0.0
 10
-21.8147
 20
22.4173
 30
0.0
 10
-21.8147
 20
22.4173
 30
0.0
 10
-20.8927
 20
23.7263
 30
0.0
 10
-20.8927
 20
23.7263
 30
0.0
 10
-20.8927
 20
23.7263
 30
0.0
 10
-20.8927
 20
23.7263
 30
0.0
 10
-20.69
 20
23.7263
 30
0.0
 10
-20.69
 20
23.7263
 30
0.0
 10
-20.69
 20
23.7263
 30
0.0
 10
-20.69
 20
23.7263
 30
0.0
 10
-20.69
 20
22.4173
 30
0.0
 10
-20.69
 20
22.4173
 30
0.0
 10
-20.69
 20
22.4173
 30
0.0
 10
-20.69
 20
22.4173
 30
0.0
 10
-20.4172
 20
22.4173
 30
0.0
 10
-20.4172
 20
22.4173
 30
0.0
 10
-20.4172
 20
22.4173
 30
0.0
 10
-20.4172
 20
22.4173
 30
0.0
 10
-20.4172
 20
22.1896
 30
0.0
 10
-20.4172
 20
22.1896
 30
0.0
 10
-20.4172
 20
22.1896
 30
0.0
 10
-20.4172
 20
22.1896
 30
0.0
 10
-20.69
 20
22.1896
 30
0.0
 10
-20.69
 20
22.1896
 30
0.0
 10
-20.69
 20
22.1896
 30
0.0
 10
-20.69
 20
22.1896
 30
0.0
 10
-20.69
 20
21.7061
 30
0.0
 10
-20.69
 20
21.7061
 30
0.0
 10
-20.69
 20
21.7061
 30
0.0
 10
-20.69
 20
21.7061
 30
0.0
 10
-20.9384
 20
21.7061
 30
0.0
 10
-20.9384
 20
21.7061
 30
0.0
  0
SPLINE
  5
63
330
1F
100
AcDbEntity
  8
ROUND
 62
   250
100
AcDbSpline
210
0.0
220
0.0
230
1.0
 70
    11
 71
     3
 72
    16
 73
    12
 74
     0
 42
0.0000000001
 43
0.0000000001
 40
0.0
 40
0.0
 40
0.0
 40
0.0
 40
0.25
 40
0.25
 40
0.25
 40
0.25
 40
0.5
 40
0.5
 40
0.5
 40
0.5
 40
1.0
 40
1.0
 40
1.0
 40
1.0
 10
-20.9384
 20
22.4173
 30
0.0
 10
-20.9384
 20
22.4173
 30
0.0
 10
-20.9384
 20
23.3279
 30
0.0
 10
-20.9384
 20
23.3279
 30
0.0
 10
-20.9384
 20
23.3279
 30
0.0
 10
-20.9384
 20
23.3279
 30
0.0
 10
-21.5705
 20
22.4173
 30
0.0
 10
-21.5705
 20
22.4173
 30
0.0
 10
-21.5705
 20
22.4173
 30
0.0
 10
-21.5705
 20
22.4173
 30
0.0
 10
-20.9384
 20
22.4173
 30
0.0
 10
-20.9384
 20
22.4173
 30
0.0
  0
SPLINE
  5
64
330
1F
100
AcDbEntity
  8
ROUND
 62
   250
100
AcDbSpline
210
0.0
220
0.0
230
1.0
 70
    11
 71
     3
 72
    28
 73
    24
 74
     0
 42
0.0000000001
 43
0.0000000001
 40
0.0
 40
0.0
 40
0.0
 40
0.0
 40
0.1428571428571428
 40
0.1428571428571428
 40
0.1428571428571428
 40
0.1428571428571428
 40
0.2857142857142857
 40
0.2857142857142857
 40
0.2857142857142857
 40
0.2857142857142857
 40
0.4285714285714285
 40
0.4285714285714285
 40
0.4285714285714285
 40
0.4285714285714285
 40
0.5714285714285714
 40
0.5714285714285714
 40
0.5714285714285714
 40
0.5714285714285714
 40
0.7142857142857143
 40
0.7142857142857143
 40
0.7142857142857143
 40
0.7142857142857143
 40
1.0
 40
1.0
 40
1.0
 40
1.0
 10
-20.0823
 20
23.0109
 30
0.0
 10
-20.0823
 20
23.0109
 30
0.0
 10
-20.1514
 20
23.3957
 30
0.0
 10
-20.1514
 20
23.3957
 30
0.0
 10
-20.1514
 20
23.3957
 30
0.0
 10
-20.1514
 20
23.3957
 30
0.0
 10
-20.1514
 20
23.7263
 30
0.0
 10
-20.1514
 20
23.7263
 30
0.0
 10
-20.1514
 20
23.7263
 30
0.0
 10
-20.1514
 20
23.7263
 30
0.0
 10
-19.8688
 20
23.7263
 30
0.0
 10
-19.8688
 20
23.7263
 30
0.0
 10
-19.8688
 20
23.7263
 30
0.0
 10
-19.8688
 20
23.7263
 30
0.0
 10
-19.8688
 20
23.3957
 30
0.0
 10
-19.8688
 20
23.3957
 30
0.0
 10
-19.8688
 20
23.3957
 30
0.0
 10
-19.8688
 20
23.3957
 30
0.0
 10
-19.9308
 20
23.0109
 30
0.0
 10
-19.9308
 20
23.0109
 30
0.0
 10
-19.9308
 20
23.0109
 30
0.0
 10
-19.9308
 20
23.0109
 30
0.0
 10
-20.0823
 20
23.0109
 30
0.0
 10
-20.0823
 20
23.0109
 30
0.0
  0
SPLINE
  5
65
330
1F
100
AcDbEntity
  8
ROUND
 62
   250
100
AcDbSpline
210
0.0
220
0.0
230
1.0
 70
    11
 71
     3
 72
    28
 73
    24
 74
     0
 42
0.0000000001
 43
0.0000000001
 40
0.0
 40
0.0
 40
0.0
 40
0.0
 40
0.1428571428571428
 40
0.1428571428571428
 40
0.1428571428571428
 40
0.1428571428571428
 40
0.2857142857142857
 40
0.2857142857142857
 40
0.2857142857142857
 40
0.2857142857142857
 40
0.4285714285714285
 40
0.4285714285714285
 40
0.4285714285714285
 40
0.4285714285714285
 40
0.5714285714285714
 40
0.5714285714285714
 40
0.5714285714285714
 40
0.5714285714285714
 40
0.7142857142857143
 40
0.7142857142857143
 40
0.7142857142857143
 40
0.7142857142857143
 40
1.0
 40
1.0
 40
1.0
 40
1.0
 10
-19.626
 20
23.0109
 30
0.0
 10
-19.626
 20
23.0109
 30
0.0
 10
-19.6938
 20
23.3957
 30
0.0
 10
-19.6938
 20
23.3957
 30
0.0
 10
-19.6938
 20
23.3957
 30
0.0
 10
-19.6938
 20
23.3957
 30
0.0
 10
-19.6938
 20
23.7263
 30
0.0
 10
-19.6938
 20
23.7263
 30
0.0
 10
-19.6938
 20
23.7263
 30
0.0
 10
-19.6938
 20
23.7263
 30
0.0
 10
-19.4111
 20
23.7263
 30
0.0
 10
-19.4111
 20
23.7263
 30
0.0
 10
-19.4111
 20
23.7263
 30
0.0
 10
-19.4111
 20
23.7263
 30
0.0
 10
-19.4111
 20
23.3957
 30
0.0
 10
-19.4111
 20
23.3957
 30
0.0
 10
-19.4111
 20
23.3957
 30
0.0
 10
-19.4111
 20
23.3957
 30
0.0
 10
-19.4774
 20
23.0109
 30
0.0
 10
-19.4774
 20
23.0109
 30
0.0
 10
-19.4774
 20
23.0109
 30
0.0
 10
-19.4774
 20
23.0109
 30
0.0
 10
-19.626
 20
23.0109
 30
0.0
 10
-19.626
 20
23.0109
 30
0.0
  0
SPLINE
  5
66
330
1F
100
AcDbEntity
  8
ROUND
 62
   250
100
AcDbSpline
210
0.0
220
0.0
230
1.0
 70
    11
 71
     3
 72
    20
 73
    16
 74
     0
 42
0.0000000001
 43
0.0000000001
 40
0.0
 40
0.0
 40
0.0
 40
0.0
 40
0.2
 40
0.2
 40
0.2
 40
0.2
 40
0.4
 40
0.4
 40
0.4
 40
0.4
 40
0.6
 40
0.6
 40
0.6
 40
0.6
 40
1.0
 40
1.0
 40
1.0
 40
1.0
 10
37.993
 20
28.8303
 30
0.0
 10
37.993
 20
28.8303
 30
0.0
 10
40.9931
 20
28.407
 30
0.0
 10
40.9931
 20
28.407
 30
0.0
 10
40.9931
 20
28.407
 30
0.0
 10
40.9931
 20
28.407
 30
0.0
 10
40.9931
 20
28.3129
 30
0.0
 10
40.9931
 20
28.3129
 30
0.0
 10
40.9931
 20
28.3129
 30
0.0
 10
40.9931
 20
28.3129
 30
0.0
 10
37.993
 20
27.8614
 30
0.0
 10
37.993
 20
27.8614
 30
0.0
 10
37.993
 20
27.8614
 30
0.0
 10
37.993
 20
27.8614
 30
0.0
 10
37.993
 20
28.8303
 30
0.0
 10
37.993
 20
28.8303
 30
0.0
  0
SPLINE
  5
67
330
1F
100
AcDbEntity
  8
ROUND
 62
   250
100
AcDbSpline
210
0.0
220
0.0
230
1.0
 70
    11
 71
     3
 72
    20
 73
    16
 74
     0
 42
0.0000000001
 43
0.0000000001
 40
0.0
 40
0.0
 40
0.0
 40
0.0
 40
0.2
 40
0.2
 40
0.2
 40
0.2
 40
0.4
 40
0.4
 40
0.4
 40
0.4
 40
0.6
 40
0.6
 40
0.6
 40
0.6
 40
1.0
 40
1.0
 40
1.0
 40
1.0
 10
-20.6993
 20
27.8908
 30
0.0
 10
-20.6993
 20
27.8908
 30
0.0
 10
-23.6993
 20
28.3142
 30
0.0
 10
-23.6993
 20
28.3142
 30
0.0
 10
-23.6993
 20
28.3142
 30
0.0
 10
-23.6993
 20
28.3142
 30
0.0
 10
-23.6993
 20
28.4082
 30
0.0
 10
-23.6993
 20
28.4082
 30
0.0
 10
-23.6993
 20
28.4082
 30
0.0
 10
-23.6993
 20
28.4082
 30
0.0
 10
-20.6993
 20
28.8597
 30
0.0
 10
-20.6993
 20
28.8597
 30
0.0
 10
-20.6993
 20
28.8597
 30
0.0
 10
-20.6993
 20
28.8597
 30
0.0
 10
-20.6993
 20
27.8908
 30
0.0
 10
-20.6993
 20
27.8908
 30
0.0
  0
SPLINE
  5
68
330
1F
100
AcDbEntity
  8
ROUND
 62
   250
100
AcDbSpline
210
0.0
220
0.0
230
1.0
 70
    11
 71
     3
 72
    20
 73
    16
 74
     0
 42
0.0000000001
 43
0.0000000001
 40
0.0
 40
0.0
 40
0.0
 40
0.0
 40
0.2
 40
0.2
 40
0.2
 40
0.2
 40
0.4
 40
0.4
 40
0.4
 40
0.4
 40
0.6
 40
0.6
 40
0.6
 40
0.6
 40
1.0
 40
1.0
 40
1.0
 40
1.0
 10
-38.2717
 20
-27.4374
 30
0.0
 10
-38.2717
 20
-27.4374
 30
0.0
 10
-38.6951
 20
-30.4375
 30
0.0
 10
-38.6951
 20
-30.4375
 30
0.0
 10
-38.6951
 20
-30.4375
 30
0.0
 10
-38.6951
 20
-30.4375
 30
0.0
 10
-38.7891
 20
-30.4375
 30
0.0
 10
-38.7891
 20
-30.4375
 30
0.0
 10
-38.7891
 20
-30.4375
 30
0.0
 10
-38.7891
 20
-30.4375
 30
0.0
 10
-39.2406
 20
-27.4374
 30
0.0
 10
-39.2406
 20
-27.4374
 30
0.0
 10
-39.2406
 20
-27.4374
 30
0.0
 10
-39.2406
 20
-27.4374
 30
0.0
 10
-38.2717
 20
-27.4374
 30
0.0
 10
-38.2717
 20
-27.4374
 30
0.0
  0
SPLINE
  5
69
330
1F
100
AcDbEntity
  8
ROUND
 62
   250
100
AcDbSpline
210
0.0
220
0.0
230
1.0
 70
    11
 71
     3
 72
    20
 73
    16
 74
     0
 42
0.0000000001
 43
0.0000000001
 40
0.0
 40
0.0
 40
0.0
 40
0.0
 40
0.2
 40
0.2
 40
0.2
 40
0.2
 40
0.4
 40
0.4
 40
0.4
 40
0.4
 40
0.6
 40
0.6
 40
0.6
 40
0.6
 40
1.0
 40
1.0
 40
1.0
 40
1.0
 10
-39.2363
 20
-8.4753
 30
0.0
 10
-39.2363
 20
-8.4753
 30
0.0
 10
-38.8129
 20
-5.4753
 30
0.0
 10
-38.8129
 20
-5.4753
 30
0.0
 10
-38.8129
 20
-5.4753
 30
0.0
 10
-38.8129
 20
-5.4753
 30
0.0
 10
-38.7189
 20
-5.4753
 30
0.0
 10
-38.7189
 20
-5.4753
 30
0.0
 10
-38.7189
 20
-5.4753
 30
0.0
 10
-38.7189
 20
-5.4753
 30
0.0
 10
-38.2674
 20
-8.4753
 30
0.0
 10
-38.2674
 20
-8.4753
 30
0.0
 10
-38.2674
 20
-8.4753
 30
0.0
 10
-38.2674
 20
-8.4753
 30
0.0
 10
-39.2363
 20
-8.4753
 30
0.0
 10
-39.2363
 20
-8.4753
 30
0.0
  0
SPLINE
  5
6A
330
1F
100
AcDbEntity
  8
ROUND
 62
   250
100
AcDbSpline
210
0.0
220
0.0
230
1.0
 70
    11
 71
     3
 72
    20
 73
    16
 74
     0
 42
0.0000000001
 43
0.0000000001
 40
0.0
 40
0.0
 40
0.0
 40
0.0
 40
0.2
 40
0.2
 40
0.2
 40
0.2
 40
0.4
 40
0.4
 40
0.4
 40
0.4
 40
0.6
 40
0.6
 40
0.6
 40
0.6
 40
1.0
 40
1.0
 40
1.0
 40
1.0
 10
-39.2241
 20
14.4075
 30
0.0
 10
-39.2241
 20
14.4075
 30
0.0
 10
-38.8007
 20
17.4075
 30
0.0
 10
-38.8007
 20
17.4075
 30
0.0
 10
-38.8007
 20
17.4075
 30
0.0
 10
-38.8007
 20
17.4075
 30
0.0
 10
-38.7067
 20
17.4075
 30
0.0
 10
-38.7067
 20
17.4075
 30
0.0
 10
-38.7067
 20
17.4075
 30
0.0
 10
-38.7067
 20
17.4075
 30
0.0
 10
-38.2552
 20
14.4075
 30
0.0
 10
-38.2552
 20
14.4075
 30
0.0
 10
-38.2552
 20
14.4075
 30
0.0
 10
-38.2552
 20
14.4075
 30
0.0
 10
-39.2241
 20
14.4075
 30
0.0
 10
-39.2241
 20
14.4075
 30
0.0
  0
SPLINE
  5
6B
330
1F
100
AcDbEntity
  8
ROUND
 62
   250
100
AcDbSpline
210
0.0
220
0.0
230
1.0
 70
    11
 71
     3
 72
    20
 73
    16
 74
     0
 42
0.0000000001
 43
0.0000000001
 40
0.0
 40
0.0
 40
0.0
 40
0.0
 40
0.2
 40
0.2
 40
0.2
 40
0.2
 40
0.4
 40
0.4
 40
0.4
 40
0.4
 40
0.6
 40
0.6
 40
0.6
 40
0.6
 40
1.0
 40
1.0
 40
1.0
 40
1.0
 10
-38.2857
 20
-2.2576
 30
0.0
 10
-38.2857
 20
-2.2576
 30
0.0
 10
-38.709
 20
-5.2576
 30
0.0
 10
-38.709
 20
-5.2576
 30
0.0
 10
-38.709
 20
-5.2576
 30
0.0
 10
-38.709
 20
-5.2576
 30
0.0
 10
-38.8031
 20
-5.2576
 30
0.0
 10
-38.8031
 20
-5.2576
 30
0.0
 10
-38.8031
 20
-5.2576
 30
0.0
 10
-38.8031
 20
-5.2576
 30
0.0
 10
-39.2546
 20
-2.2576
 30
0.0
 10
-39.2546
 20
-2.2576
 30
0.0
 10
-39.2546
 20
-2.2576
 30
0.0
 10
-39.2546
 20
-2.2576
 30
0.0
 10
-38.2857
 20
-2.2576
 30
0.0
 10
-38.2857
 20
-2.2576
 30
0.0
  0
SPLINE
  5
6C
330
1F
100
AcDbEntity
  8
ROUND
 62
   250
100
AcDbSpline
210
0.0
220
0.0
230
1.0
 70
    11
 71
     3
 72
    20
 73
    16
 74
     0
 42
0.0000000001
 43
0.0000000001
 40
0.0
 40
0.0
 40
0.0
 40
0.0
 40
0.2
 40
0.2
 40
0.2
 40
0.2
 40
0.4
 40
0.4
 40
0.4
 40
0.4
 40
0.6
 40
0.6
 40
0.6
 40
0.6
 40
1.0
 40
1.0
 40
1.0
 40
1.0
 10
-29.7869
 20
16.8677
 30
0.0
 10
-29.7869
 20
16.8677
 30
0.0
 10
-29.7869
 20
17.4263
 30
0.0
 10
-29.7869
 20
17.4263
 30
0.0
 10
-29.7869
 20
17.4263
 30
0.0
 10
-29.7869
 20
17.4263
 30
0.0
 10
-17.58
 20
17.4263
 30
0.0
 10
-17.58
 20
17.4263
 30
0.0
 10
-17.58
 20
17.4263
 30
0.0
 10
-17.58
 20
17.4263
 30
0.0
 10
-17.58
 20
16.8677
 30
0.0
 10
-17.58
 20
16.8677
 30
0.0
 10
-17.58
 20
16.8677
 30
0.0
 10
-17.58
 20
16.8677
 30
0.0
 10
-29.7869
 20
16.8677
 30
0.0
 10
-29.7869
 20
16.8677
 30
0.0
  0
SPLINE
  5
6D
330
1F
100
AcDbEntity
  8
ROUND
 62
   250
100
AcDbSpline
210
0.0
220
0.0
230
1.0
 70
     8
 71
     3
 72
     8
 73
     4
 74
     0
 42
0.0000000001
 43
0.0000000001
 40
0.0
 40
0.0
 40
0.0
 40
0.0
 40
1.0
 40
1.0
 40
1.0
 40
1.0
 10
-18.2728
 20
14.6121
 30
0.0
 10
-17.88
 20
14.6121
 30
0.0
 10
-17.5617
 20
14.9305
 30
0.0
 10
-17.5617
 20
15.3233
 30
0.0
  0
SPLINE
  5
6E
330
1F
100
AcDbEntity
  8
ROUND
 62
   250
100
AcDbSpline
210
0.0
220
0.0
230
1.0
 70
     8
 71
     3
 72
   124
 73
   120
 74
     0
 42
0.0000000001
 43
0.0000000001
 40
0.0
 40
0.0
 40
0.0
 40
0.0
 40
0.032258064516129
 40
0.032258064516129
 40
0.032258064516129
 40
0.032258064516129
 40
0.0645161290322581
 40
0.0645161290322581
 40
0.0645161290322581
 40
0.0645161290322581
 40
0.0967741935483871
 40
0.0967741935483871
 40
0.0967741935483871
 40
0.0967741935483871
 40
0.1290322580645161
 40
0.1290322580645161
 40
0.1290322580645161
 40
0.1290322580645161
 40
0.1612903225806452
 40
0.1612903225806452
 40
0.1612903225806452
 40
0.1612903225806452
 40
0.1935483870967742
 40
0.1935483870967742
 40
0.1935483870967742
 40
0.1935483870967742
 40
0.2258064516129032
 40
0.2258064516129032
 40
0.2258064516129032
 40
0.2258064516129032
 40
0.2580645161290323
 40
0.2580645161290323
 40
0.2580645161290323
 40
0.2580645161290323
 40
0.2903225806451613
 40
0.2903225806451613
 40
0.2903225806451613
 40
0.2903225806451613
 40
0.3225806451612903
 40
0.3225806451612903
 40
0.3225806451612903
 40
0.3225806451612903
 40
0.3548387096774194
 40
0.3548387096774194
 40
0.3548387096774194
 40
0.3548387096774194
 40
0.3870967741935484
 40
0.3870967741935484
 40
0.3870967741935484
 40
0.3870967741935484
 40
0.4193548387096774
 40
0.4193548387096774
 40
0.4193548387096774
 40
0.4193548387096774
 40
0.4516129032258064
 40
0.4516129032258064
 40
0.4516129032258064
 40
0.4516129032258064
 40
0.4838709677419355
 40
0.4838709677419355
 40
0.4838709677419355
 40
0.4838709677419355
 40
0.5161290322580645
 40
0.5161290322580645
 40
0.5161290322580645
 40
0.5161290322580645
 40
0.5483870967741935
 40
0.5483870967741935
 40
0.5483870967741935
 40
0.5483870967741935
 40
0.5806451612903226
 40
0.5806451612903226
 40
0.5806451612903226
 40
0.5806451612903226
 40
0.6129032258064516
 40
0.6129032258064516
 40
0.6129032258064516
 40
0.6129032258064516
 40
0.6451612903225806
 40
0.6451612903225806
 40
0.6451612903225806
 40
0.6451612903225806
 40
0.6774193548387096
 40
0.6774193548387096
 40
0.6774193548387096
 40
0.6774193548387096
 40
0.7096774193548387
 40
0.7096774193548387
 40
0.7096774193548387
 40
0.7096774193548387
 40
0.7419354838709677
 40
0.7419354838709677
 40
0.7419354838709677
 40
0.7419354838709677
 40
0.7741935483870968
 40
0.7741935483870968
 40
0.7741935483870968
 40
0.7741935483870968
 40
0.8064516129032258
 40
0.8064516129032258
 40
0.8064516129032258
 40
0.8064516129032258
 40
0.8387096774193549
 40
0.8387096774193549
 40
0.8387096774193549
 40
0.8387096774193549
 40
0.8709677419354839
 40
0.8709677419354839
 40
0.8709677419354839
 40
0.8709677419354839
 40
0.9032258064516129
 40
0.9032258064516129
 40
0.9032258064516129
 40
0.9032258064516129
 40
0.9354838709677419
 40
0.9354838709677419
 40
0.9354838709677419
 40
0.9354838709677419
 40
1.0
 40
1.0
 40
1.0
 40
1.0
 10
-17.5617
 20
15.3233
 30
0.0
 10
-17.5617
 20
15.3233
 30
0.0
 10
-17.5529
 20
15.4657
 30
0.0
 10
-17.5529
 20
15.4657
 30
0.0
 10
-17.5529
 20
15.4657
 30
0.0
 10
-17.5529
 20
15.4657
 30
0.0
 10
-18.3528
 20
15.4665
 30
0.0
 10
-18.3528
 20
15.4665
 30
0.0
 10
-18.3528
 20
15.4665
 30
0.0
 10
-18.3528
 20
15.4665
 30
0.0
 10
-18.7257
 20
15.4669
 30
0.0
 10
-18.7257
 20
15.4669
 30
0.0
 10
-18.7257
 20
15.4669
 30
0.0
 10
-18.7257
 20
15.4669
 30
0.0
 10
-19.1535
 20
15.4675
 30
0.0
 10
-19.1535
 20
15.4675
 30
0.0
 10
-19.1535
 20
15.4675
 30
0.0
 10
-19.1535
 20
15.4675
 30
0.0
 10
-19.6294
 20
15.468
 30
0.0
 10
-19.6294
 20
15.468
 30
0.0
 10
-19.6294
 20
15.468
 30
0.0
 10
-19.6294
 20
15.468
 30
0.0
 10
-20.1508
 20
15.4685
 30
0.0
 10
-20.1508
 20
15.4685
 30
0.0
 10
-20.1508
 20
15.4685
 30
0.0
 10
-20.1508
 20
15.4685
 30
0.0
 10
-20.7109
 20
15.4691
 30
0.0
 10
-20.7109
 20
15.4691
 30
0.0
 10
-20.7109
 20
15.4691
 30
0.0
 10
-20.7109
 20
15.4691
 30
0.0
 10
-21.3022
 20
15.4697
 30
0.0
 10
-21.3022
 20
15.4697
 30
0.0
 10
-21.3022
 20
15.4697
 30
0.0
 10
-21.3022
 20
15.4697
 30
0.0
 10
-21.9212
 20
15.4704
 30
0.0
 10
-21.9212
 20
15.4704
 30
0.0
 10
-21.9212
 20
15.4704
 30
0.0
 10
-21.9212
 20
15.4704
 30
0.0
 10
-22.559
 20
15.471
 30
0.0
 10
-22.559
 20
15.471
 30
0.0
 10
-22.559
 20
15.471
 30
0.0
 10
-22.559
 20
15.471
 30
0.0
 10
-23.2077
 20
15.4717
 30
0.0
 10
-23.2077
 20
15.4717
 30
0.0
 10
-23.2077
 20
15.4717
 30
0.0
 10
-23.2077
 20
15.4717
 30
0.0
 10
-24.1474
 20
15.4728
 30
0.0
 10
-24.1474
 20
15.4728
 30
0.0
 10
-24.1474
 20
15.4728
 30
0.0
 10
-24.1474
 20
15.4728
 30
0.0
 10
-24.7962
 20
15.4735
 30
0.0
 10
-24.7962
 20
15.4735
 30
0.0
 10
-24.7962
 20
15.4735
 30
0.0
 10
-24.7962
 20
15.4735
 30
0.0
 10
-25.434
 20
15.4742
 30
0.0
 10
-25.434
 20
15.4742
 30
0.0
 10
-25.434
 20
15.4742
 30
0.0
 10
-25.434
 20
15.4742
 30
0.0
 10
-26.0526
 20
15.4748
 30
0.0
 10
-26.0526
 20
15.4748
 30
0.0
 10
-26.0526
 20
15.4748
 30
0.0
 10
-26.0526
 20
15.4748
 30
0.0
 10
-26.645
 20
15.4754
 30
0.0
 10
-26.645
 20
15.4754
 30
0.0
 10
-26.645
 20
15.4754
 30
0.0
 10
-26.645
 20
15.4754
 30
0.0
 10
-27.2046
 20
15.476
 30
0.0
 10
-27.2046
 20
15.476
 30
0.0
 10
-27.2046
 20
15.476
 30
0.0
 10
-27.2046
 20
15.476
 30
0.0
 10
-27.7252
 20
15.4767
 30
0.0
 10
-27.7252
 20
15.4767
 30
0.0
 10
-27.7252
 20
15.4767
 30
0.0
 10
-27.7252
 20
15.4767
 30
0.0
 10
-28.2026
 20
15.4772
 30
0.0
 10
-28.2026
 20
15.4772
 30
0.0
 10
-28.2026
 20
15.4772
 30
0.0
 10
-28.2026
 20
15.4772
 30
0.0
 10
-28.6293
 20
15.4776
 30
0.0
 10
-28.6293
 20
15.4776
 30
0.0
 10
-28.6293
 20
15.4776
 30
0.0
 10
-28.6293
 20
15.4776
 30
0.0
 10
-29.001
 20
15.478
 30
0.0
 10
-29.001
 20
15.478
 30
0.0
 10
-29.001
 20
15.478
 30
0.0
 10
-29.001
 20
15.478
 30
0.0
 10
-29.4678
 20
15.4785
 30
0.0
 10
-29.4678
 20
15.4785
 30
0.0
 10
-29.4678
 20
15.4785
 30
0.0
 10
-29.4678
 20
15.4785
 30
0.0
 10
-29.8637
 20
15.4789
 30
0.0
 10
-29.8637
 20
15.4789
 30
0.0
 10
-29.8637
 20
15.4789
 30
0.0
 10
-29.8637
 20
15.4789
 30
0.0
 10
-29.8506
 20
15.2288
 30
0.0
 10
-29.8506
 20
15.2288
 30
0.0
 10
-29.8506
 20
15.2288
 30
0.0
 10
-29.8506
 20
15.2288
 30
0.0
 10
-29.7586
 20
14.9919
 30
0.0
 10
-29.7586
 20
14.9919
 30
0.0
 10
-29.7586
 20
14.9919
 30
0.0
 10
-29.7586
 20
14.9919
 30
0.0
 10
-29.6272
 20
14.8207
 30
0.0
 10
-29.6272
 20
14.8207
 30
0.0
 10
-29.6272
 20
14.8207
 30
0.0
 10
-29.6272
 20
14.8207
 30
0.0
 10
-29.3775
 20
14.6759
 30
0.0
 10
-29.3775
 20
14.6759
 30
0.0
 10
-29.3775
 20
14.6759
 30
0.0
 10
-29.3775
 20
14.6759
 30
0.0
 10
-29.2462
 20
14.61
 30
0.0
 10
-29.2462
 20
14.61
 30
0.0
 10
-29.2462
 20
14.61
 30
0.0
 10
-29.2462
 20
14.61
 30
0.0
 10
-29.1542
 20
14.61
 30
0.0
 10
-29.1542
 20
14.61
 30
0.0
 10
-29.1542
 20
14.61
 30
0.0
 10
-29.1542
 20
14.61
 30
0.0
 10
-18.2728
 20
14.6121
 30
0.0
 10
-18.2728
 20
14.6121
 30
0.0
  0
SPLINE
  5
6F
330
1F
100
AcDbEntity
  8
ROUND
 62
   250
100
AcDbSpline
210
0.0
220
0.0
230
1.0
 70
    27
 71
     3
 72
    12
 73
     8
 74
     0
 42
0.0000000001
 43
0.0000000001
 40
0.0
 40
0.0
 40
0.0
 40
0.0
 40
0.3333333333333333
 40
0.3333333333333333
 40
0.3333333333333333
 40
0.3333333333333333
 40
1.0
 40
1.0
 40
1.0
 40
1.0
 10
-29.9328
 20
16.8872
 30
0.0
 10
-29.9328
 20
16.8872
 30
0.0
 10
-29.9328
 20
15.4662
 30
0.0
 10
-29.9328
 20
15.4662
 30
0.0
 10
-29.9328
 20
15.4662
 30
0.0
 10
-29.9328
 20
15.4662
 30
0.0
 10
-29.9328
 20
16.8872
 30
0.0
 10
-29.9328
 20
16.8872
 30
0.0
  0
SPLINE
  5
70
330
1F
100
AcDbEntity
  8
ROUND
 62
   250
100
AcDbSpline
210
0.0
220
0.0
230
1.0
 70
    27
 71
     3
 72
    16
 73
    12
 74
     0
 42
0.0000000001
 43
0.0000000001
 40
0.0
 40
0.0
 40
0.0
 40
0.0
 40
0.25
 40
0.25
 40
0.25
 40
0.25
 40
0.5
 40
0.5
 40
0.5
 40
0.5
 40
1.0
 40
1.0
 40
1.0
 40
1.0
 10
-27.7252
 20
16.8872
 30
0.0
 10
-27.7252
 20
16.8872
 30
0.0
 10
-27.7252
 20
15.4767
 30
0.0
 10
-27.7252
 20
15.4767
 30
0.0
 10
-27.7252
 20
15.4767
 30
0.0
 10
-27.7252
 20
15.4767
 30
0.0
 10
-27.7252
 20
15.4662
 30
0.0
 10
-27.7252
 20
15.4662
 30
0.0
 10
-27.7252
 20
15.4662
 30
0.0
 10
-27.7252
 20
15.4662
 30
0.0
 10
-27.7252
 20
16.8872
 30
0.0
 10
-27.7252
 20
16.8872
 30
0.0
  0
SPLINE
  5
71
330
1F
100
AcDbEntity
  8
ROUND
 62
   250
100
AcDbSpline
210
0.0
220
0.0
230
1.0
 70
    27
 71
     3
 72
    16
 73
    12
 74
     0
 42
0.0000000001
 43
0.0000000001
 40
0.0
 40
0.0
 40
0.0
 40
0.0
 40
0.25
 40
0.25
 40
0.25
 40
0.25
 40
0.5
 40
0.5
 40
0.5
 40
0.5
 40
1.0
 40
1.0
 40
1.0
 40
1.0
 10
-28.2026
 20
16.8872
 30
0.0
 10
-28.2026
 20
16.8872
 30
0.0
 10
-28.2026
 20
15.4772
 30
0.0
 10
-28.2026
 20
15.4772
 30
0.0
 10
-28.2026
 20
15.4772
 30
0.0
 10
-28.2026
 20
15.4772
 30
0.0
 10
-28.2026
 20
15.4662
 30
0.0
 10
-28.2026
 20
15.4662
 30
0.0
 10
-28.2026
 20
15.4662
 30
0.0
 10
-28.2026
 20
15.4662
 30
0.0
 10
-28.2026
 20
16.8872
 30
0.0
 10
-28.2026
 20
16.8872
 30
0.0
  0
SPLINE
  5
72
330
1F
100
AcDbEntity
  8
ROUND
 62
   250
100
AcDbSpline
210
0.0
220
0.0
230
1.0
 70
    27
 71
     3
 72
    16
 73
    12
 74
     0
 42
0.0000000001
 43
0.0000000001
 40
0.0
 40
0.0
 40
0.0
 40
0.0
 40
0.25
 40
0.25
 40
0.25
 40
0.25
 40
0.5
 40
0.5
 40
0.5
 40
0.5
 40
1.0
 40
1.0
 40
1.0
 40
1.0
 10
-28.6293
 20
16.8872
 30
0.0
 10
-28.6293
 20
16.8872
 30
0.0
 10
-28.6293
 20
15.4776
 30
0.0
 10
-28.6293
 20
15.4776
 30
0.0
 10
-28.6293
 20
15.4776
 30
0.0
 10
-28.6293
 20
15.4776
 30
0.0
 10
-28.6293
 20
15.4662
 30
0.0
 10
-28.6293
 20
15.4662
 30
0.0
 10
-28.6293
 20
15.4662
 30
0.0
 10
-28.6293
 20
15.4662
 30
0.0
 10
-28.6293
 20
16.8872
 30
0.0
 10
-28.6293
 20
16.8872
 30
0.0
  0
SPLINE
  5
73
330
1F
100
AcDbEntity
  8
ROUND
 62
   250
100
AcDbSpline
210
0.0
220
0.0
230
1.0
 70
    27
 71
     3
 72
    16
 73
    12
 74
     0
 42
0.0000000001
 43
0.0000000001
 40
0.0
 40
0.0
 40
0.0
 40
0.0
 40
0.25
 40
0.25
 40
0.25
 40
0.25
 40
0.5
 40
0.5
 40
0.5
 40
0.5
 40
1.0
 40
1.0
 40
1.0
 40
1.0
 10
-29.001
 20
16.8872
 30
0.0
 10
-29.001
 20
16.8872
 30
0.0
 10
-29.001
 20
15.478
 30
0.0
 10
-29.001
 20
15.478
 30
0.0
 10
-29.001
 20
15.478
 30
0.0
 10
-29.001
 20
15.478
 30
0.0
 10
-29.001
 20
15.4662
 30
0.0
 10
-29.001
 20
15.4662
 30
0.0
 10
-29.001
 20
15.4662
 30
0.0
 10
-29.001
 20
15.4662
 30
0.0
 10
-29.001
 20
16.8872
 30
0.0
 10
-29.001
 20
16.8872
 30
0.0
  0
SPLINE
  5
74
330
1F
100
AcDbEntity
  8
ROUND
 62
   250
100
AcDbSpline
210
0.0
220
0.0
230
1.0
 70
    27
 71
     3
 72
    16
 73
    12
 74
     0
 42
0.0000000001
 43
0.0000000001
 40
0.0
 40
0.0
 40
0.0
 40
0.0
 40
0.25
 40
0.25
 40
0.25
 40
0.25
 40
0.5
 40
0.5
 40
0.5
 40
0.5
 40
1.0
 40
1.0
 40
1.0
 40
1.0
 10
-29.4678
 20
16.8872
 30
0.0
 10
-29.4678
 20
16.8872
 30
0.0
 10
-29.4678
 20
15.4785
 30
0.0
 10
-29.4678
 20
15.4785
 30
0.0
 10
-29.4678
 20
15.4785
 30
0.0
 10
-29.4678
 20
15.4785
 30
0.0
 10
-29.4678
 20
15.4662
 30
0.0
 10
-29.4678
 20
15.4662
 30
0.0
 10
-29.4678
 20
15.4662
 30
0.0
 10
-29.4678
 20
15.4662
 30
0.0
 10
-29.4678
 20
16.8872
 30
0.0
 10
-29.4678
 20
16.8872
 30
0.0
  0
SPLINE
  5
75
330
1F
100
AcDbEntity
  8
ROUND
 62
   250
100
AcDbSpline
210
0.0
220
0.0
230
1.0
 70
    27
 71
     3
 72
    16
 73
    12
 74
     0
 42
0.0000000001
 43
0.0000000001
 40
0.0
 40
0.0
 40
0.0
 40
0.0
 40
0.25
 40
0.25
 40
0.25
 40
0.25
 40
0.5
 40
0.5
 40
0.5
 40
0.5
 40
1.0
 40
1.0
 40
1.0
 40
1.0
 10
-27.2046
 20
16.8872
 30
0.0
 10
-27.2046
 20
16.8872
 30
0.0
 10
-27.2046
 20
15.476
 30
0.0
 10
-27.2046
 20
15.476
 30
0.0
 10
-27.2046
 20
15.476
 30
0.0
 10
-27.2046
 20
15.476
 30
0.0
 10
-27.2046
 20
15.4662
 30
0.0
 10
-27.2046
 20
15.4662
 30
0.0
 10
-27.2046
 20
15.4662
 30
0.0
 10
-27.2046
 20
15.4662
 30
0.0
 10
-27.2046
 20
16.8872
 30
0.0
 10
-27.2046
 20
16.8872
 30
0.0
  0
SPLINE
  5
76
330
1F
100
AcDbEntity
  8
ROUND
 62
   250
100
AcDbSpline
210
0.0
220
0.0
230
1.0
 70
    27
 71
     3
 72
    12
 73
     8
 74
     0
 42
0.0000000001
 43
0.0000000001
 40
0.0
 40
0.0
 40
0.0
 40
0.0
 40
0.3333333333333333
 40
0.3333333333333333
 40
0.3333333333333333
 40
0.3333333333333333
 40
1.0
 40
1.0
 40
1.0
 40
1.0
 10
-17.8878
 20
16.8872
 30
0.0
 10
-17.8878
 20
16.8872
 30
0.0
 10
-17.8878
 20
15.4662
 30
0.0
 10
-17.8878
 20
15.4662
 30
0.0
 10
-17.8878
 20
15.4662
 30
0.0
 10
-17.8878
 20
15.4662
 30
0.0
 10
-17.8878
 20
16.8872
 30
0.0
 10
-17.8878
 20
16.8872
 30
0.0
  0
SPLINE
  5
77
330
1F
100
AcDbEntity
  8
ROUND
 62
   250
100
AcDbSpline
210
0.0
220
0.0
230
1.0
 70
    27
 71
     3
 72
    16
 73
    12
 74
     0
 42
0.0000000001
 43
0.0000000001
 40
0.0
 40
0.0
 40
0.0
 40
0.0
 40
0.25
 40
0.25
 40
0.25
 40
0.25
 40
0.5
 40
0.5
 40
0.5
 40
0.5
 40
1.0
 40
1.0
 40
1.0
 40
1.0
 10
-18.3528
 20
16.8872
 30
0.0
 10
-18.3528
 20
16.8872
 30
0.0
 10
-18.3528
 20
15.4665
 30
0.0
 10
-18.3528
 20
15.4665
 30
0.0
 10
-18.3528
 20
15.4665
 30
0.0
 10
-18.3528
 20
15.4665
 30
0.0
 10
-18.3528
 20
15.4662
 30
0.0
 10
-18.3528
 20
15.4662
 30
0.0
 10
-18.3528
 20
15.4662
 30
0.0
 10
-18.3528
 20
15.4662
 30
0.0
 10
-18.3528
 20
16.8872
 30
0.0
 10
-18.3528
 20
16.8872
 30
0.0
  0
SPLINE
  5
78
330
1F
100
AcDbEntity
  8
ROUND
 62
   250
100
AcDbSpline
210
0.0
220
0.0
230
1.0
 70
    27
 71
     3
 72
    16
 73
    12
 74
     0
 42
0.0000000001
 43
0.0000000001
 40
0.0
 40
0.0
 40
0.0
 40
0.0
 40
0.25
 40
0.25
 40
0.25
 40
0.25
 40
0.5
 40
0.5
 40
0.5
 40
0.5
 40
1.0
 40
1.0
 40
1.0
 40
1.0
 10
-18.7257
 20
16.8872
 30
0.0
 10
-18.7257
 20
16.8872
 30
0.0
 10
-18.7257
 20
15.4669
 30
0.0
 10
-18.7257
 20
15.4669
 30
0.0
 10
-18.7257
 20
15.4669
 30
0.0
 10
-18.7257
 20
15.4669
 30
0.0
 10
-18.7257
 20
15.4662
 30
0.0
 10
-18.7257
 20
15.4662
 30
0.0
 10
-18.7257
 20
15.4662
 30
0.0
 10
-18.7257
 20
15.4662
 30
0.0
 10
-18.7257
 20
16.8872
 30
0.0
 10
-18.7257
 20
16.8872
 30
0.0
  0
SPLINE
  5
79
330
1F
100
AcDbEntity
  8
ROUND
 62
   250
100
AcDbSpline
210
0.0
220
0.0
230
1.0
 70
    27
 71
     3
 72
    16
 73
    12
 74
     0
 42
0.0000000001
 43
0.0000000001
 40
0.0
 40
0.0
 40
0.0
 40
0.0
 40
0.25
 40
0.25
 40
0.25
 40
0.25
 40
0.5
 40
0.5
 40
0.5
 40
0.5
 40
1.0
 40
1.0
 40
1.0
 40
1.0
 10
-19.1535
 20
16.8872
 30
0.0
 10
-19.1535
 20
16.8872
 30
0.0
 10
-19.1535
 20
15.4675
 30
0.0
 10
-19.1535
 20
15.4675
 30
0.0
 10
-19.1535
 20
15.4675
 30
0.0
 10
-19.1535
 20
15.4675
 30
0.0
 10
-19.1535
 20
15.4662
 30
0.0
 10
-19.1535
 20
15.4662
 30
0.0
 10
-19.1535
 20
15.4662
 30
0.0
 10
-19.1535
 20
15.4662
 30
0.0
 10
-19.1535
 20
16.8872
 30
0.0
 10
-19.1535
 20
16.8872
 30
0.0
  0
SPLINE
  5
7A
330
1F
100
AcDbEntity
  8
ROUND
 62
   250
100
AcDbSpline
210
0.0
220
0.0
230
1.0
 70
    27
 71
     3
 72
    16
 73
    12
 74
     0
 42
0.0000000001
 43
0.0000000001
 40
0.0
 40
0.0
 40
0.0
 40
0.0
 40
0.25
 40
0.25
 40
0.25
 40
0.25
 40
0.5
 40
0.5
 40
0.5
 40
0.5
 40
1.0
 40
1.0
 40
1.0
 40
1.0
 10
-19.6294
 20
16.8872
 30
0.0
 10
-19.6294
 20
16.8872
 30
0.0
 10
-19.6294
 20
15.468
 30
0.0
 10
-19.6294
 20
15.468
 30
0.0
 10
-19.6294
 20
15.468
 30
0.0
 10
-19.6294
 20
15.468
 30
0.0
 10
-19.6294
 20
15.4662
 30
0.0
 10
-19.6294
 20
15.4662
 30
0.0
 10
-19.6294
 20
15.4662
 30
0.0
 10
-19.6294
 20
15.4662
 30
0.0
 10
-19.6294
 20
16.8872
 30
0.0
 10
-19.6294
 20
16.8872
 30
0.0
  0
SPLINE
  5
7B
330
1F
100
AcDbEntity
  8
ROUND
 62
   250
100
AcDbSpline
210
0.0
220
0.0
230
1.0
 70
    27
 71
     3
 72
    16
 73
    12
 74
     0
 42
0.0000000001
 43
0.0000000001
 40
0.0
 40
0.0
 40
0.0
 40
0.0
 40
0.25
 40
0.25
 40
0.25
 40
0.25
 40
0.5
 40
0.5
 40
0.5
 40
0.5
 40
1.0
 40
1.0
 40
1.0
 40
1.0
 10
-20.1508
 20
16.8872
 30
0.0
 10
-20.1508
 20
16.8872
 30
0.0
 10
-20.1508
 20
15.4685
 30
0.0
 10
-20.1508
 20
15.4685
 30
0.0
 10
-20.1508
 20
15.4685
 30
0.0
 10
-20.1508
 20
15.4685
 30
0.0
 10
-20.1508
 20
15.4662
 30
0.0
 10
-20.1508
 20
15.4662
 30
0.0
 10
-20.1508
 20
15.4662
 30
0.0
 10
-20.1508
 20
15.4662
 30
0.0
 10
-20.1508
 20
16.8872
 30
0.0
 10
-20.1508
 20
16.8872
 30
0.0
  0
SPLINE
  5
7C
330
1F
100
AcDbEntity
  8
ROUND
 62
   250
100
AcDbSpline
210
0.0
220
0.0
230
1.0
 70
    27
 71
     3
 72
    16
 73
    12
 74
     0
 42
0.0000000001
 43
0.0000000001
 40
0.0
 40
0.0
 40
0.0
 40
0.0
 40
0.25
 40
0.25
 40
0.25
 40
0.25
 40
0.5
 40
0.5
 40
0.5
 40
0.5
 40
1.0
 40
1.0
 40
1.0
 40
1.0
 10
-20.7109
 20
16.8872
 30
0.0
 10
-20.7109
 20
16.8872
 30
0.0
 10
-20.7109
 20
15.4691
 30
0.0
 10
-20.7109
 20
15.4691
 30
0.0
 10
-20.7109
 20
15.4691
 30
0.0
 10
-20.7109
 20
15.4691
 30
0.0
 10
-20.7109
 20
15.4662
 30
0.0
 10
-20.7109
 20
15.4662
 30
0.0
 10
-20.7109
 20
15.4662
 30
0.0
 10
-20.7109
 20
15.4662
 30
0.0
 10
-20.7109
 20
16.8872
 30
0.0
 10
-20.7109
 20
16.8872
 30
0.0
  0
SPLINE
  5
7D
330
1F
100
AcDbEntity
  8
ROUND
 62
   250
100
AcDbSpline
210
0.0
220
0.0
230
1.0
 70
    27
 71
     3
 72
    16
 73
    12
 74
     0
 42
0.0000000001
 43
0.0000000001
 40
0.0
 40
0.0
 40
0.0
 40
0.0
 40
0.25
 40
0.25
 40
0.25
 40
0.25
 40
0.5
 40
0.5
 40
0.5
 40
0.5
 40
1.0
 40
1.0
 40
1.0
 40
1.0
 10
-21.3022
 20
16.8872
 30
0.0
 10
-21.3022
 20
16.8872
 30
0.0
 10
-21.3022
 20
15.4697
 30
0.0
 10
-21.3022
 20
15.4697
 30
0.0
 10
-21.3022
 20
15.4697
 30
0.0
 10
-21.3022
 20
15.4697
 30
0.0
 10
-21.3022
 20
15.4662
 30
0.0
 10
-21.3022
 20
15.4662
 30
0.0
 10
-21.3022
 20
15.4662
 30
0.0
 10
-21.3022
 20
15.4662
 30
0.0
 10
-21.3022
 20
16.8872
 30
0.0
 10
-21.3022
 20
16.8872
 30
0.0
  0
SPLINE
  5
7E
330
1F
100
AcDbEntity
  8
ROUND
 62
   250
100
AcDbSpline
210
0.0
220
0.0
230
1.0
 70
    27
 71
     3
 72
    16
 73
    12
 74
     0
 42
0.0000000001
 43
0.0000000001
 40
0.0
 40
0.0
 40
0.0
 40
0.0
 40
0.25
 40
0.25
 40
0.25
 40
0.25
 40
0.5
 40
0.5
 40
0.5
 40
0.5
 40
1.0
 40
1.0
 40
1.0
 40
1.0
 10
-21.9212
 20
16.8872
 30
0.0
 10
-21.9212
 20
16.8872
 30
0.0
 10
-21.9212
 20
15.4704
 30
0.0
 10
-21.9212
 20
15.4704
 30
0.0
 10
-21.9212
 20
15.4704
 30
0.0
 10
-21.9212
 20
15.4704
 30
0.0
 10
-21.9212
 20
15.4662
 30
0.0
 10
-21.9212
 20
15.4662
 30
0.0
 10
-21.9212
 20
15.4662
 30
0.0
 10
-21.9212
 20
15.4662
 30
0.0
 10
-21.9212
 20
16.8872
 30
0.0
 10
-21.9212
 20
16.8872
 30
0.0
  0
SPLINE
  5
7F
330
1F
100
AcDbEntity
  8
ROUND
 62
   250
100
AcDbSpline
210
0.0
220
0.0
230
1.0
 70
    27
 71
     3
 72
    16
 73
    12
 74
     0
 42
0.0000000001
 43
0.0000000001
 40
0.0
 40
0.0
 40
0.0
 40
0.0
 40
0.25
 40
0.25
 40
0.25
 40
0.25
 40
0.5
 40
0.5
 40
0.5
 40
0.5
 40
1.0
 40
1.0
 40
1.0
 40
1.0
 10
-22.559
 20
16.8872
 30
0.0
 10
-22.559
 20
16.8872
 30
0.0
 10
-22.559
 20
15.471
 30
0.0
 10
-22.559
 20
15.471
 30
0.0
 10
-22.559
 20
15.471
 30
0.0
 10
-22.559
 20
15.471
 30
0.0
 10
-22.559
 20
15.4662
 30
0.0
 10
-22.559
 20
15.4662
 30
0.0
 10
-22.559
 20
15.4662
 30
0.0
 10
-22.559
 20
15.4662
 30
0.0
 10
-22.559
 20
16.8872
 30
0.0
 10
-22.559
 20
16.8872
 30
0.0
  0
SPLINE
  5
80
330
1F
100
AcDbEntity
  8
ROUND
 62
   250
100
AcDbSpline
210
0.0
220
0.0
230
1.0
 70
    27
 71
     3
 72
    16
 73
    12
 74
     0
 42
0.0000000001
 43
0.0000000001
 40
0.0
 40
0.0
 40
0.0
 40
0.0
 40
0.25
 40
0.25
 40
0.25
 40
0.25
 40
0.5
 40
0.5
 40
0.5
 40
0.5
 40
1.0
 40
1.0
 40
1.0
 40
1.0
 10
-23.2077
 20
16.8872
 30
0.0
 10
-23.2077
 20
16.8872
 30
0.0
 10
-23.2077
 20
15.4717
 30
0.0
 10
-23.2077
 20
15.4717
 30
0.0
 10
-23.2077
 20
15.4717
 30
0.0
 10
-23.2077
 20
15.4717
 30
0.0
 10
-23.2077
 20
15.4662
 30
0.0
 10
-23.2077
 20
15.4662
 30
0.0
 10
-23.2077
 20
15.4662
 30
0.0
 10
-23.2077
 20
15.4662
 30
0.0
 10
-23.2077
 20
16.8872
 30
0.0
 10
-23.2077
 20
16.8872
 30
0.0
  0
SPLINE
  5
81
330
1F
100
AcDbEntity
  8
ROUND
 62
   250
100
AcDbSpline
210
0.0
220
0.0
230
1.0
 70
    27
 71
     3
 72
    16
 73
    12
 74
     0
 42
0.0000000001
 43
0.0000000001
 40
0.0
 40
0.0
 40
0.0
 40
0.0
 40
0.25
 40
0.25
 40
0.25
 40
0.25
 40
0.5
 40
0.5
 40
0.5
 40
0.5
 40
1.0
 40
1.0
 40
1.0
 40
1.0
 10
-24.1474
 20
16.8872
 30
0.0
 10
-24.1474
 20
16.8872
 30
0.0
 10
-24.1474
 20
15.4728
 30
0.0
 10
-24.1474
 20
15.4728
 30
0.0
 10
-24.1474
 20
15.4728
 30
0.0
 10
-24.1474
 20
15.4728
 30
0.0
 10
-24.1474
 20
15.4662
 30
0.0
 10
-24.1474
 20
15.4662
 30
0.0
 10
-24.1474
 20
15.4662
 30
0.0
 10
-24.1474
 20
15.4662
 30
0.0
 10
-24.1474
 20
16.8872
 30
0.0
 10
-24.1474
 20
16.8872
 30
0.0
  0
SPLINE
  5
82
330
1F
100
AcDbEntity
  8
ROUND
 62
   250
100
AcDbSpline
210
0.0
220
0.0
230
1.0
 70
    27
 71
     3
 72
    16
 73
    12
 74
     0
 42
0.0000000001
 43
0.0000000001
 40
0.0
 40
0.0
 40
0.0
 40
0.0
 40
0.25
 40
0.25
 40
0.25
 40
0.25
 40
0.5
 40
0.5
 40
0.5
 40
0.5
 40
1.0
 40
1.0
 40
1.0
 40
1.0
 10
-24.7962
 20
16.8872
 30
0.0
 10
-24.7962
 20
16.8872
 30
0.0
 10
-24.7962
 20
15.4735
 30
0.0
 10
-24.7962
 20
15.4735
 30
0.0
 10
-24.7962
 20
15.4735
 30
0.0
 10
-24.7962
 20
15.4735
 30
0.0
 10
-24.7962
 20
15.4662
 30
0.0
 10
-24.7962
 20
15.4662
 30
0.0
 10
-24.7962
 20
15.4662
 30
0.0
 10
-24.7962
 20
15.4662
 30
0.0
 10
-24.7962
 20
16.8872
 30
0.0
 10
-24.7962
 20
16.8872
 30
0.0
  0
SPLINE
  5
83
330
1F
100
AcDbEntity
  8
ROUND
 62
   250
100
AcDbSpline
210
0.0
220
0.0
230
1.0
 70
    27
 71
     3
 72
    16
 73
    12
 74
     0
 42
0.0000000001
 43
0.0000000001
 40
0.0
 40
0.0
 40
0.0
 40
0.0
 40
0.25
 40
0.25
 40
0.25
 40
0.25
 40
0.5
 40
0.5
 40
0.5
 40
0.5
 40
1.0
 40
1.0
 40
1.0
 40
1.0
 10
-25.434
 20
16.8872
 30
0.0
 10
-25.434
 20
16.8872
 30
0.0
 10
-25.434
 20
15.4742
 30
0.0
 10
-25.434
 20
15.4742
 30
0.0
 10
-25.434
 20
15.4742
 30
0.0
 10
-25.434
 20
15.4742
 30
0.0
 10
-25.434
 20
15.4662
 30
0.0
 10
-25.434
 20
15.4662
 30
0.0
 10
-25.434
 20
15.4662
 30
0.0
 10
-25.434
 20
15.4662
 30
0.0
 10
-25.434
 20
16.8872
 30
0.0
 10
-25.434
 20
16.8872
 30
0.0
  0
SPLINE
  5
84
330
1F
100
AcDbEntity
  8
ROUND
 62
   250
100
AcDbSpline
210
0.0
220
0.0
230
1.0
 70
    27
 71
     3
 72
    16
 73
    12
 74
     0
 42
0.0000000001
 43
0.0000000001
 40
0.0
 40
0.0
 40
0.0
 40
0.0
 40
0.25
 40
0.25
 40
0.25
 40
0.25
 40
0.5
 40
0.5
 40
0.5
 40
0.5
 40
1.0
 40
1.0
 40
1.0
 40
1.0
 10
-26.0526
 20
16.8872
 30
0.0
 10
-26.0526
 20
16.8872
 30
0.0
 10
-26.0526
 20
15.4748
 30
0.0
 10
-26.0526
 20
15.4748
 30
0.0
 10
-26.0526
 20
15.4748
 30
0.0
 10
-26.0526
 20
15.4748
 30
0.0
 10
-26.0526
 20
15.4662
 30
0.0
 10
-26.0526
 20
15.4662
 30
0.0
 10
-26.0526
 20
15.4662
 30
0.0
 10
-26.0526
 20
15.4662
 30
0.0
 10
-26.0526
 20
16.8872
 30
0.0
 10
-26.0526
 20
16.8872
 30
0.0
  0
SPLINE
  5
85
330
1F
100
AcDbEntity
  8
ROUND
 62
   250
100
AcDbSpline
210
0.0
220
0.0
230
1.0
 70
    27
 71
     3
 72
    16
 73
    12
 74
     0
 42
0.0000000001
 43
0.0000000001
 40
0.0
 40
0.0
 40
0.0
 40
0.0
 40
0.25
 40
0.25
 40
0.25
 40
0.25
 40
0.5
 40
0.5
 40
0.5
 40
0.5
 40
1.0
 40
1.0
 40
1.0
 40
1.0
 10
-26.645
 20
16.8872
 30
0.0
 10
-26.645
 20
16.8872
 30
0.0
 10
-26.645
 20
15.4754
 30
0.0
 10
-26.645
 20
15.4754
 30
0.0
 10
-26.645
 20
15.4754
 30
0.0
 10
-26.645
 20
15.4754
 30
0.0
 10
-26.645
 20
15.4662
 30
0.0
 10
-26.645
 20
15.4662
 30
0.0
 10
-26.645
 20
15.4662
 30
0.0
 10
-26.645
 20
15.4662
 30
0.0
 10
-26.645
 20
16.8872
 30
0.0
 10
-26.645
 20
16.8872
 30
0.0
  0
SPLINE
  5
86
330
1F
100
AcDbEntity
  8
ROUND
 62
   250
100
AcDbSpline
210
0.0
220
0.0
230
1.0
 70
    27
 71
     3
 72
    12
 73
     8
 74
     0
 42
0.0000000001
 43
0.0000000001
 40
0.0
 40
0.0
 40
0.0
 40
0.0
 40
0.3333333333333333
 40
0.3333333333333333
 40
0.3333333333333333
 40
0.3333333333333333
 40
1.0
 40
1.0
 40
1.0
 40
1.0
 10
-17.4217
 20
16.8872
 30
0.0
 10
-17.4217
 20
16.8872
 30
0.0
 10
-17.4217
 20
15.4662
 30
0.0
 10
-17.4217
 20
15.4662
 30
0.0
 10
-17.4217
 20
15.4662
 30
0.0
 10
-17.4217
 20
15.4662
 30
0.0
 10
-17.4217
 20
16.8872
 30
0.0
 10
-17.4217
 20
16.8872
 30
0.0
  0
SPLINE
  5
87
330
1F
100
AcDbEntity
  8
ROUND
 62
   250
100
AcDbSpline
210
0.0
220
0.0
230
1.0
 70
    11
 71
     3
 72
    20
 73
    16
 74
     0
 42
0.0000000001
 43
0.0000000001
 40
0.0
 40
0.0
 40
0.0
 40
0.0
 40
0.2
 40
0.2
 40
0.2
 40
0.2
 40
0.4
 40
0.4
 40
0.4
 40
0.4
 40
0.6
 40
0.6
 40
0.6
 40
0.6
 40
1.0
 40
1.0
 40
1.0
 40
1.0
 10
-17.6904
 20
1.5899
 30
0.0
 10
-17.6904
 20
1.5899
 30
0.0
 10
-17.6904
 20
1.0313
 30
0.0
 10
-17.6904
 20
1.0313
 30
0.0
 10
-17.6904
 20
1.0313
 30
0.0
 10
-17.6904
 20
1.0313
 30
0.0
 10
-29.8973
 20
1.0313
 30
0.0
 10
-29.8973
 20
1.0313
 30
0.0
 10
-29.8973
 20
1.0313
 30
0.0
 10
-29.8973
 20
1.0313
 30
0.0
 10
-29.8973
 20
1.5899
 30
0.0
 10
-29.8973
 20
1.5899
 30
0.0
 10
-29.8973
 20
1.5899
 30
0.0
 10
-29.8973
 20
1.5899
 30
0.0
 10
-17.6904
 20
1.5899
 30
0.0
 10
-17.6904
 20
1.5899
 30
0.0
  0
SPLINE
  5
88
330
1F
100
AcDbEntity
  8
ROUND
 62
   250
100
AcDbSpline
210
0.0
220
0.0
230
1.0
 70
     8
 71
     3
 72
     8
 73
     4
 74
     0
 42
0.0000000001
 43
0.0000000001
 40
0.0
 40
0.0
 40
0.0
 40
0.0
 40
1.0
 40
1.0
 40
1.0
 40
1.0
 10
-29.2045
 20
3.8455
 30
0.0
 10
-29.5973
 20
3.8455
 30
0.0
 10
-29.9156
 20
3.5271
 30
0.0
 10
-29.9156
 20
3.1343
 30
0.0
  0
SPLINE
  5
89
330
1F
100
AcDbEntity
  8
ROUND
 62
   250
100
AcDbSpline
210
0.0
220
0.0
230
1.0
 70
     8
 71
     3
 72
   124
 73
   120
 74
     0
 42
0.0000000001
 43
0.0000000001
 40
0.0
 40
0.0
 40
0.0
 40
0.0
 40
0.032258064516129
 40
0.032258064516129
 40
0.032258064516129
 40
0.032258064516129
 40
0.0645161290322581
 40
0.0645161290322581
 40
0.0645161290322581
 40
0.0645161290322581
 40
0.0967741935483871
 40
0.0967741935483871
 40
0.0967741935483871
 40
0.0967741935483871
 40
0.1290322580645161
 40
0.1290322580645161
 40
0.1290322580645161
 40
0.1290322580645161
 40
0.1612903225806452
 40
0.1612903225806452
 40
0.1612903225806452
 40
0.1612903225806452
 40
0.1935483870967742
 40
0.1935483870967742
 40
0.1935483870967742
 40
0.1935483870967742
 40
0.2258064516129032
 40
0.2258064516129032
 40
0.2258064516129032
 40
0.2258064516129032
 40
0.2580645161290323
 40
0.2580645161290323
 40
0.2580645161290323
 40
0.2580645161290323
 40
0.2903225806451613
 40
0.2903225806451613
 40
0.2903225806451613
 40
0.2903225806451613
 40
0.3225806451612903
 40
0.3225806451612903
 40
0.3225806451612903
 40
0.3225806451612903
 40
0.3548387096774194
 40
0.3548387096774194
 40
0.3548387096774194
 40
0.3548387096774194
 40
0.3870967741935484
 40
0.3870967741935484
 40
0.3870967741935484
 40
0.3870967741935484
 40
0.4193548387096774
 40
0.4193548387096774
 40
0.4193548387096774
 40
0.4193548387096774
 40
0.4516129032258064
 40
0.4516129032258064
 40
0.4516129032258064
 40
0.4516129032258064
 40
0.4838709677419355
 40
0.4838709677419355
 40
0.4838709677419355
 40
0.4838709677419355
 40
0.5161290322580645
 40
0.5161290322580645
 40
0.5161290322580645
 40
0.5161290322580645
 40
0.5483870967741935
 40
0.5483870967741935
 40
0.5483870967741935
 40
0.5483870967741935
 40
0.5806451612903226
 40
0.5806451612903226
 40
0.5806451612903226
 40
0.5806451612903226
 40
0.6129032258064516
 40
0.6129032258064516
 40
0.6129032258064516
 40
0.6129032258064516
 40
0.6451612903225806
 40
0.6451612903225806
 40
0.6451612903225806
 40
0.6451612903225806
 40
0.6774193548387096
 40
0.6774193548387096
 40
0.6774193548387096
 40
0.6774193548387096
 40
0.7096774193548387
 40
0.7096774193548387
 40
0.7096774193548387
 40
0.7096774193548387
 40
0.7419354838709677
 40
0.7419354838709677
 40
0.7419354838709677
 40
0.7419354838709677
 40
0.7741935483870968
 40
0.7741935483870968
 40
0.7741935483870968
 40
0.7741935483870968
 40
0.8064516129032258
 40
0.8064516129032258
 40
0.8064516129032258
 40
0.8064516129032258
 40
0.8387096774193549
 40
0.8387096774193549
 40
0.8387096774193549
 40
0.8387096774193549
 40
0.8709677419354839
 40
0.8709677419354839
 40
0.8709677419354839
 40
0.8709677419354839
 40
0.9032258064516129
 40
0.9032258064516129
 40
0.9032258064516129
 40
0.9032258064516129
 40
0.9354838709677419
 40
0.9354838709677419
 40
0.9354838709677419
 40
0.9354838709677419
 40
1.0
 40
1.0
 40
1.0
 40
1.0
 10
-29.9156
 20
3.1343
 30
0.0
 10
-29.9156
 20
3.1343
 30
0.0
 10
-29.9244
 20
2.9919
 30
0.0
 10
-29.9244
 20
2.9919
 30
0.0
 10
-29.9244
 20
2.9919
 30
0.0
 10
-29.9244
 20
2.9919
 30
0.0
 10
-29.1245
 20
2.9911
 30
0.0
 10
-29.1245
 20
2.9911
 30
0.0
 10
-29.1245
 20
2.9911
 30
0.0
 10
-29.1245
 20
2.9911
 30
0.0
 10
-28.7516
 20
2.9907
 30
0.0
 10
-28.7516
 20
2.9907
 30
0.0
 10
-28.7516
 20
2.9907
 30
0.0
 10
-28.7516
 20
2.9907
 30
0.0
 10
-28.3238
 20
2.9901
 30
0.0
 10
-28.3238
 20
2.9901
 30
0.0
 10
-28.3238
 20
2.9901
 30
0.0
 10
-28.3238
 20
2.9901
 30
0.0
 10
-27.8479
 20
2.9896
 30
0.0
 10
-27.8479
 20
2.9896
 30
0.0
 10
-27.8479
 20
2.9896
 30
0.0
 10
-27.8479
 20
2.9896
 30
0.0
 10
-27.3265
 20
2.9891
 30
0.0
 10
-27.3265
 20
2.9891
 30
0.0
 10
-27.3265
 20
2.9891
 30
0.0
 10
-27.3265
 20
2.9891
 30
0.0
 10
-26.7664
 20
2.9885
 30
0.0
 10
-26.7664
 20
2.9885
 30
0.0
 10
-26.7664
 20
2.9885
 30
0.0
 10
-26.7664
 20
2.9885
 30
0.0
 10
-26.1751
 20
2.9879
 30
0.0
 10
-26.1751
 20
2.9879
 30
0.0
 10
-26.1751
 20
2.9879
 30
0.0
 10
-26.1751
 20
2.9879
 30
0.0
 10
-25.5561
 20
2.9872
 30
0.0
 10
-25.5561
 20
2.9872
 30
0.0
 10
-25.5561
 20
2.9872
 30
0.0
 10
-25.5561
 20
2.9872
 30
0.0
 10
-24.9183
 20
2.9866
 30
0.0
 10
-24.9183
 20
2.9866
 30
0.0
 10
-24.9183
 20
2.9866
 30
0.0
 10
-24.9183
 20
2.9866
 30
0.0
 10
-24.2696
 20
2.9859
 30
0.0
 10
-24.2696
 20
2.9859
 30
0.0
 10
-24.2696
 20
2.9859
 30
0.0
 10
-24.2696
 20
2.9859
 30
0.0
 10
-23.3299
 20
2.9848
 30
0.0
 10
-23.3299
 20
2.9848
 30
0.0
 10
-23.3299
 20
2.9848
 30
0.0
 10
-23.3299
 20
2.9848
 30
0.0
 10
-22.6811
 20
2.9841
 30
0.0
 10
-22.6811
 20
2.9841
 30
0.0
 10
-22.6811
 20
2.9841
 30
0.0
 10
-22.6811
 20
2.9841
 30
0.0
 10
-22.0433
 20
2.9834
 30
0.0
 10
-22.0433
 20
2.9834
 30
0.0
 10
-22.0433
 20
2.9834
 30
0.0
 10
-22.0433
 20
2.9834
 30
0.0
 10
-21.4247
 20
2.9828
 30
0.0
 10
-21.4247
 20
2.9828
 30
0.0
 10
-21.4247
 20
2.9828
 30
0.0
 10
-21.4247
 20
2.9828
 30
0.0
 10
-20.8323
 20
2.9822
 30
0.0
 10
-20.8323
 20
2.9822
 30
0.0
 10
-20.8323
 20
2.9822
 30
0.0
 10
-20.8323
 20
2.9822
 30
0.0
 10
-20.2727
 20
2.9816
 30
0.0
 10
-20.2727
 20
2.9816
 30
0.0
 10
-20.2727
 20
2.9816
 30
0.0
 10
-20.2727
 20
2.9816
 30
0.0
 10
-19.7521
 20
2.9809
 30
0.0
 10
-19.7521
 20
2.9809
 30
0.0
 10
-19.7521
 20
2.9809
 30
0.0
 10
-19.7521
 20
2.9809
 30
0.0
 10
-19.2747
 20
2.9804
 30
0.0
 10
-19.2747
 20
2.9804
 30
0.0
 10
-19.2747
 20
2.9804
 30
0.0
 10
-19.2747
 20
2.9804
 30
0.0
 10
-18.848
 20
2.98
 30
0.0
 10
-18.848
 20
2.98
 30
0.0
 10
-18.848
 20
2.98
 30
0.0
 10
-18.848
 20
2.98
 30
0.0
 10
-18.4763
 20
2.9796
 30
0.0
 10
-18.4763
 20
2.9796
 30
0.0
 10
-18.4763
 20
2.9796
 30
0.0
 10
-18.4763
 20
2.9796
 30
0.0
 10
-18.0095
 20
2.9791
 30
0.0
 10
-18.0095
 20
2.9791
 30
0.0
 10
-18.0095
 20
2.9791
 30
0.0
 10
-18.0095
 20
2.9791
 30
0.0
 10
-17.6136
 20
2.9787
 30
0.0
 10
-17.6136
 20
2.9787
 30
0.0
 10
-17.6136
 20
2.9787
 30
0.0
 10
-17.6136
 20
2.9787
 30
0.0
 10
-17.6267
 20
3.2288
 30
0.0
 10
-17.6267
 20
3.2288
 30
0.0
 10
-17.6267
 20
3.2288
 30
0.0
 10
-17.6267
 20
3.2288
 30
0.0
 10
-17.7187
 20
3.4657
 30
0.0
 10
-17.7187
 20
3.4657
 30
0.0
 10
-17.7187
 20
3.4657
 30
0.0
 10
-17.7187
 20
3.4657
 30
0.0
 10
-17.8501
 20
3.6369
 30
0.0
 10
-17.8501
 20
3.6369
 30
0.0
 10
-17.8501
 20
3.6369
 30
0.0
 10
-17.8501
 20
3.6369
 30
0.0
 10
-18.0998
 20
3.7817
 30
0.0
 10
-18.0998
 20
3.7817
 30
0.0
 10
-18.0998
 20
3.7817
 30
0.0
 10
-18.0998
 20
3.7817
 30
0.0
 10
-18.2311
 20
3.8476
 30
0.0
 10
-18.2311
 20
3.8476
 30
0.0
 10
-18.2311
 20
3.8476
 30
0.0
 10
-18.2311
 20
3.8476
 30
0.0
 10
-18.3231
 20
3.8476
 30
0.0
 10
-18.3231
 20
3.8476
 30
0.0
 10
-18.3231
 20
3.8476
 30
0.0
 10
-18.3231
 20
3.8476
 30
0.0
 10
-29.2045
 20
3.8455
 30
0.0
 10
-29.2045
 20
3.8455
 30
0.0
  0
SPLINE
  5
8A
330
1F
100
AcDbEntity
  8
ROUND
 62
   250
100
AcDbSpline
210
0.0
220
0.0
230
1.0
 70
    27
 71
     3
 72
    12
 73
     8
 74
     0
 42
0.0000000001
 43
0.0000000001
 40
0.0
 40
0.0
 40
0.0
 40
0.0
 40
0.3333333333333333
 40
0.3333333333333333
 40
0.3333333333333333
 40
0.3333333333333333
 40
1.0
 40
1.0
 40
1.0
 40
1.0
 10
-17.5445
 20
1.5704
 30
0.0
 10
-17.5445
 20
1.5704
 30
0.0
 10
-17.5445
 20
2.9914
 30
0.0
 10
-17.5445
 20
2.9914
 30
0.0
 10
-17.5445
 20
2.9914
 30
0.0
 10
-17.5445
 20
2.9914
 30
0.0
 10
-17.5445
 20
1.5704
 30
0.0
 10
-17.5445
 20
1.5704
 30
0.0
  0
SPLINE
  5
8B
330
1F
100
AcDbEntity
  8
ROUND
 62
   250
100
AcDbSpline
210
0.0
220
0.0
230
1.0
 70
    27
 71
     3
 72
    16
 73
    12
 74
     0
 42
0.0000000001
 43
0.0000000001
 40
0.0
 40
0.0
 40
0.0
 40
0.0
 40
0.25
 40
0.25
 40
0.25
 40
0.25
 40
0.5
 40
0.5
 40
0.5
 40
0.5
 40
1.0
 40
1.0
 40
1.0
 40
1.0
 10
-19.7521
 20
1.5704
 30
0.0
 10
-19.7521
 20
1.5704
 30
0.0
 10
-19.7521
 20
2.9809
 30
0.0
 10
-19.7521
 20
2.9809
 30
0.0
 10
-19.7521
 20
2.9809
 30
0.0
 10
-19.7521
 20
2.9809
 30
0.0
 10
-19.7521
 20
2.9914
 30
0.0
 10
-19.7521
 20
2.9914
 30
0.0
 10
-19.7521
 20
2.9914
 30
0.0
 10
-19.7521
 20
2.9914
 30
0.0
 10
-19.7521
 20
1.5704
 30
0.0
 10
-19.7521
 20
1.5704
 30
0.0
  0
SPLINE
  5
8C
330
1F
100
AcDbEntity
  8
ROUND
 62
   250
100
AcDbSpline
210
0.0
220
0.0
230
1.0
 70
    27
 71
     3
 72
    16
 73
    12
 74
     0
 42
0.0000000001
 43
0.0000000001
 40
0.0
 40
0.0
 40
0.0
 40
0.0
 40
0.25
 40
0.25
 40
0.25
 40
0.25
 40
0.5
 40
0.5
 40
0.5
 40
0.5
 40
1.0
 40
1.0
 40
1.0
 40
1.0
 10
-19.2747
 20
1.5704
 30
0.0
 10
-19.2747
 20
1.5704
 30
0.0
 10
-19.2747
 20
2.9804
 30
0.0
 10
-19.2747
 20
2.9804
 30
0.0
 10
-19.2747
 20
2.9804
 30
0.0
 10
-19.2747
 20
2.9804
 30
0.0
 10
-19.2747
 20
2.9914
 30
0.0
 10
-19.2747
 20
2.9914
 30
0.0
 10
-19.2747
 20
2.9914
 30
0.0
 10
-19.2747
 20
2.9914
 30
0.0
 10
-19.2747
 20
1.5704
 30
0.0
 10
-19.2747
 20
1.5704
 30
0.0
  0
SPLINE
  5
8D
330
1F
100
AcDbEntity
  8
ROUND
 62
   250
100
AcDbSpline
210
0.0
220
0.0
230
1.0
 70
    27
 71
     3
 72
    16
 73
    12
 74
     0
 42
0.0000000001
 43
0.0000000001
 40
0.0
 40
0.0
 40
0.0
 40
0.0
 40
0.25
 40
0.25
 40
0.25
 40
0.25
 40
0.5
 40
0.5
 40
0.5
 40
0.5
 40
1.0
 40
1.0
 40
1.0
 40
1.0
 10
-18.848
 20
1.5704
 30
0.0
 10
-18.848
 20
1.5704
 30
0.0
 10
-18.848
 20
2.98
 30
0.0
 10
-18.848
 20
2.98
 30
0.0
 10
-18.848
 20
2.98
 30
0.0
 10
-18.848
 20
2.98
 30
0.0
 10
-18.848
 20
2.9914
 30
0.0
 10
-18.848
 20
2.9914
 30
0.0
 10
-18.848
 20
2.9914
 30
0.0
 10
-18.848
 20
2.9914
 30
0.0
 10
-18.848
 20
1.5704
 30
0.0
 10
-18.848
 20
1.5704
 30
0.0
  0
SPLINE
  5
8E
330
1F
100
AcDbEntity
  8
ROUND
 62
   250
100
AcDbSpline
210
0.0
220
0.0
230
1.0
 70
    27
 71
     3
 72
    16
 73
    12
 74
     0
 42
0.0000000001
 43
0.0000000001
 40
0.0
 40
0.0
 40
0.0
 40
0.0
 40
0.25
 40
0.25
 40
0.25
 40
0.25
 40
0.5
 40
0.5
 40
0.5
 40
0.5
 40
1.0
 40
1.0
 40
1.0
 40
1.0
 10
-18.4763
 20
1.5704
 30
0.0
 10
-18.4763
 20
1.5704
 30
0.0
 10
-18.4763
 20
2.9796
 30
0.0
 10
-18.4763
 20
2.9796
 30
0.0
 10
-18.4763
 20
2.9796
 30
0.0
 10
-18.4763
 20
2.9796
 30
0.0
 10
-18.4763
 20
2.9914
 30
0.0
 10
-18.4763
 20
2.9914
 30
0.0
 10
-18.4763
 20
2.9914
 30
0.0
 10
-18.4763
 20
2.9914
 30
0.0
 10
-18.4763
 20
1.5704
 30
0.0
 10
-18.4763
 20
1.5704
 30
0.0
  0
SPLINE
  5
8F
330
1F
100
AcDbEntity
  8
ROUND
 62
   250
100
AcDbSpline
210
0.0
220
0.0
230
1.0
 70
    27
 71
     3
 72
    16
 73
    12
 74
     0
 42
0.0000000001
 43
0.0000000001
 40
0.0
 40
0.0
 40
0.0
 40
0.0
 40
0.25
 40
0.25
 40
0.25
 40
0.25
 40
0.5
 40
0.5
 40
0.5
 40
0.5
 40
1.0
 40
1.0
 40
1.0
 40
1.0
 10
-18.0095
 20
1.5704
 30
0.0
 10
-18.0095
 20
1.5704
 30
0.0
 10
-18.0095
 20
2.9791
 30
0.0
 10
-18.0095
 20
2.9791
 30
0.0
 10
-18.0095
 20
2.9791
 30
0.0
 10
-18.0095
 20
2.9791
 30
0.0
 10
-18.0095
 20
2.9914
 30
0.0
 10
-18.0095
 20
2.9914
 30
0.0
 10
-18.0095
 20
2.9914
 30
0.0
 10
-18.0095
 20
2.9914
 30
0.0
 10
-18.0095
 20
1.5704
 30
0.0
 10
-18.0095
 20
1.5704
 30
0.0
  0
SPLINE
  5
90
330
1F
100
AcDbEntity
  8
ROUND
 62
   250
100
AcDbSpline
210
0.0
220
0.0
230
1.0
 70
    27
 71
     3
 72
    16
 73
    12
 74
     0
 42
0.0000000001
 43
0.0000000001
 40
0.0
 40
0.0
 40
0.0
 40
0.0
 40
0.25
 40
0.25
 40
0.25
 40
0.25
 40
0.5
 40
0.5
 40
0.5
 40
0.5
 40
1.0
 40
1.0
 40
1.0
 40
1.0
 10
-20.2727
 20
1.5704
 30
0.0
 10
-20.2727
 20
1.5704
 30
0.0
 10
-20.2727
 20
2.9816
 30
0.0
 10
-20.2727
 20
2.9816
 30
0.0
 10
-20.2727
 20
2.9816
 30
0.0
 10
-20.2727
 20
2.9816
 30
0.0
 10
-20.2727
 20
2.9914
 30
0.0
 10
-20.2727
 20
2.9914
 30
0.0
 10
-20.2727
 20
2.9914
 30
0.0
 10
-20.2727
 20
2.9914
 30
0.0
 10
-20.2727
 20
1.5704
 30
0.0
 10
-20.2727
 20
1.5704
 30
0.0
  0
SPLINE
  5
91
330
1F
100
AcDbEntity
  8
ROUND
 62
   250
100
AcDbSpline
210
0.0
220
0.0
230
1.0
 70
    27
 71
     3
 72
    12
 73
     8
 74
     0
 42
0.0000000001
 43
0.0000000001
 40
0.0
 40
0.0
 40
0.0
 40
0.0
 40
0.3333333333333333
 40
0.3333333333333333
 40
0.3333333333333333
 40
0.3333333333333333
 40
1.0
 40
1.0
 40
1.0
 40
1.0
 10
-29.5895
 20
1.5704
 30
0.0
 10
-29.5895
 20
1.5704
 30
0.0
 10
-29.5895
 20
2.9914
 30
0.0
 10
-29.5895
 20
2.9914
 30
0.0
 10
-29.5895
 20
2.9914
 30
0.0
 10
-29.5895
 20
2.9914
 30
0.0
 10
-29.5895
 20
1.5704
 30
0.0
 10
-29.5895
 20
1.5704
 30
0.0
  0
SPLINE
  5
92
330
1F
100
AcDbEntity
  8
ROUND
 62
   250
100
AcDbSpline
210
0.0
220
0.0
230
1.0
 70
    27
 71
     3
 72
    16
 73
    12
 74
     0
 42
0.0000000001
 43
0.0000000001
 40
0.0
 40
0.0
 40
0.0
 40
0.0
 40
0.25
 40
0.25
 40
0.25
 40
0.25
 40
0.5
 40
0.5
 40
0.5
 40
0.5
 40
1.0
 40
1.0
 40
1.0
 40
1.0
 10
-29.1245
 20
1.5704
 30
0.0
 10
-29.1245
 20
1.5704
 30
0.0
 10
-29.1245
 20
2.9911
 30
0.0
 10
-29.1245
 20
2.9911
 30
0.0
 10
-29.1245
 20
2.9911
 30
0.0
 10
-29.1245
 20
2.9911
 30
0.0
 10
-29.1245
 20
2.9914
 30
0.0
 10
-29.1245
 20
2.9914
 30
0.0
 10
-29.1245
 20
2.9914
 30
0.0
 10
-29.1245
 20
2.9914
 30
0.0
 10
-29.1245
 20
1.5704
 30
0.0
 10
-29.1245
 20
1.5704
 30
0.0
  0
SPLINE
  5
93
330
1F
100
AcDbEntity
  8
ROUND
 62
   250
100
AcDbSpline
210
0.0
220
0.0
230
1.0
 70
    27
 71
     3
 72
    16
 73
    12
 74
     0
 42
0.0000000001
 43
0.0000000001
 40
0.0
 40
0.0
 40
0.0
 40
0.0
 40
0.25
 40
0.25
 40
0.25
 40
0.25
 40
0.5
 40
0.5
 40
0.5
 40
0.5
 40
1.0
 40
1.0
 40
1.0
 40
1.0
 10
-28.7516
 20
1.5704
 30
0.0
 10
-28.7516
 20
1.5704
 30
0.0
 10
-28.7516
 20
2.9907
 30
0.0
 10
-28.7516
 20
2.9907
 30
0.0
 10
-28.7516
 20
2.9907
 30
0.0
 10
-28.7516
 20
2.9907
 30
0.0
 10
-28.7516
 20
2.9914
 30
0.0
 10
-28.7516
 20
2.9914
 30
0.0
 10
-28.7516
 20
2.9914
 30
0.0
 10
-28.7516
 20
2.9914
 30
0.0
 10
-28.7516
 20
1.5704
 30
0.0
 10
-28.7516
 20
1.5704
 30
0.0
  0
SPLINE
  5
94
330
1F
100
AcDbEntity
  8
ROUND
 62
   250
100
AcDbSpline
210
0.0
220
0.0
230
1.0
 70
    27
 71
     3
 72
    16
 73
    12
 74
     0
 42
0.0000000001
 43
0.0000000001
 40
0.0
 40
0.0
 40
0.0
 40
0.0
 40
0.25
 40
0.25
 40
0.25
 40
0.25
 40
0.5
 40
0.5
 40
0.5
 40
0.5
 40
1.0
 40
1.0
 40
1.0
 40
1.0
 10
-28.3238
 20
1.5704
 30
0.0
 10
-28.3238
 20
1.5704
 30
0.0
 10
-28.3238
 20
2.9901
 30
0.0
 10
-28.3238
 20
2.9901
 30
0.0
 10
-28.3238
 20
2.9901
 30
0.0
 10
-28.3238
 20
2.9901
 30
0.0
 10
-28.3238
 20
2.9914
 30
0.0
 10
-28.3238
 20
2.9914
 30
0.0
 10
-28.3238
 20
2.9914
 30
0.0
 10
-28.3238
 20
2.9914
 30
0.0
 10
-28.3238
 20
1.5704
 30
0.0
 10
-28.3238
 20
1.5704
 30
0.0
  0
SPLINE
  5
95
330
1F
100
AcDbEntity
  8
ROUND
 62
   250
100
AcDbSpline
210
0.0
220
0.0
230
1.0
 70
    27
 71
     3
 72
    16
 73
    12
 74
     0
 42
0.0000000001
 43
0.0000000001
 40
0.0
 40
0.0
 40
0.0
 40
0.0
 40
0.25
 40
0.25
 40
0.25
 40
0.25
 40
0.5
 40
0.5
 40
0.5
 40
0.5
 40
1.0
 40
1.0
 40
1.0
 40
1.0
 10
-27.8479
 20
1.5704
 30
0.0
 10
-27.8479
 20
1.5704
 30
0.0
 10
-27.8479
 20
2.9896
 30
0.0
 10
-27.8479
 20
2.9896
 30
0.0
 10
-27.8479
 20
2.9896
 30
0.0
 10
-27.8479
 20
2.9896
 30
0.0
 10
-27.8479
 20
2.9914
 30
0.0
 10
-27.8479
 20
2.9914
 30
0.0
 10
-27.8479
 20
2.9914
 30
0.0
 10
-27.8479
 20
2.9914
 30
0.0
 10
-27.8479
 20
1.5704
 30
0.0
 10
-27.8479
 20
1.5704
 30
0.0
  0
SPLINE
  5
96
330
1F
100
AcDbEntity
  8
ROUND
 62
   250
100
AcDbSpline
210
0.0
220
0.0
230
1.0
 70
    27
 71
     3
 72
    16
 73
    12
 74
     0
 42
0.0000000001
 43
0.0000000001
 40
0.0
 40
0.0
 40
0.0
 40
0.0
 40
0.25
 40
0.25
 40
0.25
 40
0.25
 40
0.5
 40
0.5
 40
0.5
 40
0.5
 40
1.0
 40
1.0
 40
1.0
 40
1.0
 10
-27.3265
 20
1.5704
 30
0.0
 10
-27.3265
 20
1.5704
 30
0.0
 10
-27.3265
 20
2.9891
 30
0.0
 10
-27.3265
 20
2.9891
 30
0.0
 10
-27.3265
 20
2.9891
 30
0.0
 10
-27.3265
 20
2.9891
 30
0.0
 10
-27.3265
 20
2.9914
 30
0.0
 10
-27.3265
 20
2.9914
 30
0.0
 10
-27.3265
 20
2.9914
 30
0.0
 10
-27.3265
 20
2.9914
 30
0.0
 10
-27.3265
 20
1.5704
 30
0.0
 10
-27.3265
 20
1.5704
 30
0.0
  0
SPLINE
  5
97
330
1F
100
AcDbEntity
  8
ROUND
 62
   250
100
AcDbSpline
210
0.0
220
0.0
230
1.0
 70
    27
 71
     3
 72
    16
 73
    12
 74
     0
 42
0.0000000001
 43
0.0000000001
 40
0.0
 40
0.0
 40
0.0
 40
0.0
 40
0.25
 40
0.25
 40
0.25
 40
0.25
 40
0.5
 40
0.5
 40
0.5
 40
0.5
 40
1.0
 40
1.0
 40
1.0
 40
1.0
 10
-26.7664
 20
1.5704
 30
0.0
 10
-26.7664
 20
1.5704
 30
0.0
 10
-26.7664
 20
2.9885
 30
0.0
 10
-26.7664
 20
2.9885
 30
0.0
 10
-26.7664
 20
2.9885
 30
0.0
 10
-26.7664
 20
2.9885
 30
0.0
 10
-26.7664
 20
2.9914
 30
0.0
 10
-26.7664
 20
2.9914
 30
0.0
 10
-26.7664
 20
2.9914
 30
0.0
 10
-26.7664
 20
2.9914
 30
0.0
 10
-26.7664
 20
1.5704
 30
0.0
 10
-26.7664
 20
1.5704
 30
0.0
  0
SPLINE
  5
98
330
1F
100
AcDbEntity
  8
ROUND
 62
   250
100
AcDbSpline
210
0.0
220
0.0
230
1.0
 70
    27
 71
     3
 72
    16
 73
    12
 74
     0
 42
0.0000000001
 43
0.0000000001
 40
0.0
 40
0.0
 40
0.0
 40
0.0
 40
0.25
 40
0.25
 40
0.25
 40
0.25
 40
0.5
 40
0.5
 40
0.5
 40
0.5
 40
1.0
 40
1.0
 40
1.0
 40
1.0
 10
-26.1751
 20
1.5704
 30
0.0
 10
-26.1751
 20
1.5704
 30
0.0
 10
-26.1751
 20
2.9879
 30
0.0
 10
-26.1751
 20
2.9879
 30
0.0
 10
-26.1751
 20
2.9879
 30
0.0
 10
-26.1751
 20
2.9879
 30
0.0
 10
-26.1751
 20
2.9914
 30
0.0
 10
-26.1751
 20
2.9914
 30
0.0
 10
-26.1751
 20
2.9914
 30
0.0
 10
-26.1751
 20
2.9914
 30
0.0
 10
-26.1751
 20
1.5704
 30
0.0
 10
-26.1751
 20
1.5704
 30
0.0
  0
SPLINE
  5
99
330
1F
100
AcDbEntity
  8
ROUND
 62
   250
100
AcDbSpline
210
0.0
220
0.0
230
1.0
 70
    27
 71
     3
 72
    16
 73
    12
 74
     0
 42
0.0000000001
 43
0.0000000001
 40
0.0
 40
0.0
 40
0.0
 40
0.0
 40
0.25
 40
0.25
 40
0.25
 40
0.25
 40
0.5
 40
0.5
 40
0.5
 40
0.5
 40
1.0
 40
1.0
 40
1.0
 40
1.0
 10
-25.5561
 20
1.5704
 30
0.0
 10
-25.5561
 20
1.5704
 30
0.0
 10
-25.5561
 20
2.9872
 30
0.0
 10
-25.5561
 20
2.9872
 30
0.0
 10
-25.5561
 20
2.9872
 30
0.0
 10
-25.5561
 20
2.9872
 30
0.0
 10
-25.5561
 20
2.9914
 30
0.0
 10
-25.5561
 20
2.9914
 30
0.0
 10
-25.5561
 20
2.9914
 30
0.0
 10
-25.5561
 20
2.9914
 30
0.0
 10
-25.5561
 20
1.5704
 30
0.0
 10
-25.5561
 20
1.5704
 30
0.0
  0
SPLINE
  5
9A
330
1F
100
AcDbEntity
  8
ROUND
 62
   250
100
AcDbSpline
210
0.0
220
0.0
230
1.0
 70
    27
 71
     3
 72
    16
 73
    12
 74
     0
 42
0.0000000001
 43
0.0000000001
 40
0.0
 40
0.0
 40
0.0
 40
0.0
 40
0.25
 40
0.25
 40
0.25
 40
0.25
 40
0.5
 40
0.5
 40
0.5
 40
0.5
 40
1.0
 40
1.0
 40
1.0
 40
1.0
 10
-24.9183
 20
1.5704
 30
0.0
 10
-24.9183
 20
1.5704
 30
0.0
 10
-24.9183
 20
2.9866
 30
0.0
 10
-24.9183
 20
2.9866
 30
0.0
 10
-24.9183
 20
2.9866
 30
0.0
 10
-24.9183
 20
2.9866
 30
0.0
 10
-24.9183
 20
2.9914
 30
0.0
 10
-24.9183
 20
2.9914
 30
0.0
 10
-24.9183
 20
2.9914
 30
0.0
 10
-24.9183
 20
2.9914
 30
0.0
 10
-24.9183
 20
1.5704
 30
0.0
 10
-24.9183
 20
1.5704
 30
0.0
  0
SPLINE
  5
9B
330
1F
100
AcDbEntity
  8
ROUND
 62
   250
100
AcDbSpline
210
0.0
220
0.0
230
1.0
 70
    27
 71
     3
 72
    16
 73
    12
 74
     0
 42
0.0000000001
 43
0.0000000001
 40
0.0
 40
0.0
 40
0.0
 40
0.0
 40
0.25
 40
0.25
 40
0.25
 40
0.25
 40
0.5
 40
0.5
 40
0.5
 40
0.5
 40
1.0
 40
1.0
 40
1.0
 40
1.0
 10
-24.2696
 20
1.5704
 30
0.0
 10
-24.2696
 20
1.5704
 30
0.0
 10
-24.2696
 20
2.9859
 30
0.0
 10
-24.2696
 20
2.9859
 30
0.0
 10
-24.2696
 20
2.9859
 30
0.0
 10
-24.2696
 20
2.9859
 30
0.0
 10
-24.2696
 20
2.9914
 30
0.0
 10
-24.2696
 20
2.9914
 30
0.0
 10
-24.2696
 20
2.9914
 30
0.0
 10
-24.2696
 20
2.9914
 30
0.0
 10
-24.2696
 20
1.5704
 30
0.0
 10
-24.2696
 20
1.5704
 30
0.0
  0
SPLINE
  5
9C
330
1F
100
AcDbEntity
  8
ROUND
 62
   250
100
AcDbSpline
210
0.0
220
0.0
230
1.0
 70
    27
 71
     3
 72
    16
 73
    12
 74
     0
 42
0.0000000001
 43
0.0000000001
 40
0.0
 40
0.0
 40
0.0
 40
0.0
 40
0.25
 40
0.25
 40
0.25
 40
0.25
 40
0.5
 40
0.5
 40
0.5
 40
0.5
 40
1.0
 40
1.0
 40
1.0
 40
1.0
 10
-23.3299
 20
1.5704
 30
0.0
 10
-23.3299
 20
1.5704
 30
0.0
 10
-23.3299
 20
2.9848
 30
0.0
 10
-23.3299
 20
2.9848
 30
0.0
 10
-23.3299
 20
2.9848
 30
0.0
 10
-23.3299
 20
2.9848
 30
0.0
 10
-23.3299
 20
2.9914
 30
0.0
 10
-23.3299
 20
2.9914
 30
0.0
 10
-23.3299
 20
2.9914
 30
0.0
 10
-23.3299
 20
2.9914
 30
0.0
 10
-23.3299
 20
1.5704
 30
0.0
 10
-23.3299
 20
1.5704
 30
0.0
  0
SPLINE
  5
9D
330
1F
100
AcDbEntity
  8
ROUND
 62
   250
100
AcDbSpline
210
0.0
220
0.0
230
1.0
 70
    27
 71
     3
 72
    16
 73
    12
 74
     0
 42
0.0000000001
 43
0.0000000001
 40
0.0
 40
0.0
 40
0.0
 40
0.0
 40
0.25
 40
0.25
 40
0.25
 40
0.25
 40
0.5
 40
0.5
 40
0.5
 40
0.5
 40
1.0
 40
1.0
 40
1.0
 40
1.0
 10
-22.6811
 20
1.5704
 30
0.0
 10
-22.6811
 20
1.5704
 30
0.0
 10
-22.6811
 20
2.9841
 30
0.0
 10
-22.6811
 20
2.9841
 30
0.0
 10
-22.6811
 20
2.9841
 30
0.0
 10
-22.6811
 20
2.9841
 30
0.0
 10
-22.6811
 20
2.9914
 30
0.0
 10
-22.6811
 20
2.9914
 30
0.0
 10
-22.6811
 20
2.9914
 30
0.0
 10
-22.6811
 20
2.9914
 30
0.0
 10
-22.6811
 20
1.5704
 30
0.0
 10
-22.6811
 20
1.5704
 30
0.0
  0
SPLINE
  5
9E
330
1F
100
AcDbEntity
  8
ROUND
 62
   250
100
AcDbSpline
210
0.0
220
0.0
230
1.0
 70
    27
 71
     3
 72
    16
 73
    12
 74
     0
 42
0.0000000001
 43
0.0000000001
 40
0.0
 40
0.0
 40
0.0
 40
0.0
 40
0.25
 40
0.25
 40
0.25
 40
0.25
 40
0.5
 40
0.5
 40
0.5
 40
0.5
 40
1.0
 40
1.0
 40
1.0
 40
1.0
 10
-22.0433
 20
1.5704
 30
0.0
 10
-22.0433
 20
1.5704
 30
0.0
 10
-22.0433
 20
2.9834
 30
0.0
 10
-22.0433
 20
2.9834
 30
0.0
 10
-22.0433
 20
2.9834
 30
0.0
 10
-22.0433
 20
2.9834
 30
0.0
 10
-22.0433
 20
2.9914
 30
0.0
 10
-22.0433
 20
2.9914
 30
0.0
 10
-22.0433
 20
2.9914
 30
0.0
 10
-22.0433
 20
2.9914
 30
0.0
 10
-22.0433
 20
1.5704
 30
0.0
 10
-22.0433
 20
1.5704
 30
0.0
  0
SPLINE
  5
9F
330
1F
100
AcDbEntity
  8
ROUND
 62
   250
100
AcDbSpline
210
0.0
220
0.0
230
1.0
 70
    27
 71
     3
 72
    16
 73
    12
 74
     0
 42
0.0000000001
 43
0.0000000001
 40
0.0
 40
0.0
 40
0.0
 40
0.0
 40
0.25
 40
0.25
 40
0.25
 40
0.25
 40
0.5
 40
0.5
 40
0.5
 40
0.5
 40
1.0
 40
1.0
 40
1.0
 40
1.0
 10
-21.4247
 20
1.5704
 30
0.0
 10
-21.4247
 20
1.5704
 30
0.0
 10
-21.4247
 20
2.9828
 30
0.0
 10
-21.4247
 20
2.9828
 30
0.0
 10
-21.4247
 20
2.9828
 30
0.0
 10
-21.4247
 20
2.9828
 30
0.0
 10
-21.4247
 20
2.9914
 30
0.0
 10
-21.4247
 20
2.9914
 30
0.0
 10
-21.4247
 20
2.9914
 30
0.0
 10
-21.4247
 20
2.9914
 30
0.0
 10
-21.4247
 20
1.5704
 30
0.0
 10
-21.4247
 20
1.5704
 30
0.0
  0
SPLINE
  5
A0
330
1F
100
AcDbEntity
  8
ROUND
 62
   250
100
AcDbSpline
210
0.0
220
0.0
230
1.0
 70
    27
 71
     3
 72
    16
 73
    12
 74
     0
 42
0.0000000001
 43
0.0000000001
 40
0.0
 40
0.0
 40
0.0
 40
0.0
 40
0.25
 40
0.25
 40
0.25
 40
0.25
 40
0.5
 40
0.5
 40
0.5
 40
0.5
 40
1.0
 40
1.0
 40
1.0
 40
1.0
 10
-20.8323
 20
1.5704
 30
0.0
 10
-20.8323
 20
1.5704
 30
0.0
 10
-20.8323
 20
2.9822
 30
0.0
 10
-20.8323
 20
2.9822
 30
0.0
 10
-20.8323
 20
2.9822
 30
0.0
 10
-20.8323
 20
2.9822
 30
0.0
 10
-20.8323
 20
2.9914
 30
0.0
 10
-20.8323
 20
2.9914
 30
0.0
 10
-20.8323
 20
2.9914
 30
0.0
 10
-20.8323
 20
2.9914
 30
0.0
 10
-20.8323
 20
1.5704
 30
0.0
 10
-20.8323
 20
1.5704
 30
0.0
  0
SPLINE
  5
A1
330
1F
100
AcDbEntity
  8
ROUND
 62
   250
100
AcDbSpline
210
0.0
220
0.0
230
1.0
 70
    27
 71
     3
 72
    12
 73
     8
 74
     0
 42
0.0000000001
 43
0.0000000001
 40
0.0
 40
0.0
 40
0.0
 40
0.0
 40
0.3333333333333333
 40
0.3333333333333333
 40
0.3333333333333333
 40
0.3333333333333333
 40
1.0
 40
1.0
 40
1.0
 40
1.0
 10
-30.0556
 20
1.5704
 30
0.0
 10
-30.0556
 20
1.5704
 30
0.0
 10
-30.0556
 20
2.9914
 30
0.0
 10
-30.0556
 20
2.9914
 30
0.0
 10
-30.0556
 20
2.9914
 30
0.0
 10
-30.0556
 20
2.9914
 30
0.0
 10
-30.0556
 20
1.5704
 30
0.0
 10
-30.0556
 20
1.5704
 30
0.0
  0
SPLINE
  5
A2
330
1F
100
AcDbEntity
  8
ROUND
 62
   250
100
AcDbSpline
210
0.0
220
0.0
230
1.0
 70
    11
 71
     3
 72
    20
 73
    16
 74
     0
 42
0.0000000001
 43
0.0000000001
 40
0.0
 40
0.0
 40
0.0
 40
0.0
 40
0.2
 40
0.2
 40
0.2
 40
0.2
 40
0.4
 40
0.4
 40
0.4
 40
0.4
 40
0.6
 40
0.6
 40
0.6
 40
0.6
 40
1.0
 40
1.0
 40
1.0
 40
1.0
 10
-11.8927
 20
-11.4423
 30
0.0
 10
-11.8927
 20
-11.4423
 30
0.0
 10
-12.4513
 20
-11.4423
 30
0.0
 10
-12.4513
 20
-11.4423
 30
0.0
 10
-12.4513
 20
-11.4423
 30
0.0
 10
-12.4513
 20
-11.4423
 30
0.0
 10
-12.4513
 20
0.7646
 30
0.0
 10
-12.4513
 20
0.7646
 30
0.0
 10
-12.4513
 20
0.7646
 30
0.0
 10
-12.4513
 20
0.7646
 30
0.0
 10
-11.8927
 20
0.7646
 30
0.0
 10
-11.8927
 20
0.7646
 30
0.0
 10
-11.8927
 20
0.7646
 30
0.0
 10
-11.8927
 20
0.7646
 30
0.0
 10
-11.8927
 20
-11.4423
 30
0.0
 10
-11.8927
 20
-11.4423
 30
0.0
  0
SPLINE
  5
A3
330
1F
100
AcDbEntity
  8
ROUND
 62
   250
100
AcDbSpline
210
0.0
220
0.0
230
1.0
 70
     8
 71
     3
 72
     8
 73
     4
 74
     0
 42
0.0000000001
 43
0.0000000001
 40
0.0
 40
0.0
 40
0.0
 40
0.0
 40
1.0
 40
1.0
 40
1.0
 40
1.0
 10
-9.6371
 20
0.0718
 30
0.0
 10
-9.6371
 20
0.4646
 30
0.0
 10
-9.9555
 20
0.7829
 30
0.0
 10
-10.3483
 20
0.7829
 30
0.0
  0
SPLINE
  5
A4
330
1F
100
AcDbEntity
  8
ROUND
 62
   250
100
AcDbSpline
210
0.0
220
0.0
230
1.0
 70
     8
 71
     3
 72
   124
 73
   120
 74
     0
 42
0.0000000001
 43
0.0000000001
 40
0.0
 40
0.0
 40
0.0
 40
0.0
 40
0.032258064516129
 40
0.032258064516129
 40
0.032258064516129
 40
0.032258064516129
 40
0.0645161290322581
 40
0.0645161290322581
 40
0.0645161290322581
 40
0.0645161290322581
 40
0.0967741935483871
 40
0.0967741935483871
 40
0.0967741935483871
 40
0.0967741935483871
 40
0.1290322580645161
 40
0.1290322580645161
 40
0.1290322580645161
 40
0.1290322580645161
 40
0.1612903225806452
 40
0.1612903225806452
 40
0.1612903225806452
 40
0.1612903225806452
 40
0.1935483870967742
 40
0.1935483870967742
 40
0.1935483870967742
 40
0.1935483870967742
 40
0.2258064516129032
 40
0.2258064516129032
 40
0.2258064516129032
 40
0.2258064516129032
 40
0.2580645161290323
 40
0.2580645161290323
 40
0.2580645161290323
 40
0.2580645161290323
 40
0.2903225806451613
 40
0.2903225806451613
 40
0.2903225806451613
 40
0.2903225806451613
 40
0.3225806451612903
 40
0.3225806451612903
 40
0.3225806451612903
 40
0.3225806451612903
 40
0.3548387096774194
 40
0.3548387096774194
 40
0.3548387096774194
 40
0.3548387096774194
 40
0.3870967741935484
 40
0.3870967741935484
 40
0.3870967741935484
 40
0.3870967741935484
 40
0.4193548387096774
 40
0.4193548387096774
 40
0.4193548387096774
 40
0.4193548387096774
 40
0.4516129032258064
 40
0.4516129032258064
 40
0.4516129032258064
 40
0.4516129032258064
 40
0.4838709677419355
 40
0.4838709677419355
 40
0.4838709677419355
 40
0.4838709677419355
 40
0.5161290322580645
 40
0.5161290322580645
 40
0.5161290322580645
 40
0.5161290322580645
 40
0.5483870967741935
 40
0.5483870967741935
 40
0.5483870967741935
 40
0.5483870967741935
 40
0.5806451612903226
 40
0.5806451612903226
 40
0.5806451612903226
 40
0.5806451612903226
 40
0.6129032258064516
 40
0.6129032258064516
 40
0.6129032258064516
 40
0.6129032258064516
 40
0.6451612903225806
 40
0.6451612903225806
 40
0.6451612903225806
 40
0.6451612903225806
 40
0.6774193548387096
 40
0.6774193548387096
 40
0.6774193548387096
 40
0.6774193548387096
 40
0.7096774193548387
 40
0.7096774193548387
 40
0.7096774193548387
 40
0.7096774193548387
 40
0.7419354838709677
 40
0.7419354838709677
 40
0.7419354838709677
 40
0.7419354838709677
 40
0.7741935483870968
 40
0.7741935483870968
 40
0.7741935483870968
 40
0.7741935483870968
 40
0.8064516129032258
 40
0.8064516129032258
 40
0.8064516129032258
 40
0.8064516129032258
 40
0.8387096774193549
 40
0.8387096774193549
 40
0.8387096774193549
 40
0.8387096774193549
 40
0.8709677419354839
 40
0.8709677419354839
 40
0.8709677419354839
 40
0.8709677419354839
 40
0.9032258064516129
 40
0.9032258064516129
 40
0.9032258064516129
 40
0.9032258064516129
 40
0.9354838709677419
 40
0.9354838709677419
 40
0.9354838709677419
 40
0.9354838709677419
 40
1.0
 40
1.0
 40
1.0
 40
1.0
 10
-10.3483
 20
0.7829
 30
0.0
 10
-10.3483
 20
0.7829
 30
0.0
 10
-10.4907
 20
0.7917
 30
0.0
 10
-10.4907
 20
0.7917
 30
0.0
 10
-10.4907
 20
0.7917
 30
0.0
 10
-10.4907
 20
0.7917
 30
0.0
 10
-10.4915
 20
-0.0082
 30
0.0
 10
-10.4915
 20
-0.0082
 30
0.0
 10
-10.4915
 20
-0.0082
 30
0.0
 10
-10.4915
 20
-0.0082
 30
0.0
 10
-10.4919
 20
-0.3811
 30
0.0
 10
-10.4919
 20
-0.3811
 30
0.0
 10
-10.4919
 20
-0.3811
 30
0.0
 10
-10.4919
 20
-0.3811
 30
0.0
 10
-10.4925
 20
-0.8089
 30
0.0
 10
-10.4925
 20
-0.8089
 30
0.0
 10
-10.4925
 20
-0.8089
 30
0.0
 10
-10.4925
 20
-0.8089
 30
0.0
 10
-10.493
 20
-1.2848
 30
0.0
 10
-10.493
 20
-1.2848
 30
0.0
 10
-10.493
 20
-1.2848
 30
0.0
 10
-10.493
 20
-1.2848
 30
0.0
 10
-10.4935
 20
-1.8062
 30
0.0
 10
-10.4935
 20
-1.8062
 30
0.0
 10
-10.4935
 20
-1.8062
 30
0.0
 10
-10.4935
 20
-1.8062
 30
0.0
 10
-10.4941
 20
-2.3663
 30
0.0
 10
-10.4941
 20
-2.3663
 30
0.0
 10
-10.4941
 20
-2.3663
 30
0.0
 10
-10.4941
 20
-2.3663
 30
0.0
 10
-10.4947
 20
-2.9576
 30
0.0
 10
-10.4947
 20
-2.9576
 30
0.0
 10
-10.4947
 20
-2.9576
 30
0.0
 10
-10.4947
 20
-2.9576
 30
0.0
 10
-10.4954
 20
-3.5766
 30
0.0
 10
-10.4954
 20
-3.5766
 30
0.0
 10
-10.4954
 20
-3.5766
 30
0.0
 10
-10.4954
 20
-3.5766
 30
0.0
 10
-10.496
 20
-4.2144
 30
0.0
 10
-10.496
 20
-4.2144
 30
0.0
 10
-10.496
 20
-4.2144
 30
0.0
 10
-10.496
 20
-4.2144
 30
0.0
 10
-10.4967
 20
-4.8631
 30
0.0
 10
-10.4967
 20
-4.8631
 30
0.0
 10
-10.4967
 20
-4.8631
 30
0.0
 10
-10.4967
 20
-4.8631
 30
0.0
 10
-10.4978
 20
-5.8028
 30
0.0
 10
-10.4978
 20
-5.8028
 30
0.0
 10
-10.4978
 20
-5.8028
 30
0.0
 10
-10.4978
 20
-5.8028
 30
0.0
 10
-10.4985
 20
-6.4516
 30
0.0
 10
-10.4985
 20
-6.4516
 30
0.0
 10
-10.4985
 20
-6.4516
 30
0.0
 10
-10.4985
 20
-6.4516
 30
0.0
 10
-10.4992
 20
-7.0894
 30
0.0
 10
-10.4992
 20
-7.0894
 30
0.0
 10
-10.4992
 20
-7.0894
 30
0.0
 10
-10.4992
 20
-7.0894
 30
0.0
 10
-10.4998
 20
-7.708
 30
0.0
 10
-10.4998
 20
-7.708
 30
0.0
 10
-10.4998
 20
-7.708
 30
0.0
 10
-10.4998
 20
-7.708
 30
0.0
 10
-10.5004
 20
-8.3004
 30
0.0
 10
-10.5004
 20
-8.3004
 30
0.0
 10
-10.5004
 20
-8.3004
 30
0.0
 10
-10.5004
 20
-8.3004
 30
0.0
 10
-10.501
 20
-8.86
 30
0.0
 10
-10.501
 20
-8.86
 30
0.0
 10
-10.501
 20
-8.86
 30
0.0
 10
-10.501
 20
-8.86
 30
0.0
 10
-10.5017
 20
-9.3806
 30
0.0
 10
-10.5017
 20
-9.3806
 30
0.0
 10
-10.5017
 20
-9.3806
 30
0.0
 10
-10.5017
 20
-9.3806
 30
0.0
 10
-10.5022
 20
-9.858
 30
0.0
 10
-10.5022
 20
-9.858
 30
0.0
 10
-10.5022
 20
-9.858
 30
0.0
 10
-10.5022
 20
-9.858
 30
0.0
 10
-10.5026
 20
-10.2847
 30
0.0
 10
-10.5026
 20
-10.2847
 30
0.0
 10
-10.5026
 20
-10.2847
 30
0.0
 10
-10.5026
 20
-10.2847
 30
0.0
 10
-10.503
 20
-10.6564
 30
0.0
 10
-10.503
 20
-10.6564
 30
0.0
 10
-10.503
 20
-10.6564
 30
0.0
 10
-10.503
 20
-10.6564
 30
0.0
 10
-10.5035
 20
-11.1232
 30
0.0
 10
-10.5035
 20
-11.1232
 30
0.0
 10
-10.5035
 20
-11.1232
 30
0.0
 10
-10.5035
 20
-11.1232
 30
0.0
 10
-10.5039
 20
-11.5191
 30
0.0
 10
-10.5039
 20
-11.5191
 30
0.0
 10
-10.5039
 20
-11.5191
 30
0.0
 10
-10.5039
 20
-11.5191
 30
0.0
 10
-10.2538
 20
-11.506
 30
0.0
 10
-10.2538
 20
-11.506
 30
0.0
 10
-10.2538
 20
-11.506
 30
0.0
 10
-10.2538
 20
-11.506
 30
0.0
 10
-10.0169
 20
-11.414
 30
0.0
 10
-10.0169
 20
-11.414
 30
0.0
 10
-10.0169
 20
-11.414
 30
0.0
 10
-10.0169
 20
-11.414
 30
0.0
 10
-9.8457
 20
-11.2826
 30
0.0
 10
-9.8457
 20
-11.2826
 30
0.0
 10
-9.8457
 20
-11.2826
 30
0.0
 10
-9.8457
 20
-11.2826
 30
0.0
 10
-9.7009
 20
-11.0329
 30
0.0
 10
-9.7009
 20
-11.0329
 30
0.0
 10
-9.7009
 20
-11.0329
 30
0.0
 10
-9.7009
 20
-11.0329
 30
0.0
 10
-9.635
 20
-10.9016
 30
0.0
 10
-9.635
 20
-10.9016
 30
0.0
 10
-9.635
 20
-10.9016
 30
0.0
 10
-9.635
 20
-10.9016
 30
0.0
 10
-9.635
 20
-10.8096
 30
0.0
 10
-9.635
 20
-10.8096
 30
0.0
 10
-9.635
 20
-10.8096
 30
0.0
 10
-9.635
 20
-10.8096
 30
0.0
 10
-9.6371
 20
0.0718
 30
0.0
 10
-9.6371
 20
0.0718
 30
0.0
  0
SPLINE
  5
A5
330
1F
100
AcDbEntity
  8
ROUND
 62
   250
100
AcDbSpline
210
0.0
220
0.0
230
1.0
 70
    27
 71
     3
 72
    12
 73
     8
 74
     0
 42
0.0000000001
 43
0.0000000001
 40
0.0
 40
0.0
 40
0.0
 40
0.0
 40
0.3333333333333333
 40
0.3333333333333333
 40
0.3333333333333333
 40
0.3333333333333333
 40
1.0
 40
1.0
 40
1.0
 40
1.0
 10
-11.9122
 20
-11.5882
 30
0.0
 10
-11.9122
 20
-11.5882
 30
0.0
 10
-10.4912
 20
-11.5882
 30
0.0
 10
-10.4912
 20
-11.5882
 30
0.0
 10
-10.4912
 20
-11.5882
 30
0.0
 10
-10.4912
 20
-11.5882
 30
0.0
 10
-11.9122
 20
-11.5882
 30
0.0
 10
-11.9122
 20
-11.5882
 30
0.0
  0
SPLINE
  5
A6
330
1F
100
AcDbEntity
  8
ROUND
 62
   250
100
AcDbSpline
210
0.0
220
0.0
230
1.0
 70
    27
 71
     3
 72
    16
 73
    12
 74
     0
 42
0.0000000001
 43
0.0000000001
 40
0.0
 40
0.0
 40
0.0
 40
0.0
 40
0.25
 40
0.25
 40
0.25
 40
0.25
 40
0.5
 40
0.5
 40
0.5
 40
0.5
 40
1.0
 40
1.0
 40
1.0
 40
1.0
 10
-11.9122
 20
-9.3806
 30
0.0
 10
-11.9122
 20
-9.3806
 30
0.0
 10
-10.5017
 20
-9.3806
 30
0.0
 10
-10.5017
 20
-9.3806
 30
0.0
 10
-10.5017
 20
-9.3806
 30
0.0
 10
-10.5017
 20
-9.3806
 30
0.0
 10
-10.4912
 20
-9.3806
 30
0.0
 10
-10.4912
 20
-9.3806
 30
0.0
 10
-10.4912
 20
-9.3806
 30
0.0
 10
-10.4912
 20
-9.3806
 30
0.0
 10
-11.9122
 20
-9.3806
 30
0.0
 10
-11.9122
 20
-9.3806
 30
0.0
  0
SPLINE
  5
A7
330
1F
100
AcDbEntity
  8
ROUND
 62
   250
100
AcDbSpline
210
0.0
220
0.0
230
1.0
 70
    27
 71
     3
 72
    16
 73
    12
 74
     0
 42
0.0000000001
 43
0.0000000001
 40
0.0
 40
0.0
 40
0.0
 40
0.0
 40
0.25
 40
0.25
 40
0.25
 40
0.25
 40
0.5
 40
0.5
 40
0.5
 40
0.5
 40
1.0
 40
1.0
 40
1.0
 40
1.0
 10
-11.9122
 20
-9.858
 30
0.0
 10
-11.9122
 20
-9.858
 30
0.0
 10
-10.5022
 20
-9.858
 30
0.0
 10
-10.5022
 20
-9.858
 30
0.0
 10
-10.5022
 20
-9.858
 30
0.0
 10
-10.5022
 20
-9.858
 30
0.0
 10
-10.4912
 20
-9.858
 30
0.0
 10
-10.4912
 20
-9.858
 30
0.0
 10
-10.4912
 20
-9.858
 30
0.0
 10
-10.4912
 20
-9.858
 30
0.0
 10
-11.9122
 20
-9.858
 30
0.0
 10
-11.9122
 20
-9.858
 30
0.0
  0
SPLINE
  5
A8
330
1F
100
AcDbEntity
  8
ROUND
 62
   250
100
AcDbSpline
210
0.0
220
0.0
230
1.0
 70
    27
 71
     3
 72
    16
 73
    12
 74
     0
 42
0.0000000001
 43
0.0000000001
 40
0.0
 40
0.0
 40
0.0
 40
0.0
 40
0.25
 40
0.25
 40
0.25
 40
0.25
 40
0.5
 40
0.5
 40
0.5
 40
0.5
 40
1.0
 40
1.0
 40
1.0
 40
1.0
 10
-11.9122
 20
-10.2847
 30
0.0
 10
-11.9122
 20
-10.2847
 30
0.0
 10
-10.5026
 20
-10.2847
 30
0.0
 10
-10.5026
 20
-10.2847
 30
0.0
 10
-10.5026
 20
-10.2847
 30
0.0
 10
-10.5026
 20
-10.2847
 30
0.0
 10
-10.4912
 20
-10.2847
 30
0.0
 10
-10.4912
 20
-10.2847
 30
0.0
 10
-10.4912
 20
-10.2847
 30
0.0
 10
-10.4912
 20
-10.2847
 30
0.0
 10
-11.9122
 20
-10.2847
 30
0.0
 10
-11.9122
 20
-10.2847
 30
0.0
  0
SPLINE
  5
A9
330
1F
100
AcDbEntity
  8
ROUND
 62
   250
100
AcDbSpline
210
0.0
220
0.0
230
1.0
 70
    27
 71
     3
 72
    16
 73
    12
 74
     0
 42
0.0000000001
 43
0.0000000001
 40
0.0
 40
0.0
 40
0.0
 40
0.0
 40
0.25
 40
0.25
 40
0.25
 40
0.25
 40
0.5
 40
0.5
 40
0.5
 40
0.5
 40
1.0
 40
1.0
 40
1.0
 40
1.0
 10
-11.9122
 20
-10.6564
 30
0.0
 10
-11.9122
 20
-10.6564
 30
0.0
 10
-10.503
 20
-10.6564
 30
0.0
 10
-10.503
 20
-10.6564
 30
0.0
 10
-10.503
 20
-10.6564
 30
0.0
 10
-10.503
 20
-10.6564
 30
0.0
 10
-10.4912
 20
-10.6564
 30
0.0
 10
-10.4912
 20
-10.6564
 30
0.0
 10
-10.4912
 20
-10.6564
 30
0.0
 10
-10.4912
 20
-10.6564
 30
0.0
 10
-11.9122
 20
-10.6564
 30
0.0
 10
-11.9122
 20
-10.6564
 30
0.0
  0
SPLINE
  5
AA
330
1F
100
AcDbEntity
  8
ROUND
 62
   250
100
AcDbSpline
210
0.0
220
0.0
230
1.0
 70
    27
 71
     3
 72
    16
 73
    12
 74
     0
 42
0.0000000001
 43
0.0000000001
 40
0.0
 40
0.0
 40
0.0
 40
0.0
 40
0.25
 40
0.25
 40
0.25
 40
0.25
 40
0.5
 40
0.5
 40
0.5
 40
0.5
 40
1.0
 40
1.0
 40
1.0
 40
1.0
 10
-11.9122
 20
-11.1232
 30
0.0
 10
-11.9122
 20
-11.1232
 30
0.0
 10
-10.5035
 20
-11.1232
 30
0.0
 10
-10.5035
 20
-11.1232
 30
0.0
 10
-10.5035
 20
-11.1232
 30
0.0
 10
-10.5035
 20
-11.1232
 30
0.0
 10
-10.4912
 20
-11.1232
 30
0.0
 10
-10.4912
 20
-11.1232
 30
0.0
 10
-10.4912
 20
-11.1232
 30
0.0
 10
-10.4912
 20
-11.1232
 30
0.0
 10
-11.9122
 20
-11.1232
 30
0.0
 10
-11.9122
 20
-11.1232
 30
0.0
  0
SPLINE
  5
AB
330
1F
100
AcDbEntity
  8
ROUND
 62
   250
100
AcDbSpline
210
0.0
220
0.0
230
1.0
 70
    27
 71
     3
 72
    16
 73
    12
 74
     0
 42
0.0000000001
 43
0.0000000001
 40
0.0
 40
0.0
 40
0.0
 40
0.0
 40
0.25
 40
0.25
 40
0.25
 40
0.25
 40
0.5
 40
0.5
 40
0.5
 40
0.5
 40
1.0
 40
1.0
 40
1.0
 40
1.0
 10
-11.9122
 20
-8.86
 30
0.0
 10
-11.9122
 20
-8.86
 30
0.0
 10
-10.501
 20
-8.86
 30
0.0
 10
-10.501
 20
-8.86
 30
0.0
 10
-10.501
 20
-8.86
 30
0.0
 10
-10.501
 20
-8.86
 30
0.0
 10
-10.4912
 20
-8.86
 30
0.0
 10
-10.4912
 20
-8.86
 30
0.0
 10
-10.4912
 20
-8.86
 30
0.0
 10
-10.4912
 20
-8.86
 30
0.0
 10
-11.9122
 20
-8.86
 30
0.0
 10
-11.9122
 20
-8.86
 30
0.0
  0
SPLINE
  5
AC
330
1F
100
AcDbEntity
  8
ROUND
 62
   250
100
AcDbSpline
210
0.0
220
0.0
230
1.0
 70
    27
 71
     3
 72
    12
 73
     8
 74
     0
 42
0.0000000001
 43
0.0000000001
 40
0.0
 40
0.0
 40
0.0
 40
0.0
 40
0.3333333333333333
 40
0.3333333333333333
 40
0.3333333333333333
 40
0.3333333333333333
 40
1.0
 40
1.0
 40
1.0
 40
1.0
 10
-11.9122
 20
0.4568
 30
0.0
 10
-11.9122
 20
0.4568
 30
0.0
 10
-10.4912
 20
0.4568
 30
0.0
 10
-10.4912
 20
0.4568
 30
0.0
 10
-10.4912
 20
0.4568
 30
0.0
 10
-10.4912
 20
0.4568
 30
0.0
 10
-11.9122
 20
0.4568
 30
0.0
 10
-11.9122
 20
0.4568
 30
0.0
  0
SPLINE
  5
AD
330
1F
100
AcDbEntity
  8
ROUND
 62
   250
100
AcDbSpline
210
0.0
220
0.0
230
1.0
 70
    27
 71
     3
 72
    16
 73
    12
 74
     0
 42
0.0000000001
 43
0.0000000001
 40
0.0
 40
0.0
 40
0.0
 40
0.0
 40
0.25
 40
0.25
 40
0.25
 40
0.25
 40
0.5
 40
0.5
 40
0.5
 40
0.5
 40
1.0
 40
1.0
 40
1.0
 40
1.0
 10
-11.9122
 20
-0.0082
 30
0.0
 10
-11.9122
 20
-0.0082
 30
0.0
 10
-10.4915
 20
-0.0082
 30
0.0
 10
-10.4915
 20
-0.0082
 30
0.0
 10
-10.4915
 20
-0.0082
 30
0.0
 10
-10.4915
 20
-0.0082
 30
0.0
 10
-10.4912
 20
-0.0082
 30
0.0
 10
-10.4912
 20
-0.0082
 30
0.0
 10
-10.4912
 20
-0.0082
 30
0.0
 10
-10.4912
 20
-0.0082
 30
0.0
 10
-11.9122
 20
-0.0082
 30
0.0
 10
-11.9122
 20
-0.0082
 30
0.0
  0
SPLINE
  5
AE
330
1F
100
AcDbEntity
  8
ROUND
 62
   250
100
AcDbSpline
210
0.0
220
0.0
230
1.0
 70
    27
 71
     3
 72
    16
 73
    12
 74
     0
 42
0.0000000001
 43
0.0000000001
 40
0.0
 40
0.0
 40
0.0
 40
0.0
 40
0.25
 40
0.25
 40
0.25
 40
0.25
 40
0.5
 40
0.5
 40
0.5
 40
0.5
 40
1.0
 40
1.0
 40
1.0
 40
1.0
 10
-11.9122
 20
-0.3811
 30
0.0
 10
-11.9122
 20
-0.3811
 30
0.0
 10
-10.4919
 20
-0.3811
 30
0.0
 10
-10.4919
 20
-0.3811
 30
0.0
 10
-10.4919
 20
-0.3811
 30
0.0
 10
-10.4919
 20
-0.3811
 30
0.0
 10
-10.4912
 20
-0.3811
 30
0.0
 10
-10.4912
 20
-0.3811
 30
0.0
 10
-10.4912
 20
-0.3811
 30
0.0
 10
-10.4912
 20
-0.3811
 30
0.0
 10
-11.9122
 20
-0.3811
 30
0.0
 10
-11.9122
 20
-0.3811
 30
0.0
  0
SPLINE
  5
AF
330
1F
100
AcDbEntity
  8
ROUND
 62
   250
100
AcDbSpline
210
0.0
220
0.0
230
1.0
 70
    27
 71
     3
 72
    16
 73
    12
 74
     0
 42
0.0000000001
 43
0.0000000001
 40
0.0
 40
0.0
 40
0.0
 40
0.0
 40
0.25
 40
0.25
 40
0.25
 40
0.25
 40
0.5
 40
0.5
 40
0.5
 40
0.5
 40
1.0
 40
1.0
 40
1.0
 40
1.0
 10
-11.9122
 20
-0.8089
 30
0.0
 10
-11.9122
 20
-0.8089
 30
0.0
 10
-10.4925
 20
-0.8089
 30
0.0
 10
-10.4925
 20
-0.8089
 30
0.0
 10
-10.4925
 20
-0.8089
 30
0.0
 10
-10.4925
 20
-0.8089
 30
0.0
 10
-10.4912
 20
-0.8089
 30
0.0
 10
-10.4912
 20
-0.8089
 30
0.0
 10
-10.4912
 20
-0.8089
 30
0.0
 10
-10.4912
 20
-0.8089
 30
0.0
 10
-11.9122
 20
-0.8089
 30
0.0
 10
-11.9122
 20
-0.8089
 30
0.0
  0
SPLINE
  5
B0
330
1F
100
AcDbEntity
  8
ROUND
 62
   250
100
AcDbSpline
210
0.0
220
0.0
230
1.0
 70
    27
 71
     3
 72
    16
 73
    12
 74
     0
 42
0.0000000001
 43
0.0000000001
 40
0.0
 40
0.0
 40
0.0
 40
0.0
 40
0.25
 40
0.25
 40
0.25
 40
0.25
 40
0.5
 40
0.5
 40
0.5
 40
0.5
 40
1.0
 40
1.0
 40
1.0
 40
1.0
 10
-11.9122
 20
-1.2848
 30
0.0
 10
-11.9122
 20
-1.2848
 30
0.0
 10
-10.493
 20
-1.2848
 30
0.0
 10
-10.493
 20
-1.2848
 30
0.0
 10
-10.493
 20
-1.2848
 30
0.0
 10
-10.493
 20
-1.2848
 30
0.0
 10
-10.4912
 20
-1.2848
 30
0.0
 10
-10.4912
 20
-1.2848
 30
0.0
 10
-10.4912
 20
-1.2848
 30
0.0
 10
-10.4912
 20
-1.2848
 30
0.0
 10
-11.9122
 20
-1.2848
 30
0.0
 10
-11.9122
 20
-1.2848
 30
0.0
  0
SPLINE
  5
B1
330
1F
100
AcDbEntity
  8
ROUND
 62
   250
100
AcDbSpline
210
0.0
220
0.0
230
1.0
 70
    27
 71
     3
 72
    16
 73
    12
 74
     0
 42
0.0000000001
 43
0.0000000001
 40
0.0
 40
0.0
 40
0.0
 40
0.0
 40
0.25
 40
0.25
 40
0.25
 40
0.25
 40
0.5
 40
0.5
 40
0.5
 40
0.5
 40
1.0
 40
1.0
 40
1.0
 40
1.0
 10
-11.9122
 20
-1.8062
 30
0.0
 10
-11.9122
 20
-1.8062
 30
0.0
 10
-10.4935
 20
-1.8062
 30
0.0
 10
-10.4935
 20
-1.8062
 30
0.0
 10
-10.4935
 20
-1.8062
 30
0.0
 10
-10.4935
 20
-1.8062
 30
0.0
 10
-10.4912
 20
-1.8062
 30
0.0
 10
-10.4912
 20
-1.8062
 30
0.0
 10
-10.4912
 20
-1.8062
 30
0.0
 10
-10.4912
 20
-1.8062
 30
0.0
 10
-11.9122
 20
-1.8062
 30
0.0
 10
-11.9122
 20
-1.8062
 30
0.0
  0
SPLINE
  5
B2
330
1F
100
AcDbEntity
  8
ROUND
 62
   250
100
AcDbSpline
210
0.0
220
0.0
230
1.0
 70
    27
 71
     3
 72
    16
 73
    12
 74
     0
 42
0.0000000001
 43
0.0000000001
 40
0.0
 40
0.0
 40
0.0
 40
0.0
 40
0.25
 40
0.25
 40
0.25
 40
0.25
 40
0.5
 40
0.5
 40
0.5
 40
0.5
 40
1.0
 40
1.0
 40
1.0
 40
1.0
 10
-11.9122
 20
-2.3663
 30
0.0
 10
-11.9122
 20
-2.3663
 30
0.0
 10
-10.4941
 20
-2.3663
 30
0.0
 10
-10.4941
 20
-2.3663
 30
0.0
 10
-10.4941
 20
-2.3663
 30
0.0
 10
-10.4941
 20
-2.3663
 30
0.0
 10
-10.4912
 20
-2.3663
 30
0.0
 10
-10.4912
 20
-2.3663
 30
0.0
 10
-10.4912
 20
-2.3663
 30
0.0
 10
-10.4912
 20
-2.3663
 30
0.0
 10
-11.9122
 20
-2.3663
 30
0.0
 10
-11.9122
 20
-2.3663
 30
0.0
  0
SPLINE
  5
B3
330
1F
100
AcDbEntity
  8
ROUND
 62
   250
100
AcDbSpline
210
0.0
220
0.0
230
1.0
 70
    27
 71
     3
 72
    16
 73
    12
 74
     0
 42
0.0000000001
 43
0.0000000001
 40
0.0
 40
0.0
 40
0.0
 40
0.0
 40
0.25
 40
0.25
 40
0.25
 40
0.25
 40
0.5
 40
0.5
 40
0.5
 40
0.5
 40
1.0
 40
1.0
 40
1.0
 40
1.0
 10
-11.9122
 20
-2.9576
 30
0.0
 10
-11.9122
 20
-2.9576
 30
0.0
 10
-10.4947
 20
-2.9576
 30
0.0
 10
-10.4947
 20
-2.9576
 30
0.0
 10
-10.4947
 20
-2.9576
 30
0.0
 10
-10.4947
 20
-2.9576
 30
0.0
 10
-10.4912
 20
-2.9576
 30
0.0
 10
-10.4912
 20
-2.9576
 30
0.0
 10
-10.4912
 20
-2.9576
 30
0.0
 10
-10.4912
 20
-2.9576
 30
0.0
 10
-11.9122
 20
-2.9576
 30
0.0
 10
-11.9122
 20
-2.9576
 30
0.0
  0
SPLINE
  5
B4
330
1F
100
AcDbEntity
  8
ROUND
 62
   250
100
AcDbSpline
210
0.0
220
0.0
230
1.0
 70
    27
 71
     3
 72
    16
 73
    12
 74
     0
 42
0.0000000001
 43
0.0000000001
 40
0.0
 40
0.0
 40
0.0
 40
0.0
 40
0.25
 40
0.25
 40
0.25
 40
0.25
 40
0.5
 40
0.5
 40
0.5
 40
0.5
 40
1.0
 40
1.0
 40
1.0
 40
1.0
 10
-11.9122
 20
-3.5766
 30
0.0
 10
-11.9122
 20
-3.5766
 30
0.0
 10
-10.4954
 20
-3.5766
 30
0.0
 10
-10.4954
 20
-3.5766
 30
0.0
 10
-10.4954
 20
-3.5766
 30
0.0
 10
-10.4954
 20
-3.5766
 30
0.0
 10
-10.4912
 20
-3.5766
 30
0.0
 10
-10.4912
 20
-3.5766
 30
0.0
 10
-10.4912
 20
-3.5766
 30
0.0
 10
-10.4912
 20
-3.5766
 30
0.0
 10
-11.9122
 20
-3.5766
 30
0.0
 10
-11.9122
 20
-3.5766
 30
0.0
  0
SPLINE
  5
B5
330
1F
100
AcDbEntity
  8
ROUND
 62
   250
100
AcDbSpline
210
0.0
220
0.0
230
1.0
 70
    27
 71
     3
 72
    16
 73
    12
 74
     0
 42
0.0000000001
 43
0.0000000001
 40
0.0
 40
0.0
 40
0.0
 40
0.0
 40
0.25
 40
0.25
 40
0.25
 40
0.25
 40
0.5
 40
0.5
 40
0.5
 40
0.5
 40
1.0
 40
1.0
 40
1.0
 40
1.0
 10
-11.9122
 20
-4.2144
 30
0.0
 10
-11.9122
 20
-4.2144
 30
0.0
 10
-10.496
 20
-4.2144
 30
0.0
 10
-10.496
 20
-4.2144
 30
0.0
 10
-10.496
 20
-4.2144
 30
0.0
 10
-10.496
 20
-4.2144
 30
0.0
 10
-10.4912
 20
-4.2144
 30
0.0
 10
-10.4912
 20
-4.2144
 30
0.0
 10
-10.4912
 20
-4.2144
 30
0.0
 10
-10.4912
 20
-4.2144
 30
0.0
 10
-11.9122
 20
-4.2144
 30
0.0
 10
-11.9122
 20
-4.2144
 30
0.0
  0
SPLINE
  5
B6
330
1F
100
AcDbEntity
  8
ROUND
 62
   250
100
AcDbSpline
210
0.0
220
0.0
230
1.0
 70
    27
 71
     3
 72
    16
 73
    12
 74
     0
 42
0.0000000001
 43
0.0000000001
 40
0.0
 40
0.0
 40
0.0
 40
0.0
 40
0.25
 40
0.25
 40
0.25
 40
0.25
 40
0.5
 40
0.5
 40
0.5
 40
0.5
 40
1.0
 40
1.0
 40
1.0
 40
1.0
 10
-11.9122
 20
-4.8631
 30
0.0
 10
-11.9122
 20
-4.8631
 30
0.0
 10
-10.4967
 20
-4.8631
 30
0.0
 10
-10.4967
 20
-4.8631
 30
0.0
 10
-10.4967
 20
-4.8631
 30
0.0
 10
-10.4967
 20
-4.8631
 30
0.0
 10
-10.4912
 20
-4.8631
 30
0.0
 10
-10.4912
 20
-4.8631
 30
0.0
 10
-10.4912
 20
-4.8631
 30
0.0
 10
-10.4912
 20
-4.8631
 30
0.0
 10
-11.9122
 20
-4.8631
 30
0.0
 10
-11.9122
 20
-4.8631
 30
0.0
  0
SPLINE
  5
B7
330
1F
100
AcDbEntity
  8
ROUND
 62
   250
100
AcDbSpline
210
0.0
220
0.0
230
1.0
 70
    27
 71
     3
 72
    16
 73
    12
 74
     0
 42
0.0000000001
 43
0.0000000001
 40
0.0
 40
0.0
 40
0.0
 40
0.0
 40
0.25
 40
0.25
 40
0.25
 40
0.25
 40
0.5
 40
0.5
 40
0.5
 40
0.5
 40
1.0
 40
1.0
 40
1.0
 40
1.0
 10
-11.9122
 20
-5.8028
 30
0.0
 10
-11.9122
 20
-5.8028
 30
0.0
 10
-10.4978
 20
-5.8028
 30
0.0
 10
-10.4978
 20
-5.8028
 30
0.0
 10
-10.4978
 20
-5.8028
 30
0.0
 10
-10.4978
 20
-5.8028
 30
0.0
 10
-10.4912
 20
-5.8028
 30
0.0
 10
-10.4912
 20
-5.8028
 30
0.0
 10
-10.4912
 20
-5.8028
 30
0.0
 10
-10.4912
 20
-5.8028
 30
0.0
 10
-11.9122
 20
-5.8028
 30
0.0
 10
-11.9122
 20
-5.8028
 30
0.0
  0
SPLINE
  5
B8
330
1F
100
AcDbEntity
  8
ROUND
 62
   250
100
AcDbSpline
210
0.0
220
0.0
230
1.0
 70
    27
 71
     3
 72
    16
 73
    12
 74
     0
 42
0.0000000001
 43
0.0000000001
 40
0.0
 40
0.0
 40
0.0
 40
0.0
 40
0.25
 40
0.25
 40
0.25
 40
0.25
 40
0.5
 40
0.5
 40
0.5
 40
0.5
 40
1.0
 40
1.0
 40
1.0
 40
1.0
 10
-11.9122
 20
-6.4516
 30
0.0
 10
-11.9122
 20
-6.4516
 30
0.0
 10
-10.4985
 20
-6.4516
 30
0.0
 10
-10.4985
 20
-6.4516
 30
0.0
 10
-10.4985
 20
-6.4516
 30
0.0
 10
-10.4985
 20
-6.4516
 30
0.0
 10
-10.4912
 20
-6.4516
 30
0.0
 10
-10.4912
 20
-6.4516
 30
0.0
 10
-10.4912
 20
-6.4516
 30
0.0
 10
-10.4912
 20
-6.4516
 30
0.0
 10
-11.9122
 20
-6.4516
 30
0.0
 10
-11.9122
 20
-6.4516
 30
0.0
  0
SPLINE
  5
B9
330
1F
100
AcDbEntity
  8
ROUND
 62
   250
100
AcDbSpline
210
0.0
220
0.0
230
1.0
 70
    27
 71
     3
 72
    16
 73
    12
 74
     0
 42
0.0000000001
 43
0.0000000001
 40
0.0
 40
0.0
 40
0.0
 40
0.0
 40
0.25
 40
0.25
 40
0.25
 40
0.25
 40
0.5
 40
0.5
 40
0.5
 40
0.5
 40
1.0
 40
1.0
 40
1.0
 40
1.0
 10
-11.9122
 20
-7.0894
 30
0.0
 10
-11.9122
 20
-7.0894
 30
0.0
 10
-10.4992
 20
-7.0894
 30
0.0
 10
-10.4992
 20
-7.0894
 30
0.0
 10
-10.4992
 20
-7.0894
 30
0.0
 10
-10.4992
 20
-7.0894
 30
0.0
 10
-10.4912
 20
-7.0894
 30
0.0
 10
-10.4912
 20
-7.0894
 30
0.0
 10
-10.4912
 20
-7.0894
 30
0.0
 10
-10.4912
 20
-7.0894
 30
0.0
 10
-11.9122
 20
-7.0894
 30
0.0
 10
-11.9122
 20
-7.0894
 30
0.0
  0
SPLINE
  5
BA
330
1F
100
AcDbEntity
  8
ROUND
 62
   250
100
AcDbSpline
210
0.0
220
0.0
230
1.0
 70
    27
 71
     3
 72
    16
 73
    12
 74
     0
 42
0.0000000001
 43
0.0000000001
 40
0.0
 40
0.0
 40
0.0
 40
0.0
 40
0.25
 40
0.25
 40
0.25
 40
0.25
 40
0.5
 40
0.5
 40
0.5
 40
0.5
 40
1.0
 40
1.0
 40
1.0
 40
1.0
 10
-11.9122
 20
-7.708
 30
0.0
 10
-11.9122
 20
-7.708
 30
0.0
 10
-10.4998
 20
-7.708
 30
0.0
 10
-10.4998
 20
-7.708
 30
0.0
 10
-10.4998
 20
-7.708
 30
0.0
 10
-10.4998
 20
-7.708
 30
0.0
 10
-10.4912
 20
-7.708
 30
0.0
 10
-10.4912
 20
-7.708
 30
0.0
 10
-10.4912
 20
-7.708
 30
0.0
 10
-10.4912
 20
-7.708
 30
0.0
 10
-11.9122
 20
-7.708
 30
0.0
 10
-11.9122
 20
-7.708
 30
0.0
  0
SPLINE
  5
BB
330
1F
100
AcDbEntity
  8
ROUND
 62
   250
100
AcDbSpline
210
0.0
220
0.0
230
1.0
 70
    27
 71
     3
 72
    16
 73
    12
 74
     0
 42
0.0000000001
 43
0.0000000001
 40
0.0
 40
0.0
 40
0.0
 40
0.0
 40
0.25
 40
0.25
 40
0.25
 40
0.25
 40
0.5
 40
0.5
 40
0.5
 40
0.5
 40
1.0
 40
1.0
 40
1.0
 40
1.0
 10
-11.9122
 20
-8.3004
 30
0.0
 10
-11.9122
 20
-8.3004
 30
0.0
 10
-10.5004
 20
-8.3004
 30
0.0
 10
-10.5004
 20
-8.3004
 30
0.0
 10
-10.5004
 20
-8.3004
 30
0.0
 10
-10.5004
 20
-8.3004
 30
0.0
 10
-10.4912
 20
-8.3004
 30
0.0
 10
-10.4912
 20
-8.3004
 30
0.0
 10
-10.4912
 20
-8.3004
 30
0.0
 10
-10.4912
 20
-8.3004
 30
0.0
 10
-11.9122
 20
-8.3004
 30
0.0
 10
-11.9122
 20
-8.3004
 30
0.0
  0
SPLINE
  5
BC
330
1F
100
AcDbEntity
  8
ROUND
 62
   250
100
AcDbSpline
210
0.0
220
0.0
230
1.0
 70
    27
 71
     3
 72
    12
 73
     8
 74
     0
 42
0.0000000001
 43
0.0000000001
 40
0.0
 40
0.0
 40
0.0
 40
0.0
 40
0.3333333333333333
 40
0.3333333333333333
 40
0.3333333333333333
 40
0.3333333333333333
 40
1.0
 40
1.0
 40
1.0
 40
1.0
 10
-11.9122
 20
0.9229
 30
0.0
 10
-11.9122
 20
0.9229
 30
0.0
 10
-10.4912
 20
0.9229
 30
0.0
 10
-10.4912
 20
0.9229
 30
0.0
 10
-10.4912
 20
0.9229
 30
0.0
 10
-10.4912
 20
0.9229
 30
0.0
 10
-11.9122
 20
0.9229
 30
0.0
 10
-11.9122
 20
0.9229
 30
0.0
  0
SPLINE
  5
BD
330
1F
100
AcDbEntity
  8
ROUND
 62
   250
100
AcDbSpline
210
0.0
220
0.0
230
1.0
 70
    24
 71
     3
 72
     8
 73
     4
 74
     0
 42
0.0000000001
 43
0.0000000001
 40
0.0
 40
0.0
 40
0.0
 40
0.0
 40
1.0
 40
1.0
 40
1.0
 40
1.0
 10
-29.4782
 20
18.2142
 30
0.0
 10
-29.4782
 20
18.2142
 30
0.0
 10
-29.4782
 20
21.8507
 30
0.0
 10
-29.4782
 20
21.8507
 30
0.0
  0
SPLINE
  5
BE
330
1F
100
AcDbEntity
  8
ROUND
 62
   250
100
AcDbSpline
210
0.0
220
0.0
230
1.0
 70
    24
 71
     3
 72
     8
 73
     4
 74
     0
 42
0.0000000001
 43
0.0000000001
 40
0.0
 40
0.0
 40
0.0
 40
0.0
 40
1.0
 40
1.0
 40
1.0
 40
1.0
 10
-18.0507
 20
18.2932
 30
0.0
 10
-18.0507
 20
18.2932
 30
0.0
 10
-18.0507
 20
21.91
 30
0.0
 10
-18.0507
 20
21.91
 30
0.0
  0
SPLINE
  5
BF
330
1F
100
AcDbEntity
  8
ROUND
 62
   250
100
AcDbSpline
210
0.0
220
0.0
230
1.0
 70
    24
 71
     3
 72
     8
 73
     4
 74
     0
 42
0.0000000001
 43
0.0000000001
 40
0.0
 40
0.0
 40
0.0
 40
0.0
 40
1.0
 40
1.0
 40
1.0
 40
1.0
 10
-14.722
 20
21.0962
 30
0.0
 10
-14.722
 20
21.0962
 30
0.0
 10
-33.3338
 20
21.0962
 30
0.0
 10
-33.3338
 20
21.0962
 30
0.0
  0
SPLINE
  5
C0
330
1F
100
AcDbEntity
  8
ROUND
 62
   250
100
AcDbSpline
210
0.0
220
0.0
230
1.0
 70
    24
 71
     3
 72
     8
 73
     4
 74
     0
 42
0.0000000001
 43
0.0000000001
 40
0.0
 40
0.0
 40
0.0
 40
0.0
 40
1.0
 40
1.0
 40
1.0
 40
1.0
 10
-26.7353
 20
-5.3506
 30
0.0
 10
-26.7353
 20
-5.3506
 30
0.0
 10
-39.4972
 20
-5.3506
 30
0.0
 10
-39.4972
 20
-5.3506
 30
0.0
  0
SPLINE
  5
C1
330
1F
100
AcDbEntity
  8
ROUND
 62
   250
100
AcDbSpline
210
0.0
220
0.0
230
1.0
 70
    24
 71
     3
 72
     8
 73
     4
 74
     0
 42
0.0000000001
 43
0.0000000001
 40
0.0
 40
0.0
 40
0.0
 40
0.0
 40
1.0
 40
1.0
 40
1.0
 40
1.0
 10
-29.9067
 20
17.5046
 30
0.0
 10
-29.9067
 20
17.5046
 30
0.0
 10
-39.5771
 20
17.5046
 30
0.0
 10
-39.5771
 20
17.5046
 30
0.0
  0
SPLINE
  5
C2
330
1F
100
AcDbEntity
  8
ROUND
 62
   250
100
AcDbSpline
210
0.0
220
0.0
230
1.0
 70
    24
 71
     3
 72
     8
 73
     4
 74
     0
 42
0.0000000001
 43
0.0000000001
 40
0.0
 40
0.0
 40
0.0
 40
0.0
 40
1.0
 40
1.0
 40
1.0
 40
1.0
 10
-27.1394
 20
-30.4913
 30
0.0
 10
-27.1394
 20
-30.4913
 30
0.0
 10
-39.5282
 20
-30.4913
 30
0.0
 10
-39.5282
 20
-30.4913
 30
0.0
  0
SPLINE
  5
C3
330
1F
100
AcDbEntity
  8
ROUND
 62
   250
100
AcDbSpline
210
0.0
220
0.0
230
1.0
 70
    24
 71
     3
 72
     8
 73
     4
 74
     0
 42
0.0000000001
 43
0.0000000001
 40
0.0
 40
0.0
 40
0.0
 40
0.0
 40
1.0
 40
1.0
 40
1.0
 40
1.0
 10
-38.7561
 20
17.3175
 30
0.0
 10
-38.7561
 20
17.3175
 30
0.0
 10
-38.7561
 20
-30.1854
 30
0.0
 10
-38.7561
 20
-30.1854
 30
0.0
  0
SPLINE
  5
C4
330
1F
100
AcDbEntity
  8
ROUND
 62
   250
100
AcDbSpline
210
0.0
220
0.0
230
1.0
 70
    24
 71
     3
 72
     8
 73
     4
 74
     0
 42
0.0000000001
 43
0.0000000001
 40
0.0
 40
0.0
 40
0.0
 40
0.0
 40
1.0
 40
1.0
 40
1.0
 40
1.0
 10
-23.7644
 20
24.9933
 30
0.0
 10
-23.7644
 20
24.9933
 30
0.0
 10
-23.7644
 20
29.3335
 30
0.0
 10
-23.7644
 20
29.3335
 30
0.0
  0
SPLINE
  5
C5
330
1F
100
AcDbEntity
  8
ROUND
 62
   250
100
AcDbSpline
210
0.0
220
0.0
230
1.0
 70
    24
 71
     3
 72
     8
 73
     4
 74
     0
 42
0.0000000001
 43
0.0000000001
 40
0.0
 40
0.0
 40
0.0
 40
0.0
 40
1.0
 40
1.0
 40
1.0
 40
1.0
 10
41.0872
 20
0.6868
 30
0.0
 10
41.0872
 20
0.6868
 30
0.0
 10
41.0872
 20
29.4313
 30
0.0
 10
41.0872
 20
29.4313
 30
0.0
  0
SPLINE
  5
C6
330
1F
100
AcDbEntity
  8
ROUND
 62
   250
100
AcDbSpline
210
0.0
220
0.0
230
1.0
 70
    24
 71
     3
 72
     8
 73
     4
 74
     0
 42
0.0000000001
 43
0.0000000001
 40
0.0
 40
0.0
 40
0.0
 40
0.0
 40
1.0
 40
1.0
 40
1.0
 40
1.0
 10
-23.7644
 20
28.3459
 30
0.0
 10
-23.7644
 20
28.3459
 30
0.0
 10
40.8906
 20
28.3459
 30
0.0
 10
40.8906
 20
28.3459
 30
0.0
  0
SPLINE
  5
C7
330
1F
100
AcDbEntity
  8
ROUND
 62
   250
100
AcDbSpline
210
0.0
220
0.0
230
1.0
 70
    24
 71
     3
 72
     8
 73
     4
 74
     0
 42
0.0000000001
 43
0.0000000001
 40
0.0
 40
0.0
 40
0.0
 40
0.0
 40
1.0
 40
1.0
 40
1.0
 40
1.0
 10
8.5073
 20
8.1634
 30
0.0
 10
8.5073
 20
8.1634
 30
0.0
 10
8.5073
 20
-13.7736
 30
0.0
 10
8.5073
 20
-13.7736
 30
0.0
  0
SPLINE
  5
C8
330
1F
100
AcDbEntity
  8
ROUND
 62
   250
100
AcDbSpline
210
0.0
220
0.0
230
1.0
 70
    24
 71
     3
 72
     8
 73
     4
 74
     0
 42
0.0000000001
 43
0.0000000001
 40
0.0
 40
0.0
 40
0.0
 40
0.0
 40
1.0
 40
1.0
 40
1.0
 40
1.0
 10
-30.621
 20
-25.0869
 30
0.0
 10
-30.621
 20
-25.0869
 30
0.0
 10
-30.621
 20
-13.3499
 30
0.0
 10
-30.621
 20
-13.3499
 30
0.0
  0
SPLINE
  5
C9
330
1F
100
AcDbEntity
  8
ROUND
 62
   250
100
AcDbSpline
210
0.0
220
0.0
230
1.0
 70
    24
 71
     3
 72
     8
 73
     4
 74
     0
 42
0.0000000001
 43
0.0000000001
 40
0.0
 40
0.0
 40
0.0
 40
0.0
 40
1.0
 40
1.0
 40
1.0
 40
1.0
 10
-28.3354
 20
14.6477
 30
0.0
 10
-28.3354
 20
14.6477
 30
0.0
 10
-28.3354
 20
3.7915
 30
0.0
 10
-28.3354
 20
3.7915
 30
0.0
  0
SPLINE
  5
CA
330
1F
100
AcDbEntity
  8
ROUND
 62
   250
100
AcDbSpline
210
0.0
220
0.0
230
1.0
 70
    24
 71
     3
 72
     8
 73
     4
 74
     0
 42
0.0000000001
 43
0.0000000001
 40
0.0
 40
0.0
 40
0.0
 40
0.0
 40
1.0
 40
1.0
 40
1.0
 40
1.0
 10
-30.621
 20
-13.3499
 30
0.0
 10
-30.621
 20
-13.3499
 30
0.0
 10
-31.6209
 20
-12.4928
 30
0.0
 10
-31.6209
 20
-12.4928
 30
0.0
  0
SPLINE
  5
CB
330
1F
100
AcDbEntity
  8
ROUND
 62
   250
100
AcDbSpline
210
0.0
220
0.0
230
1.0
 70
    24
 71
     3
 72
     8
 73
     4
 74
     0
 42
0.0000000001
 43
0.0000000001
 40
0.0
 40
0.0
 40
0.0
 40
0.0
 40
1.0
 40
1.0
 40
1.0
 40
1.0
 10
-19.1934
 20
14.6477
 30
0.0
 10
-19.1934
 20
14.6477
 30
0.0
 10
-19.1934
 20
3.7915
 30
0.0
 10
-19.1934
 20
3.7915
 30
0.0
  0
SPLINE
  5
CC
330
1F
100
AcDbEntity
  8
ROUND
 62
   250
100
AcDbSpline
210
0.0
220
0.0
230
1.0
 70
    24
 71
     3
 72
     8
 73
     4
 74
     0
 42
0.0000000001
 43
0.0000000001
 40
0.0
 40
0.0
 40
0.0
 40
0.0
 40
1.0
 40
1.0
 40
1.0
 40
1.0
 10
-16.9078
 20
-25.0869
 30
0.0
 10
-16.9078
 20
-25.0869
 30
0.0
 10
-16.9078
 20
-13.3499
 30
0.0
 10
-16.9078
 20
-13.3499
 30
0.0
  0
SPLINE
  5
CD
330
1F
100
AcDbEntity
  8
ROUND
 62
   250
100
AcDbSpline
210
0.0
220
0.0
230
1.0
 70
    24
 71
     3
 72
     8
 73
     4
 74
     0
 42
0.0000000001
 43
0.0000000001
 40
0.0
 40
0.0
 40
0.0
 40
0.0
 40
1.0
 40
1.0
 40
1.0
 40
1.0
 10
-13.7652
 20
-10.5644
 30
0.0
 10
-13.7652
 20
-10.5644
 30
0.0
 10
-13.7652
 20
-0.1368
 30
0.0
 10
-13.7652
 20
-0.1368
 30
0.0
  0
SPLINE
  5
CE
330
1F
100
AcDbEntity
  8
ROUND
 62
   250
100
AcDbSpline
210
0.0
220
0.0
230
1.0
 70
    24
 71
     3
 72
     8
 73
     4
 74
     0
 42
0.0000000001
 43
0.0000000001
 40
0.0
 40
0.0
 40
0.0
 40
0.0
 40
1.0
 40
1.0
 40
1.0
 40
1.0
 10
-13.7652
 20
-0.1368
 30
0.0
 10
-13.7652
 20
-0.1368
 30
0.0
 10
-13.4655
 20
0.506
 30
0.0
 10
-13.4655
 20
0.506
 30
0.0
  0
SPLINE
  5
CF
330
1F
100
AcDbEntity
  8
ROUND
 62
   250
100
AcDbSpline
210
0.0
220
0.0
230
1.0
 70
    24
 71
     3
 72
     8
 73
     4
 74
     0
 42
0.0000000001
 43
0.0000000001
 40
0.0
 40
0.0
 40
0.0
 40
0.0
 40
1.0
 40
1.0
 40
1.0
 40
1.0
 10
-13.7652
 20
-10.5644
 30
0.0
 10
-13.7652
 20
-10.5644
 30
0.0
 10
-13.4655
 20
-11.2072
 30
0.0
 10
-13.4655
 20
-11.2072
 30
0.0
  0
SPLINE
  5
D0
330
1F
100
AcDbEntity
  8
ROUND
 62
   250
100
AcDbSpline
210
0.0
220
0.0
230
1.0
 70
    24
 71
     3
 72
     8
 73
     4
 74
     0
 42
0.0000000001
 43
0.0000000001
 40
0.0
 40
0.0
 40
0.0
 40
0.0
 40
1.0
 40
1.0
 40
1.0
 40
1.0
 10
-16.9078
 20
-13.3499
 30
0.0
 10
-16.9078
 20
-13.3499
 30
0.0
 10
-15.9079
 20
-12.4928
 30
0.0
 10
-15.9079
 20
-12.4928
 30
0.0
  0
SPLINE
  5
D1
330
1F
100
AcDbEntity
  8
ROUND
 62
   250
100
AcDbSpline
210
0.0
220
0.0
230
1.0
 70
    24
 71
     3
 72
     8
 73
     4
 74
     0
 42
0.0000000001
 43
0.0000000001
 40
0.0
 40
0.0
 40
0.0
 40
0.0
 40
1.0
 40
1.0
 40
1.0
 40
1.0
 10
27.9455
 20
-14.4927
 30
0.0
 10
27.9455
 20
-14.4927
 30
0.0
 10
29.6597
 20
-14.4927
 30
0.0
 10
29.6597
 20
-14.4927
 30
0.0
  0
SPLINE
  5
D2
330
1F
100
AcDbEntity
  8
ROUND
 62
   250
100
AcDbSpline
210
0.0
220
0.0
230
1.0
 70
    24
 71
     3
 72
     8
 73
     4
 74
     0
 42
0.0000000001
 43
0.0000000001
 40
0.0
 40
0.0
 40
0.0
 40
0.0
 40
1.0
 40
1.0
 40
1.0
 40
1.0
 10
-30.621
 20
-13.3499
 30
0.0
 10
-30.621
 20
-13.3499
 30
0.0
 10
-16.9078
 20
-13.3499
 30
0.0
 10
-16.9078
 20
-13.3499
 30
0.0
  0
SPLINE
  5
D3
330
1F
100
AcDbEntity
  8
ROUND
 62
   250
100
AcDbSpline
210
0.0
220
0.0
230
1.0
 70
    24
 71
     3
 72
     8
 73
     4
 74
     0
 42
0.0000000001
 43
0.0000000001
 40
0.0
 40
0.0
 40
0.0
 40
0.0
 40
1.0
 40
1.0
 40
1.0
 40
1.0
 10
-13.4655
 20
-11.2072
 30
0.0
 10
-13.4655
 20
-11.2072
 30
0.0
 10
-12.4796
 20
-11.2072
 30
0.0
 10
-12.4796
 20
-11.2072
 30
0.0
  0
SPLINE
  5
D4
330
1F
100
AcDbEntity
  8
ROUND
 62
   250
100
AcDbSpline
210
0.0
220
0.0
230
1.0
 70
    24
 71
     3
 72
     8
 73
     4
 74
     0
 42
0.0000000001
 43
0.0000000001
 40
0.0
 40
0.0
 40
0.0
 40
0.0
 40
1.0
 40
1.0
 40
1.0
 40
1.0
 10
-13.4655
 20
0.506
 30
0.0
 10
-13.4655
 20
0.506
 30
0.0
 10
-12.4796
 20
0.506
 30
0.0
 10
-12.4796
 20
0.506
 30
0.0
  0
SPLINE
  5
D5
330
1F
100
AcDbEntity
  8
ROUND
 62
   250
100
AcDbSpline
210
0.0
220
0.0
230
1.0
 70
    24
 71
     3
 72
     8
 73
     4
 74
     0
 42
0.0000000001
 43
0.0000000001
 40
0.0
 40
0.0
 40
0.0
 40
0.0
 40
1.0
 40
1.0
 40
1.0
 40
1.0
 10
27.9455
 20
3.7915
 30
0.0
 10
27.9455
 20
3.7915
 30
0.0
 10
29.6597
 20
3.7915
 30
0.0
 10
29.6597
 20
3.7915
 30
0.0
  0
SPLINE
  5
D6
330
1F
100
AcDbEntity
  8
ROUND
 62
   250
100
AcDbSpline
210
0.0
220
0.0
230
1.0
 70
    24
 71
     3
 72
     8
 73
     4
 74
     0
 42
0.0000000001
 43
0.0000000001
 40
0.0
 40
0.0
 40
0.0
 40
0.0
 40
1.0
 40
1.0
 40
1.0
 40
1.0
 10
29.6597
 20
3.7915
 30
0.0
 10
29.6597
 20
3.7915
 30
0.0
 10
29.6597
 20
-14.4927
 30
0.0
 10
29.6597
 20
-14.4927
 30
0.0
  0
SPLINE
  5
D7
330
1F
100
AcDbEntity
  8
ROUND
 62
   250
100
AcDbSpline
210
0.0
220
0.0
230
1.0
 70
     8
 71
     3
 72
    12
 73
     8
 74
     0
 42
0.0000000001
 43
0.0000000001
 40
0.0
 40
0.0
 40
0.0
 40
0.0
 40
0.3333333333333333
 40
0.3333333333333333
 40
0.3333333333333333
 40
0.3333333333333333
 40
1.0
 40
1.0
 40
1.0
 40
1.0
 10
-30.5308
 20
-25.6356
 30
0.0
 10
-29.55
 20
-28.5378
 30
0.0
 10
-26.8278
 20
-30.4913
 30
0.0
 10
-23.7644
 20
-30.4913
 30
0.0
 10
-23.7644
 20
-30.4913
 30
0.0
 10
-20.7011
 20
-30.4913
 30
0.0
 10
-17.9788
 20
-28.5378
 30
0.0
 10
-16.9981
 20
-25.6356
 30
0.0
  0
SPLINE
  5
D8
330
1F
100
AcDbEntity
  8
ROUND
 62
   250
100
AcDbSpline
210
0.0
220
0.0
230
1.0
 70
     8
 71
     3
 72
    16
 73
    12
 74
     0
 42
0.0000000001
 43
0.0000000001
 40
0.0
 40
0.0
 40
0.0
 40
0.0
 40
0.25
 40
0.25
 40
0.25
 40
0.25
 40
0.5
 40
0.5
 40
0.5
 40
0.5
 40
1.0
 40
1.0
 40
1.0
 40
1.0
 10
29.6451
 20
-0.728
 30
0.0
 10
29.6451
 20
-0.728
 30
0.0
 10
41.0873
 20
-0.7796
 30
0.0
 10
41.0873
 20
-0.7796
 30
0.0
 10
41.0873
 20
-0.7796
 30
0.0
 10
41.0873
 20
-0.7796
 30
0.0
 10
41.0873
 20
-9.9216
 30
0.0
 10
41.0873
 20
-9.9216
 30
0.0
 10
41.0873
 20
-9.9216
 30
0.0
 10
41.0873
 20
-9.9216
 30
0.0
 10
29.7161
 20
-9.8709
 30
0.0
 10
29.7161
 20
-9.8709
 30
0.0
  0
SPLINE
  5
D9
330
1F
100
AcDbEntity
  8
ROUND
 62
   250
100
AcDbSpline
210
0.0
220
0.0
230
1.0
 70
    27
 71
     3
 72
    12
 73
     8
 74
     0
 42
0.0000000001
 43
0.0000000001
 40
0.0
 40
0.0
 40
0.0
 40
0.0
 40
0.3333333333333333
 40
0.3333333333333333
 40
0.3333333333333333
 40
0.3333333333333333
 40
1.0
 40
1.0
 40
1.0
 40
1.0
 10
26.2314
 20
-0.7796
 30
0.0
 10
26.2314
 20
-0.7796
 30
0.0
 10
-9.6227
 20
-0.7796
 30
0.0
 10
-9.6227
 20
-0.7796
 30
0.0
 10
-9.6227
 20
-0.7796
 30
0.0
 10
-9.6227
 20
-0.7796
 30
0.0
 10
26.2314
 20
-0.7796
 30
0.0
 10
26.2314
 20
-0.7796
 30
0.0
  0
SPLINE
  5
DA
330
1F
100
AcDbEntity
  8
ROUND
 62
   250
100
AcDbSpline
210
0.0
220
0.0
230
1.0
 70
    27
 71
     3
 72
    12
 73
     8
 74
     0
 42
0.0000000001
 43
0.0000000001
 40
0.0
 40
0.0
 40
0.0
 40
0.0
 40
0.3333333333333333
 40
0.3333333333333333
 40
0.3333333333333333
 40
0.3333333333333333
 40
1.0
 40
1.0
 40
1.0
 40
1.0
 10
26.2314
 20
-9.9216
 30
0.0
 10
26.2314
 20
-9.9216
 30
0.0
 10
-9.6227
 20
-9.9216
 30
0.0
 10
-9.6227
 20
-9.9216
 30
0.0
 10
-9.6227
 20
-9.9216
 30
0.0
 10
-9.6227
 20
-9.9216
 30
0.0
 10
26.2314
 20
-9.9216
 30
0.0
 10
26.2314
 20
-9.9216
 30
0.0
  0
SPLINE
  5
DB
330
1F
100
AcDbEntity
  8
ROUND
 62
   250
100
AcDbSpline
210
0.0
220
0.0
230
1.0
 70
    24
 71
     3
 72
     8
 73
     4
 74
     0
 42
0.0000000001
 43
0.0000000001
 40
0.0
 40
0.0
 40
0.0
 40
0.0
 40
1.0
 40
1.0
 40
1.0
 40
1.0
 10
-32.3351
 20
-12.4928
 30
0.0
 10
-32.3351
 20
-12.4928
 30
0.0
 10
-32.3351
 20
-10.1376
 30
0.0
 10
-32.3351
 20
-10.1376
 30
0.0
  0
SPLINE
  5
DC
330
1F
100
AcDbEntity
  8
ROUND
 62
   250
100
AcDbSpline
210
0.0
220
0.0
230
1.0
 70
    24
 71
     3
 72
     8
 73
     4
 74
     0
 42
0.0000000001
 43
0.0000000001
 40
0.0
 40
0.0
 40
0.0
 40
0.0
 40
1.0
 40
1.0
 40
1.0
 40
1.0
 10
-31.9615
 20
-6.8917
 30
0.0
 10
-31.9615
 20
-6.8917
 30
0.0
 10
-30.3868
 20
-0.1433
 30
0.0
 10
-30.3868
 20
-0.1433
 30
0.0
  0
SPLINE
  5
DD
330
1F
100
AcDbEntity
  8
ROUND
 62
   250
100
AcDbSpline
210
0.0
220
0.0
230
1.0
 70
    24
 71
     3
 72
     8
 73
     4
 74
     0
 42
0.0000000001
 43
0.0000000001
 40
0.0
 40
0.0
 40
0.0
 40
0.0
 40
1.0
 40
1.0
 40
1.0
 40
1.0
 10
-29.6925
 20
0.0775
 30
0.0
 10
-29.6925
 20
0.0775
 30
0.0
 10
-29.6925
 20
0.9346
 30
0.0
 10
-29.6925
 20
0.9346
 30
0.0
  0
SPLINE
  5
DE
330
1F
100
AcDbEntity
  8
ROUND
 62
   250
100
AcDbSpline
210
0.0
220
0.0
230
1.0
 70
    24
 71
     3
 72
     8
 73
     4
 74
     0
 42
0.0000000001
 43
0.0000000001
 40
0.0
 40
0.0
 40
0.0
 40
0.0
 40
1.0
 40
1.0
 40
1.0
 40
1.0
 10
-17.8363
 20
0.0775
 30
0.0
 10
-17.8363
 20
0.0775
 30
0.0
 10
-17.8363
 20
0.9346
 30
0.0
 10
-17.8363
 20
0.9346
 30
0.0
  0
SPLINE
  5
DF
330
1F
100
AcDbEntity
  8
ROUND
 62
   250
100
AcDbSpline
210
0.0
220
0.0
230
1.0
 70
    24
 71
     3
 72
     8
 73
     4
 74
     0
 42
0.0000000001
 43
0.0000000001
 40
0.0
 40
0.0
 40
0.0
 40
0.0
 40
1.0
 40
1.0
 40
1.0
 40
1.0
 10
-15.1937
 20
-12.4928
 30
0.0
 10
-15.1937
 20
-12.4928
 30
0.0
 10
-15.1937
 20
-10.5644
 30
0.0
 10
-15.1937
 20
-10.5644
 30
0.0
  0
SPLINE
  5
E0
330
1F
100
AcDbEntity
  8
ROUND
 62
   250
100
AcDbSpline
210
0.0
220
0.0
230
1.0
 70
    24
 71
     3
 72
     8
 73
     4
 74
     0
 42
0.0000000001
 43
0.0000000001
 40
0.0
 40
0.0
 40
0.0
 40
0.0
 40
1.0
 40
1.0
 40
1.0
 40
1.0
 10
-32.3351
 20
-12.4928
 30
0.0
 10
-32.3351
 20
-12.4928
 30
0.0
 10
-15.1937
 20
-12.4928
 30
0.0
 10
-15.1937
 20
-12.4928
 30
0.0
  0
SPLINE
  5
E1
330
1F
100
AcDbEntity
  8
ROUND
 62
   250
100
AcDbSpline
210
0.0
220
0.0
230
1.0
 70
    24
 71
     3
 72
     8
 73
     4
 74
     0
 42
0.0000000001
 43
0.0000000001
 40
0.0
 40
0.0
 40
0.0
 40
0.0
 40
1.0
 40
1.0
 40
1.0
 40
1.0
 10
-13.7652
 20
-10.5644
 30
0.0
 10
-13.7652
 20
-10.5644
 30
0.0
 10
-15.1937
 20
-10.5644
 30
0.0
 10
-15.1937
 20
-10.5644
 30
0.0
  0
SPLINE
  5
E2
330
1F
100
AcDbEntity
  8
ROUND
 62
   250
100
AcDbSpline
210
0.0
220
0.0
230
1.0
 70
    24
 71
     3
 72
     8
 73
     4
 74
     0
 42
0.0000000001
 43
0.0000000001
 40
0.0
 40
0.0
 40
0.0
 40
0.0
 40
1.0
 40
1.0
 40
1.0
 40
1.0
 10
-13.7652
 20
-0.1368
 30
0.0
 10
-13.7652
 20
-0.1368
 30
0.0
 10
-17.1436
 20
-0.1368
 30
0.0
 10
-17.1436
 20
-0.1368
 30
0.0
  0
SPLINE
  5
E3
330
1F
100
AcDbEntity
  8
ROUND
  6
NEW_LINE1
 62
   250
100
AcDbSpline
210
0.0
220
0.0
230
1.0
 70
    24
 71
     3
 72
     8
 73
     4
 74
     0
 42
0.0000000001
 43
0.0000000001
 40
0.0
 40
0.0
 40
0.0
 40
0.0
 40
1.0
 40
1.0
 40
1.0
 40
1.0
 10
-23.7644
 20
-31.0627
 30
0.0
 10
-23.7644
 20
-31.0627
 30
0.0
 10
-23.7644
 20
19.9415
 30
0.0
 10
-23.7644
 20
19.9415
 30
0.0
  0
SPLINE
  5
E5
330
1F
100
AcDbEntity
  8
ROUND
  6
NEW_LINE2
 62
   250
100
AcDbSpline
210
0.0
220
0.0
230
1.0
 70
    24
 71
     3
 72
     8
 73
     4
 74
     0
 42
0.0000000001
 43
0.0000000001
 40
0.0
 40
0.0
 40
0.0
 40
0.0
 40
1.0
 40
1.0
 40
1.0
 40
1.0
 10
-24.8725
 20
-5.3506
 30
0.0
 10
-24.8725
 20
-5.3506
 30
0.0
 10
41.6587
 20
-5.3506
 30
0.0
 10
41.6587
 20
-5.3506
 30
0.0
  0
SPLINE
  5
E7
330
1F
100
AcDbEntity
  8
ROUND
 62
   250
100
AcDbSpline
210
0.0
220
0.0
230
1.0
 70
    24
 71
     3
 72
     8
 73
     4
 74
     0
 42
0.0000000001
 43
0.0000000001
 40
0.0
 40
0.0
 40
0.0
 40
0.0
 40
1.0
 40
1.0
 40
1.0
 40
1.0
 10
-17.4202
 20
0.0775
 30
0.0
 10
-17.4202
 20
0.0775
 30
0.0
 10
-30.1086
 20
0.0775
 30
0.0
 10
-30.1086
 20
0.0775
 30
0.0
  0
SPLINE
  5
E8
330
1F
100
AcDbEntity
  8
ROUND
 62
   250
100
AcDbSpline
210
0.0
220
0.0
230
1.0
 70
    24
 71
     3
 72
     8
 73
     4
 74
     0
 42
0.0000000001
 43
0.0000000001
 40
0.0
 40
0.0
 40
0.0
 40
0.0
 40
1.0
 40
1.0
 40
1.0
 40
1.0
 10
26.2314
 20
-12.7785
 30
0.0
 10
26.2314
 20
-12.7785
 30
0.0
 10
26.2314
 20
2.0773
 30
0.0
 10
26.2314
 20
2.0773
 30
0.0
  0
SPLINE
  5
E9
330
1F
100
AcDbEntity
  8
ROUND
 62
   250
100
AcDbSpline
210
0.0
220
0.0
230
1.0
 70
     8
 71
     3
 72
     8
 73
     4
 74
     0
 42
0.0000000001
 43
0.0000000001
 40
0.0
 40
0.0
 40
0.0
 40
0.0
 40
1.0
 40
1.0
 40
1.0
 40
1.0
 10
-31.9615
 20
-6.8917
 30
0.0
 10
-32.2098
 20
-7.9558
 30
0.0
 10
-32.3351
 20
-9.0449
 30
0.0
 10
-32.3351
 20
-10.1376
 30
0.0
  0
SPLINE
  5
EA
330
1F
100
AcDbEntity
  8
ROUND
 62
   250
100
AcDbSpline
210
0.0
220
0.0
230
1.0
 70
     8
 71
     3
 72
     8
 73
     4
 74
     0
 42
0.0000000001
 43
0.0000000001
 40
0.0
 40
0.0
 40
0.0
 40
0.0
 40
1.0
 40
1.0
 40
1.0
 40
1.0
 10
27.9455
 20
3.7915
 30
0.0
 10
26.9988
 20
3.7915
 30
0.0
 10
26.2314
 20
3.024
 30
0.0
 10
26.2314
 20
2.0773
 30
0.0
  0
SPLINE
  5
EB
330
1F
100
AcDbEntity
  8
ROUND
 62
   250
100
AcDbSpline
210
0.0
220
0.0
230
1.0
 70
     8
 71
     3
 72
     8
 73
     4
 74
     0
 42
0.0000000001
 43
0.0000000001
 40
0.0
 40
0.0
 40
0.0
 40
0.0
 40
1.0
 40
1.0
 40
1.0
 40
1.0
 10
26.2314
 20
-12.7785
 30
0.0
 10
26.2314
 20
-13.7252
 30
0.0
 10
26.9988
 20
-14.4927
 30
0.0
 10
27.9455
 20
-14.4927
 30
0.0
  0
SPLINE
  5
EC
330
1F
100
AcDbEntity
  8
ROUND
 62
   250
100
AcDbSpline
210
0.0
220
0.0
230
1.0
 70
     8
 71
     3
 72
     8
 73
     4
 74
     0
 42
0.0000000001
 43
0.0000000001
 40
0.0
 40
0.0
 40
0.0
 40
0.0
 40
1.0
 40
1.0
 40
1.0
 40
1.0
 10
-30.621
 20
-25.0869
 30
0.0
 10
-30.621
 20
-25.2735
 30
0.0
 10
-30.5905
 20
-25.4588
 30
0.0
 10
-30.5308
 20
-25.6356
 30
0.0
  0
SPLINE
  5
ED
330
1F
100
AcDbEntity
  8
ROUND
 62
   250
100
AcDbSpline
210
0.0
220
0.0
230
1.0
 70
     8
 71
     3
 72
     8
 73
     4
 74
     0
 42
0.0000000001
 43
0.0000000001
 40
0.0
 40
0.0
 40
0.0
 40
0.0
 40
1.0
 40
1.0
 40
1.0
 40
1.0
 10
-16.9981
 20
-25.6356
 30
0.0
 10
-16.9383
 20
-25.4588
 30
0.0
 10
-16.9078
 20
-25.2735
 30
0.0
 10
-16.9078
 20
-25.0869
 30
0.0
  0
SPLINE
  5
EE
330
1F
100
AcDbEntity
  8
ROUND
 62
   250
100
AcDbSpline
210
0.0
220
0.0
230
1.0
 70
     8
 71
     3
 72
     8
 73
     4
 74
     0
 42
0.0000000001
 43
0.0000000001
 40
0.0
 40
0.0
 40
0.0
 40
0.0
 40
1.0
 40
1.0
 40
1.0
 40
1.0
 10
-30.1086
 20
0.0775
 30
0.0
 10
-30.2413
 20
0.0775
 30
0.0
 10
-30.3567
 20
-0.014
 30
0.0
 10
-30.3868
 20
-0.1433
 30
0.0
  0
SPLINE
  5
EF
330
1F
100
AcDbEntity
  8
ROUND
 62
   250
100
AcDbSpline
210
0.0
220
0.0
230
1.0
 70
     8
 71
     3
 72
     8
 73
     4
 74
     0
 42
0.0000000001
 43
0.0000000001
 40
0.0
 40
0.0
 40
0.0
 40
0.0
 40
1.0
 40
1.0
 40
1.0
 40
1.0
 10
-17.1436
 20
-0.1368
 30
0.0
 10
-17.1762
 20
-0.0106
 30
0.0
 10
-17.29
 20
0.0775
 30
0.0
 10
-17.4202
 20
0.0775
 30
0.0
  0
SPLINE
  5
F0
330
1F
100
AcDbEntity
  8
ROUND
 62
   250
100
AcDbSpline
210
0.0
220
0.0
230
1.0
 70
     8
 71
     3
 72
   120
 73
   116
 74
     0
 42
0.0000000001
 43
0.0000000001
 40
0.0
 40
0.0
 40
0.0
 40
0.0
 40
0.0333333333333333
 40
0.0333333333333333
 40
0.0333333333333333
 40
0.0333333333333333
 40
0.0666666666666667
 40
0.0666666666666667
 40
0.0666666666666667
 40
0.0666666666666667
 40
0.1
 40
0.1
 40
0.1
 40
0.1
 40
0.1333333333333333
 40
0.1333333333333333
 40
0.1333333333333333
 40
0.1333333333333333
 40
0.1666666666666667
 40
0.1666666666666667
 40
0.1666666666666667
 40
0.1666666666666667
 40
0.2
 40
0.2
 40
0.2
 40
0.2
 40
0.2333333333333333
 40
0.2333333333333333
 40
0.2333333333333333
 40
0.2333333333333333
 40
0.2666666666666667
 40
0.2666666666666667
 40
0.2666666666666667
 40
0.2666666666666667
 40
0.3
 40
0.3
 40
0.3
 40
0.3
 40
0.3333333333333333
 40
0.3333333333333333
 40
0.3333333333333333
 40
0.3333333333333333
 40
0.3666666666666666
 40
0.3666666666666666
 40
0.3666666666666666
 40
0.3666666666666666
 40
0.4
 40
0.4
 40
0.4
 40
0.4
 40
0.4333333333333333
 40
0.4333333333333333
 40
0.4333333333333333
 40
0.4333333333333333
 40
0.4666666666666667
 40
0.4666666666666667
 40
0.4666666666666667
 40
0.4666666666666667
 40
0.5
 40
0.5
 40
0.5
 40
0.5
 40
0.5333333333333333
 40
0.5333333333333333
 40
0.5333333333333333
 40
0.5333333333333333
 40
0.5666666666666667
 40
0.5666666666666667
 40
0.5666666666666667
 40
0.5666666666666667
 40
0.6
 40
0.6
 40
0.6
 40
0.6
 40
0.6333333333333333
 40
0.6333333333333333
 40
0.6333333333333333
 40
0.6333333333333333
 40
0.6666666666666666
 40
0.6666666666666666
 40
0.6666666666666666
 40
0.6666666666666666
 40
0.7
 40
0.7
 40
0.7
 40
0.7
 40
0.7333333333333333
 40
0.7333333333333333
 40
0.7333333333333333
 40
0.7333333333333333
 40
0.7666666666666667
 40
0.7666666666666667
 40
0.7666666666666667
 40
0.7666666666666667
 40
0.8
 40
0.8
 40
0.8
 40
0.8
 40
0.8333333333333334
 40
0.8333333333333334
 40
0.8333333333333334
 40
0.8333333333333334
 40
0.8666666666666667
 40
0.8666666666666667
 40
0.8666666666666667
 40
0.8666666666666667
 40
0.9
 40
0.9
 40
0.9
 40
0.9
 40
0.9333333333333333
 40
0.9333333333333333
 40
0.9333333333333333
 40
0.9333333333333333
 40
1.0
 40
1.0
 40
1.0
 40
1.0
 10
-17.1471
 20
-0.1433
 30
0.0
 10
-17.1471
 20
-0.1433
 30
0.0
 10
-17.1616
 20
-0.1695
 30
0.0
 10
-17.1616
 20
-0.1695
 30
0.0
 10
-17.1616
 20
-0.1695
 30
0.0
 10
-17.1616
 20
-0.1695
 30
0.0
 10
-17.1871
 20
-0.2159
 30
0.0
 10
-17.1871
 20
-0.2159
 30
0.0
 10
-17.1871
 20
-0.2159
 30
0.0
 10
-17.1871
 20
-0.2159
 30
0.0
 10
-17.2234
 20
-0.2831
 30
0.0
 10
-17.2234
 20
-0.2831
 30
0.0
 10
-17.2234
 20
-0.2831
 30
0.0
 10
-17.2234
 20
-0.2831
 30
0.0
 10
-17.2704
 20
-0.3715
 30
0.0
 10
-17.2704
 20
-0.3715
 30
0.0
 10
-17.2704
 20
-0.3715
 30
0.0
 10
-17.2704
 20
-0.3715
 30
0.0
 10
-17.3278
 20
-0.4817
 30
0.0
 10
-17.3278
 20
-0.4817
 30
0.0
 10
-17.3278
 20
-0.4817
 30
0.0
 10
-17.3278
 20
-0.4817
 30
0.0
 10
-17.3947
 20
-0.6141
 30
0.0
 10
-17.3947
 20
-0.6141
 30
0.0
 10
-17.3947
 20
-0.6141
 30
0.0
 10
-17.3947
 20
-0.6141
 30
0.0
 10
-17.4697
 20
-0.7681
 30
0.0
 10
-17.4697
 20
-0.7681
 30
0.0
 10
-17.4697
 20
-0.7681
 30
0.0
 10
-17.4697
 20
-0.7681
 30
0.0
 10
-17.5508
 20
-0.9423
 30
0.0
 10
-17.5508
 20
-0.9423
 30
0.0
 10
-17.5508
 20
-0.9423
 30
0.0
 10
-17.5508
 20
-0.9423
 30
0.0
 10
-17.6356
 20
-1.1348
 30
0.0
 10
-17.6356
 20
-1.1348
 30
0.0
 10
-17.6356
 20
-1.1348
 30
0.0
 10
-17.6356
 20
-1.1348
 30
0.0
 10
-17.7216
 20
-1.3438
 30
0.0
 10
-17.7216
 20
-1.3438
 30
0.0
 10
-17.7216
 20
-1.3438
 30
0.0
 10
-17.7216
 20
-1.3438
 30
0.0
 10
-17.8063
 20
-1.5668
 30
0.0
 10
-17.8063
 20
-1.5668
 30
0.0
 10
-17.8063
 20
-1.5668
 30
0.0
 10
-17.8063
 20
-1.5668
 30
0.0
 10
-17.8869
 20
-1.8007
 30
0.0
 10
-17.8869
 20
-1.8007
 30
0.0
 10
-17.8869
 20
-1.8007
 30
0.0
 10
-17.8869
 20
-1.8007
 30
0.0
 10
-17.9608
 20
-2.0423
 30
0.0
 10
-17.9608
 20
-2.0423
 30
0.0
 10
-17.9608
 20
-2.0423
 30
0.0
 10
-17.9608
 20
-2.0423
 30
0.0
 10
-18.0262
 20
-2.2891
 30
0.0
 10
-18.0262
 20
-2.2891
 30
0.0
 10
-18.0262
 20
-2.2891
 30
0.0
 10
-18.0262
 20
-2.2891
 30
0.0
 10
-18.0818
 20
-2.5397
 30
0.0
 10
-18.0818
 20
-2.5397
 30
0.0
 10
-18.0818
 20
-2.5397
 30
0.0
 10
-18.0818
 20
-2.5397
 30
0.0
 10
-18.127
 20
-2.7957
 30
0.0
 10
-18.127
 20
-2.7957
 30
0.0
 10
-18.127
 20
-2.7957
 30
0.0
 10
-18.127
 20
-2.7957
 30
0.0
 10
-18.1612
 20
-3.0594
 30
0.0
 10
-18.1612
 20
-3.0594
 30
0.0
 10
-18.1612
 20
-3.0594
 30
0.0
 10
-18.1612
 20
-3.0594
 30
0.0
 10
-18.1826
 20
-3.3301
 30
0.0
 10
-18.1826
 20
-3.3301
 30
0.0
 10
-18.1826
 20
-3.3301
 30
0.0
 10
-18.1826
 20
-3.3301
 30
0.0
 10
-18.1904
 20
-3.5975
 30
0.0
 10
-18.1904
 20
-3.5975
 30
0.0
 10
-18.1904
 20
-3.5975
 30
0.0
 10
-18.1904
 20
-3.5975
 30
0.0
 10
-18.1853
 20
-3.85
 30
0.0
 10
-18.1853
 20
-3.85
 30
0.0
 10
-18.1853
 20
-3.85
 30
0.0
 10
-18.1853
 20
-3.85
 30
0.0
 10
-18.1698
 20
-4.0832
 30
0.0
 10
-18.1698
 20
-4.0832
 30
0.0
 10
-18.1698
 20
-4.0832
 30
0.0
 10
-18.1698
 20
-4.0832
 30
0.0
 10
-18.146
 20
-4.3025
 30
0.0
 10
-18.146
 20
-4.3025
 30
0.0
 10
-18.146
 20
-4.3025
 30
0.0
 10
-18.146
 20
-4.3025
 30
0.0
 10
-18.1146
 20
-4.5142
 30
0.0
 10
-18.1146
 20
-4.5142
 30
0.0
 10
-18.1146
 20
-4.5142
 30
0.0
 10
-18.1146
 20
-4.5142
 30
0.0
 10
-18.0754
 20
-4.7243
 30
0.0
 10
-18.0754
 20
-4.7243
 30
0.0
 10
-18.0754
 20
-4.7243
 30
0.0
 10
-18.0754
 20
-4.7243
 30
0.0
 10
-18.0284
 20
-4.9344
 30
0.0
 10
-18.0284
 20
-4.9344
 30
0.0
 10
-18.0284
 20
-4.9344
 30
0.0
 10
-18.0284
 20
-4.9344
 30
0.0
 10
-17.974
 20
-5.1434
 30
0.0
 10
-17.974
 20
-5.1434
 30
0.0
 10
-17.974
 20
-5.1434
 30
0.0
 10
-17.974
 20
-5.1434
 30
0.0
 10
-17.9128
 20
-5.3506
 30
0.0
 10
-17.9128
 20
-5.3506
 30
0.0
 10
-17.9128
 20
-5.3506
 30
0.0
 10
-17.9128
 20
-5.3506
 30
0.0
 10
-17.4364
 20
-6.5257
 30
0.0
 10
-17.4364
 20
-6.5257
 30
0.0
 10
-17.4364
 20
-6.5257
 30
0.0
 10
-17.4364
 20
-6.5257
 30
0.0
 10
-15.1456
 20
-10.6425
 30
0.0
 10
-15.1456
 20
-10.6425
 30
0.0
  0
SPLINE
  5
F1
330
1F
100
AcDbEntity
  8
ROUND
 62
   250
100
AcDbSpline
210
0.0
220
0.0
230
1.0
 70
    24
 71
     3
 72
     8
 73
     4
 74
     0
 42
0.0000000001
 43
0.0000000001
 40
0.0
 40
0.0
 40
0.0
 40
0.0
 40
1.0
 40
1.0
 40
1.0
 40
1.0
 10
-17.1436
 20
-0.1368
 30
0.0
 10
-17.1436
 20
-0.1368
 30
0.0
 10
-17.1471
 20
-0.1433
 30
0.0
 10
-17.1471
 20
-0.1433
 30
0.0
  0
ENDSEC
  0
SECTION
  2
OBJECTS
  0
DICTIONARY
  5
C
330
0
100
AcDbDictionary
  3
ACAD_GROUP
350
D
  3
ACAD_LAYOUT
350
1A
  3
ACAD_MATERIAL
350
3B
  3
ACAD_MLEADERSTYLE
350
114
  3
ACAD_MLINESTYLE
350
17
  3
ACAD_PLOTSETTINGS
350
19
  3
ACAD_VISUALSTYLE
350
2A
  3
ACDBHEADERROUNDTRIPXREC
350
F2
  3
ACDBVARIABLEDICTIONARY
350
112
  0
DICTIONARY
  5
D
102
{ACAD_REACTORS
330
C
102
}
330
C
100
AcDbDictionary
  0
DICTIONARY
  5
1A
102
{ACAD_REACTORS
330
C
102
}
330
C
100
AcDbDictionary
  0
DICTIONARY
  5
3B
102
{ACAD_REACTORS
330
C
102
}
330
C
100
AcDbDictionary
  3
BYBLOCK
350
3D
  3
BYLAYER
350
3C
  3
GLOBAL
350
3E
  0
DICTIONARY
  5
114
102
{ACAD_REACTORS
330
C
102
}
330
C
100
AcDbDictionary
  0
DICTIONARY
  5
17
102
{ACAD_REACTORS
330
C
102
}
330
C
100
AcDbDictionary
  3
STANDARD
350
18
  0
DICTIONARY
  5
19
102
{ACAD_REACTORS
330
C
102
}
330
C
100
AcDbDictionary
  0
DICTIONARY
  5
2A
102
{ACAD_REACTORS
330
C
102
}
330
C
100
AcDbDictionary
  3
2DWIREFRAME
350
2F
  3
3D_HIDDEN
350
31
  3
3DWIREFRAME
350
30
  3
BASIC
350
32
  3
BRIGHTEN
350
36
  3
COLORCHANGE
350
3A
  3
CONCEPTUAL
350
34
  3
DIM
350
35
  3
FACEPATTERN
350
39
  3
FLAT
350
2B
  3
FLATWITHEDGES
350
2C
  3
GOURAUD
350
2D
  3
GOURAUDWITHEDGES
350
2E
  3
LINEPATTERN
350
38
  3
REALISTIC
350
33
  3
THICKEN
350
37
  0
DICTIONARY
  5
F2
102
{ACAD_REACTORS
330
C
102
}
330
C
100
AcDbDictionary
  3
CEPSNTYPE
350
FB
  3
DIMSTYLEDATA
350
111
  3
FINGERPRINTGUID
350
FC
  3
HYPERLINKBASE
350
F5
  3
INSUNITS
350
FA
  3
LAYOUTDICT
350
F7
  3
LWETCUNION
350
F9
  3
PLOTSETDICT
350
F8
  3
PSVPSCALE
350
FE
  3
PUCSBASE
350
101
  3
PUCSORGBACK
350
107
  3
PUCSORGBOTTOM
350
103
  3
PUCSORGFRONT
350
106
  3
PUCSORGLEFT
350
104
  3
PUCSORGRIGHT
350
105
  3
PUCSORGTOP
350
102
  3
PUCSORTHOREF
350
FF
  3
PUCSORTHOVIEW
350
100
  3
STYLESHEET
350
F6
  3
TSTACKALIGN
350
F3
  3
TSTACKSIZE
350
F4
  3
UCSBASE
350
10A
  3
UCSORGBACK
350
110
  3
UCSORGBOTTOM
350
10C
  3
UCSORGFRONT
350
10F
  3
UCSORGLEFT
350
10D
  3
UCSORGRIGHT
350
10E
  3
UCSORGTOP
350
10B
  3
UCSORTHOREF
350
108
  3
UCSORTHOVIEW
350
109
  3
VERSIONGUID
350
FD
  0
DICTIONARY
  5
112
102
{ACAD_REACTORS
330
C
102
}
330
C
100
AcDbDictionary
  3
DIMASSOC
350
115
  3
HIDETEXT
350
116
  0
MATERIAL
  5
3D
102
{ACAD_REACTORS
330
3B
102
}
102
{ACAD_XDICTIONARY
360
119
102
}
330
3B
100
AcDbMaterial
  1
ByBlock
  0
MATERIAL
  5
3C
102
{ACAD_REACTORS
330
3B
102
}
102
{ACAD_XDICTIONARY
360
117
102
}
330
3B
100
AcDbMaterial
  1
ByLayer
  0
MATERIAL
  5
3E
102
{ACAD_REACTORS
330
3B
102
}
102
{ACAD_XDICTIONARY
360
11B
102
}
330
3B
100
AcDbMaterial
  1
Global
  0
MLINESTYLE
  5
18
102
{ACAD_REACTORS
330
17
102
}
330
17
100
AcDbMlineStyle
  2
Standard
 70
     0
  3

 62
   256
 51
90.0
 52
90.0
 71
     2
 49
0.5
 62
   256
  6
BYLAYER
 49
-0.5
 62
   256
  6
BYLAYER
  0
ACAD_PROXY_OBJECT
  5
2F
102
{ACAD_REACTORS
330
2A
102
}
330
2A
100
AcDbProxyObject
 90
      499
 91
      501
 93
      436
310
42CC9915DA5C99599C985B595049028333333333333E3BF0000000000000FB0107901411070040501600405405064090741402480A0340
1001
ACAD
1000
AcDbSavedByObjectVersion
1070
     0
  0
ACAD_PROXY_OBJECT
  5
31
102
{ACAD_REACTORS
330
2A
102
}
330
2A
100
AcDbProxyObject
 90
      499
 91
      501
 93
      500
310
424CD108121A5919195B90640502408333333333333E3BF0000000000000FB01079024090700405020000000000001110200405405064090740C02480A0340
1001
ACAD
1000
AcDbSavedByObjectVersion
1070
     0
  0
ACAD_PROXY_OBJECT
  5
30
102
{ACAD_REACTORS
330
2A
102
}
330
2A
100
AcDbProxyObject
 90
      499
 91
      501
 93
      436
310
42CCD915DA5C99599C985B595059028333333333333E3BF0000000000000FB0107901411070040501600405405064090741402480A0340
1001
ACAD
1000
AcDbSavedByObjectVersion
1070
     0
  0
ACAD_PROXY_OBJECT
  5
32
102
{ACAD_REACTORS
330
2A
102
}
330
2A
100
AcDbProxyObject
 90
      499
 91
      501
 93
      388
310
4150985CDA58D07406404333333333333E3BF0000000000000FB0107A41107004050150841D405064090741402480A0350
1001
ACAD
1000
AcDbSavedByObjectVersion
1070
     0
  0
ACAD_PROXY_OBJECT
  5
36
102
{ACAD_REACTORS
330
2A
102
}
330
2A
100
AcDbProxyObject
 90
      499
 91
      501
 93
      428
310
42109C9A59DA1D195B90C409028333333333333E3BF0000000000000FB010790141107004050150841D405064090741402480A029950
1001
ACAD
1000
AcDbSavedByObjectVersion
1070
     0
  0
ACAD_PROXY_OBJECT
  5
3A
102
{ACAD_REACTORS
330
2A
102
}
330
2A
100
AcDbProxyObject
 90
      499
 91
      501
 93
      452
310
42D0DBDB1BDC90DA185B99D95104090240C333333333333E3BF0000000000000FB0108901411070040501508421405064090741402480A0350
1001
ACAD
1000
AcDbSavedByObjectVersion
1070
     0
  0
ACAD_PROXY_OBJECT
  5
34
102
{ACAD_REACTORS
330
2A
102
}
330
2A
100
AcDbProxyObject
 90
      499
 91
      501
 93
      500
310
4290DBDB98D95C1D1D585B10940D028333333333333E3BF0000000000000FB0107902409070040501000000000000111010841D405064090740C02480A0340
1001
ACAD
1000
AcDbSavedByObjectVersion
1070
     0
  0
ACAD_PROXY_OBJECT
  5
35
102
{ACAD_REACTORS
330
2A
102
}
330
2A
100
AcDbProxyObject
 90
      499
 91
      501
 93
      412
310
40D11A5B50B409028333333333333E3BF0000000000000FB010790141107004050150841D405064090741402480A02677FFFFFD0
1001
ACAD
1000
AcDbSavedByObjectVersion
1070
     0
  0
ACAD_PROXY_OBJECT
  5
39
102
{ACAD_REACTORS
330
2A
102
}
330
2A
100
AcDbProxyObject
 90
      499
 91
      501
 93
      444
310
42D19858D95C185D1D195C9B90F409028333333333333E3BF0000000000000FB010790141107004050150841D405064090741402480A0350
1001
ACAD
1000
AcDbSavedByObjectVersion
1070
     0
  0
ACAD_PROXY_OBJECT
  5
2B
102
{ACAD_REACTORS
330
2A
102
}
330
2A
100
AcDbProxyObject
 90
      499
 91
      501
 93
      388
310
41119B185D240901404333333333333E3BF0000000000000F9010740A41107004050150841D405064090741402480A1B50
1001
ACAD
1000
AcDbSavedByObjectVersion
1070
     0
  0
ACAD_PROXY_OBJECT
  5
2C
102
{ACAD_REACTORS
330
2A
102
}
330
2A
100
AcDbProxyObject
 90
      499
 91
      501
 93
      476
310
43519B185D15DA5D1A115919D95CD0140901404333333333333E3BF0000000000000F9010740901411070040501600405405064090741402480A1B50
1001
ACAD
1000
AcDbSavedByObjectVersion
1070
     0
  0
ACAD_PROXY_OBJECT
  5
2D
102
{ACAD_REACTORS
330
2A
102
}
330
2A
100
AcDbProxyObject
 90
      499
 91
      501
 93
      412
310
41D1DBDD5C985D5910240902404333333333333E3BF0000000000000F9010740A411070040501641D405064090741402480A1B50
1001
ACAD
1000
AcDbSavedByObjectVersion
1070
     0
  0
ACAD_PROXY_OBJECT
  5
2E
102
{ACAD_REACTORS
330
2A
102
}
330
2A
100
AcDbProxyObject
 90
      499
 91
      501
 93
      500
310
4411DBDD5C985D5915DA5D1A115919D95CD0340902404333333333333E3BF0000000000000F9010740901411070040501600405405064090741402480A1B50
1001
ACAD
1000
AcDbSavedByObjectVersion
1070
     0
  0
ACAD_PROXY_OBJECT
  5
38
102
{ACAD_REACTORS
330
2A
102
}
330
2A
100
AcDbProxyObject
 90
      499
 91
      501
 93
      444
310
42D31A5B995C185D1D195C9B90E409028333333333333E3BF0000000000000FB010790141107004050750841D405064090741402483A0350
1001
ACAD
1000
AcDbSavedByObjectVersion
1070
     0
  0
ACAD_PROXY_OBJECT
  5
33
102
{ACAD_REACTORS
330
2A
102
}
330
2A
100
AcDbProxyObject
 90
      499
 91
      501
 93
      420
310
425499585B1A5CDD1A58D08409028333333333333E3BF0000000000000FB01079019070040501508421405064090741402480A1B40
1001
ACAD
1000
AcDbSavedByObjectVersion
1070
     0
  0
ACAD_PROXY_OBJECT
  5
37
102
{ACAD_REACTORS
330
2A
102
}
330
2A
100
AcDbProxyObject
 90
      499
 91
      501
 93
      412
310
41D51A1A58DAD95B90D409028333333333333E3BF0000000000000FB010790141107004050150C41D405064090741402480A0350
1001
ACAD
1000
AcDbSavedByObjectVersion
1070
     0
  0
XRECORD
  5
FB
102
{ACAD_REACTORS
330
F2
102
}
330
F2
100
AcDbXrecord
 90
        0
  0
XRECORD
  5
111
102
{ACAD_REACTORS
330
F2
102
}
330
F2
100
AcDbXrecord
1000
DSTYLE
1002
{
1070
   340
340
11
1002
}
  0
XRECORD
  5
FC
102
{ACAD_REACTORS
330
F2
102
}
330
F2
100
AcDbXrecord
  1
{192C6055-85E9-4E9B-B2B9-CB9B3BB20258}
  0
XRECORD
  5
F5
102
{ACAD_REACTORS
330
F2
102
}
330
F2
100
AcDbXrecord
  1

  0
XRECORD
  5
FA
102
{ACAD_REACTORS
330
F2
102
}
330
F2
100
AcDbXrecord
 90
        4
  0
XRECORD
  5
F7
102
{ACAD_REACTORS
330
F2
102
}
330
F2
100
AcDbXrecord
340
1A
  0
XRECORD
  5
F9
102
{ACAD_REACTORS
330
F2
102
}
330
F2
100
AcDbXrecord
 90
    10781
  0
XRECORD
  5
F8
102
{ACAD_REACTORS
330
F2
102
}
330
F2
100
AcDbXrecord
340
19
  0
XRECORD
  5
FE
102
{ACAD_REACTORS
330
F2
102
}
330
F2
100
AcDbXrecord
 40
0.0
  0
XRECORD
  5
101
102
{ACAD_REACTORS
330
F2
102
}
330
F2
100
AcDbXrecord
340
0
  0
XRECORD
  5
107
102
{ACAD_REACTORS
330
F2
102
}
330
F2
100
AcDbXrecord
 10
0.0
 20
0.0
 30
0.0
  0
XRECORD
  5
103
102
{ACAD_REACTORS
330
F2
102
}
330
F2
100
AcDbXrecord
 10
0.0
 20
0.0
 30
0.0
  0
XRECORD
  5
106
102
{ACAD_REACTORS
330
F2
102
}
330
F2
100
AcDbXrecord
 10
0.0
 20
0.0
 30
0.0
  0
XRECORD
  5
104
102
{ACAD_REACTORS
330
F2
102
}
330
F2
100
AcDbXrecord
 10
0.0
 20
0.0
 30
0.0
  0
XRECORD
  5
105
102
{ACAD_REACTORS
330
F2
102
}
330
F2
100
AcDbXrecord
 10
0.0
 20
0.0
 30
0.0
  0
XRECORD
  5
102
102
{ACAD_REACTORS
330
F2
102
}
330
F2
100
AcDbXrecord
 10
0.0
 20
0.0
 30
0.0
  0
XRECORD
  5
FF
102
{ACAD_REACTORS
330
F2
102
}
330
F2
100
AcDbXrecord
340
0
  0
XRECORD
  5
100
102
{ACAD_REACTORS
330
F2
102
}
330
F2
100
AcDbXrecord
 70
     0
  0
XRECORD
  5
F6
102
{ACAD_REACTORS
330
F2
102
}
330
F2
100
AcDbXrecord
  1

  0
XRECORD
  5
F3
102
{ACAD_REACTORS
330
F2
102
}
330
F2
100
AcDbXrecord
 90
        1
  0
XRECORD
  5
F4
102
{ACAD_REACTORS
330
F2
102
}
330
F2
100
AcDbXrecord
 90
       70
  0
XRECORD
  5
10A
102
{ACAD_REACTORS
330
F2
102
}
330
F2
100
AcDbXrecord
340
0
  0
XRECORD
  5
110
102
{ACAD_REACTORS
330
F2
102
}
330
F2
100
AcDbXrecord
 10
0.0
 20
0.0
 30
0.0
  0
XRECORD
  5
10C
102
{ACAD_REACTORS
330
F2
102
}
330
F2
100
AcDbXrecord
 10
0.0
 20
0.0
 30
0.0
  0
XRECORD
  5
10F
102
{ACAD_REACTORS
330
F2
102
}
330
F2
100
AcDbXrecord
 10
0.0
 20
0.0
 30
0.0
  0
XRECORD
  5
10D
102
{ACAD_REACTORS
330
F2
102
}
330
F2
100
AcDbXrecord
 10
0.0
 20
0.0
 30
0.0
  0
XRECORD
  5
10E
102
{ACAD_REACTORS
330
F2
102
}
330
F2
100
AcDbXrecord
 10
0.0
 20
0.0
 30
0.0
  0
XRECORD
  5
10B
102
{ACAD_REACTORS
330
F2
102
}
330
F2
100
AcDbXrecord
 10
0.0
 20
0.0
 30
0.0
  0
XRECORD
  5
108
102
{ACAD_REACTORS
330
F2
102
}
330
F2
100
AcDbXrecord
340
0
  0
XRECORD
  5
109
102
{ACAD_REACTORS
330
F2
102
}
330
F2
100
AcDbXrecord
 70
     0
  0
XRECORD
  5
FD
102
{ACAD_REACTORS
330
F2
102
}
330
F2
100
AcDbXrecord
  1
{FAEB1C32-E019-11D5-929B-00C0DF256EC4}
  0
DICTIONARYVAR
  5
115
102
{ACAD_REACTORS
330
112
102
}
330
112
100
DictionaryVariables
280
     0
  1
2
  0
DICTIONARYVAR
  5
116
102
{ACAD_REACTORS
330
112
102
}
330
112
100
DictionaryVariables
280
     0
  1
1
  0
DICTIONARY
  5
119
330
3D
100
AcDbDictionary
280
     1
  3
ACAD_XREC_ROUNDTRIP
360
11A
  0
DICTIONARY
  5
117
330
3C
100
AcDbDictionary
280
     1
  3
ACAD_XREC_ROUNDTRIP
360
118
  0
DICTIONARY
  5
11B
330
3E
100
AcDbDictionary
280
     1
  3
ACAD_XREC_ROUNDTRIP
360
11C
  0
XRECORD
  5
11A
102
{ACAD_REACTORS
330
119
102
}
330
119
100
AcDbXrecord
102
MATERIAL
148
0.0
149
0.0
149
0.0
 93
        0
 94
      127
282
     0
 72
     1
 77
     1
171
     1
175
     1
179
     1
273
     0
  0
XRECORD
  5
118
102
{ACAD_REACTORS
330
117
102
}
330
117
100
AcDbXrecord
102
MATERIAL
148
0.0
149
0.0
149
0.0
 93
        0
 94
      127
282
     0
 72
     1
 77
     1
171
     1
175
     1
179
     1
273
     0
  0
XRECORD
  5
11C
102
{ACAD_REACTORS
330
11B
102
}
330
11B
100
AcDbXrecord
102
MATERIAL
148
0.0
149
0.0
149
0.0
 93
        0
 94
      127
282
     0
 72
     1
 77
     1
171
     1
175
     1
179
     1
273
     0
  0
ENDSEC
  0
EOF
