  0
SECTION
  2
HEADER
  9
$ACADVER
  1
AC1014
  9
$ACADMAINTVER
 70
     9
  9
$DWGCODEPAGE
  3
ANSI_1250
  9
$INSBASE
 10
0.0
 20
0.0
 30
0.0
  9
$EXTMIN
 10
-44.9535
 20
-31.7914
 30
0.0
  9
$EXTMAX
 10
44.9527
 20
31.7922
 30
0.0
  9
$LIMMIN
 10
0.0
 20
0.0
  9
$LIMMAX
 10
12.0
 20
9.0
  9
$ORTHOMODE
 70
     0
  9
$REGENMODE
 70
     1
  9
$FILLMODE
 70
     1
  9
$QTEXTMODE
 70
     0
  9
$MIRRTEXT
 70
     1
  9
$DRAGMODE
 70
     2
  9
$LTSCALE
 40
1.0
  9
$OSMODE
 70
    37
  9
$ATTMODE
 70
     1
  9
$TEXTSIZE
 40
0.2
  9
$TRACEWID
 40
0.05
  9
$TEXTSTYLE
  7
STANDARD
  9
$CLAYER
  8
0
  9
$CELTYPE
  6
BYLAYER
  9
$CECOLOR
 62
   256
  9
$CELTSCALE
 40
1.0
  9
$DELOBJ
 70
     1
  9
$DISPSILH
 70
     0
  9
$DIMSCALE
 40
1.0
  9
$DIMASZ
 40
0.18
  9
$DIMEXO
 40
0.0625
  9
$DIMDLI
 40
0.38
  9
$DIMRND
 40
0.0
  9
$DIMDLE
 40
0.0
  9
$DIMEXE
 40
0.18
  9
$DIMTP
 40
0.0
  9
$DIMTM
 40
0.0
  9
$DIMTXT
 40
0.18
  9
$DIMCEN
 40
0.09
  9
$DIMTSZ
 40
0.0
  9
$DIMTOL
 70
     0
  9
$DIMLIM
 70
     0
  9
$DIMTIH
 70
     1
  9
$DIMTOH
 70
     1
  9
$DIMSE1
 70
     0
  9
$DIMSE2
 70
     0
  9
$DIMTAD
 70
     0
  9
$DIMZIN
 70
     0
  9
$DIMBLK
  1

  9
$DIMASO
 70
     1
  9
$DIMSHO
 70
     1
  9
$DIMPOST
  1

  9
$DIMAPOST
  1

  9
$DIMALT
 70
     0
  9
$DIMALTD
 70
     2
  9
$DIMALTF
 40
25.4
  9
$DIMLFAC
 40
1.0
  9
$DIMTOFL
 70
     0
  9
$DIMTVP
 40
0.0
  9
$DIMTIX
 70
     0
  9
$DIMSOXD
 70
     0
  9
$DIMSAH
 70
     0
  9
$DIMBLK1
  1

  9
$DIMBLK2
  1

  9
$DIMSTYLE
  2
STANDARD
  9
$DIMCLRD
 70
     0
  9
$DIMCLRE
 70
     0
  9
$DIMCLRT
 70
     0
  9
$DIMTFAC
 40
1.0
  9
$DIMGAP
 40
0.09
  9
$DIMJUST
 70
     0
  9
$DIMSD1
 70
     0
  9
$DIMSD2
 70
     0
  9
$DIMTOLJ
 70
     1
  9
$DIMTZIN
 70
     0
  9
$DIMALTZ
 70
     0
  9
$DIMALTTZ
 70
     0
  9
$DIMFIT
 70
     3
  9
$DIMUPT
 70
     0
  9
$DIMUNIT
 70
     2
  9
$DIMDEC
 70
     4
  9
$DIMTDEC
 70
     4
  9
$DIMALTU
 70
     2
  9
$DIMALTTD
 70
     2
  9
$DIMTXSTY
  7
STANDARD
  9
$DIMAUNIT
 70
     0
  9
$LUNITS
 70
     2
  9
$LUPREC
 70
     4
  9
$SKETCHINC
 40
0.1
  9
$FILLETRAD
 40
0.5
  9
$AUNITS
 70
     0
  9
$AUPREC
 70
     0
  9
$MENU
  1
.
  9
$ELEVATION
 40
0.0
  9
$PELEVATION
 40
0.0
  9
$THICKNESS
 40
0.0
  9
$LIMCHECK
 70
     0
  9
$CHAMFERA
 40
0.5
  9
$CHAMFERB
 40
0.5
  9
$CHAMFERC
 40
1.0
  9
$CHAMFERD
 40
0.0
  9
$SKPOLY
 70
     0
  9
$TDCREATE
 40
2456247.441273692
  9
$TDUPDATE
 40
2456247.441273704
  9
$TDINDWG
 40
0.0000000116
  9
$TDUSRTIMER
 40
0.0000000116
  9
$USRTIMER
 70
     1
  9
$ANGBASE
 50
0.0
  9
$ANGDIR
 70
     0
  9
$PDMODE
 70
     0
  9
$PDSIZE
 40
0.0
  9
$PLINEWID
 40
0.0
  9
$COORDS
 70
     1
  9
$SPLFRAME
 70
     0
  9
$SPLINETYPE
 70
     6
  9
$SPLINESEGS
 70
     8
  9
$ATTDIA
 70
     0
  9
$ATTREQ
 70
     1
  9
$HANDLING
 70
     1
  9
$HANDSEED
  5
119
  9
$SURFTAB1
 70
     6
  9
$SURFTAB2
 70
     6
  9
$SURFTYPE
 70
     6
  9
$SURFU
 70
     6
  9
$SURFV
 70
     6
  9
$UCSNAME
  2

  9
$UCSORG
 10
0.0
 20
0.0
 30
0.0
  9
$UCSXDIR
 10
1.0
 20
0.0
 30
0.0
  9
$UCSYDIR
 10
0.0
 20
1.0
 30
0.0
  9
$PUCSNAME
  2

  9
$PUCSORG
 10
0.0
 20
0.0
 30
0.0
  9
$PUCSXDIR
 10
1.0
 20
0.0
 30
0.0
  9
$PUCSYDIR
 10
0.0
 20
1.0
 30
0.0
  9
$USERI1
 70
     0
  9
$USERI2
 70
     0
  9
$USERI3
 70
     0
  9
$USERI4
 70
     0
  9
$USERI5
 70
     0
  9
$USERR1
 40
0.0
  9
$USERR2
 40
0.0
  9
$USERR3
 40
0.0
  9
$USERR4
 40
0.0
  9
$USERR5
 40
0.0
  9
$WORLDVIEW
 70
     1
  9
$SHADEDGE
 70
     3
  9
$SHADEDIF
 70
    70
  9
$TILEMODE
 70
     1
  9
$MAXACTVP
 70
    64
  9
$PINSBASE
 10
0.0
 20
0.0
 30
0.0
  9
$PLIMCHECK
 70
     0
  9
$PEXTMIN
 10
1.000000000000000E+20
 20
1.000000000000000E+20
 30
1.000000000000000E+20
  9
$PEXTMAX
 10
-1.000000000000000E+20
 20
-1.000000000000000E+20
 30
-1.000000000000000E+20
  9
$PLIMMIN
 10
0.0
 20
0.0
  9
$PLIMMAX
 10
12.0
 20
9.0
  9
$UNITMODE
 70
     0
  9
$VISRETAIN
 70
     1
  9
$PLINEGEN
 70
     0
  9
$PSLTSCALE
 70
     1
  9
$TREEDEPTH
 70
  3020
  9
$PICKSTYLE
 70
     1
  9
$CMLSTYLE
  2
STANDARD
  9
$CMLJUST
 70
     0
  9
$CMLSCALE
 40
1.0
  9
$PROXYGRAPHICS
 70
     1
  9
$MEASUREMENT
 70
     0
  0
ENDSEC
  0
SECTION
  2
CLASSES
  0
CLASS
  1
ACDBDICTIONARYWDFLT
  2
AcDbDictionaryWithDefault
  3
ObjectDBX Classes
 90
        0
280
     0
281
     0
  0
CLASS
  1
VISUALSTYLE
  2
AcDbVisualStyle
  3
ObjectDBX Classes
 90
     4095
280
     0
281
     0
  0
CLASS
  1
MATERIAL
  2
AcDbMaterial
  3
ObjectDBX Classes
 90
     1153
280
     0
281
     0
  0
CLASS
  1
DICTIONARYVAR
  2
AcDbDictionaryVar
  3
ObjectDBX Classes
 90
        0
280
     0
281
     0
  0
CLASS
  1
XRECORD
  2
AcDbXrecord
  3
AutoCAD 2000
 90
        0
280
     0
281
     0
  0
CLASS
  1
LWPOLYLINE
  2
AcDbPolyline
  3
AutoCAD 2000
 90
        0
280
     0
281
     1
  0
CLASS
  1
HATCH
  2
AcDbHatch
  3
AutoCAD 2000
 90
        0
280
     0
281
     1
  0
CLASS
  1
ACDBPLACEHOLDER
  2
AcDbPlaceHolder
  3
ObjectDBX Classes
 90
        0
280
     0
281
     0
  0
CLASS
  1
LAYOUT
  2
AcDbLayout
  3
ObjectDBX Classes
 90
        0
280
     0
281
     0
  0
ENDSEC
  0
SECTION
  2
TABLES
  0
TABLE
  2
VPORT
  5
8
330
0
100
AcDbSymbolTable
 70
     1
  0
VPORT
  5
29
330
8
100
AcDbSymbolTableRecord
100
AcDbViewportTableRecord
  2
*ACTIVE
 70
     0
 10
0.0
 20
0.0
 11
1.0
 21
1.0
 12
10.42990654205607
 22
4.5
 13
0.0
 23
0.0
 14
0.5
 24
0.5
 15
0.5
 25
0.5
 16
0.0
 26
0.0
 36
1.0
 17
0.0
 27
0.0
 37
0.0
 40
9.0
 41
1.972972972850329
 42
50.0
 43
0.0
 44
0.0
 50
0.0
 51
0.0
 71
     0
 72
   100
 73
     1
 74
     3
 75
     0
 76
     0
 77
     0
 78
     0
  0
ENDTAB
  0
TABLE
  2
LTYPE
  5
5
330
0
100
AcDbSymbolTable
 70
     4
  0
LTYPE
  5
14
330
5
100
AcDbSymbolTableRecord
100
AcDbLinetypeTableRecord
  2
BYBLOCK
 70
     0
  3

 72
    65
 73
     0
 40
0.0
  0
LTYPE
  5
15
330
5
100
AcDbSymbolTableRecord
100
AcDbLinetypeTableRecord
  2
BYLAYER
 70
     0
  3

 72
    65
 73
     0
 40
0.0
  0
LTYPE
  5
16
330
5
100
AcDbSymbolTableRecord
100
AcDbLinetypeTableRecord
  2
CONTINUOUS
 70
     0
  3
Solid line
 72
    65
 73
     0
 40
0.0
  0
LTYPE
  5
E5
330
5
100
AcDbSymbolTableRecord
100
AcDbLinetypeTableRecord
  2
NEW_LINE1
 70
     0
  3

 72
    65
 73
     4
 40
1.2
 49
0.5
 74
     4
 75
     0
340
0
 46
1.0
 50
0.0
 44
0.0
 45
0.0
 49
-0.3
 74
     4
 75
     0
340
0
 46
1.0
 50
0.0
 44
0.0
 45
0.0
 49
0.1
 74
     4
 75
     0
340
0
 46
1.0
 50
0.0
 44
0.0
 45
0.0
 49
-0.3
 74
     4
 75
     0
340
0
 46
1.0
 50
0.0
 44
0.0
 45
0.0
  0
LTYPE
  5
E7
330
5
100
AcDbSymbolTableRecord
100
AcDbLinetypeTableRecord
  2
NEW_LINE2
 70
     0
  3

 72
    65
 73
     4
 40
1.2
 49
0.5
 74
     4
 75
     0
340
0
 46
1.0
 50
0.0
 44
0.0
 45
0.0
 49
-0.3
 74
     4
 75
     0
340
0
 46
1.0
 50
0.0
 44
0.0
 45
0.0
 49
0.1
 74
     4
 75
     0
340
0
 46
1.0
 50
0.0
 44
0.0
 45
0.0
 49
-0.3
 74
     4
 75
     0
340
0
 46
1.0
 50
0.0
 44
0.0
 45
0.0
  0
LTYPE
  5
E9
330
5
100
AcDbSymbolTableRecord
100
AcDbLinetypeTableRecord
  2
NEW_LINE3
 70
     0
  3

 72
    65
 73
     4
 40
1.2
 49
0.5
 74
     4
 75
     0
340
0
 46
1.0
 50
0.0
 44
0.0
 45
0.0
 49
-0.3
 74
     4
 75
     0
340
0
 46
1.0
 50
0.0
 44
0.0
 45
0.0
 49
0.1
 74
     4
 75
     0
340
0
 46
1.0
 50
0.0
 44
0.0
 45
0.0
 49
-0.3
 74
     4
 75
     0
340
0
 46
1.0
 50
0.0
 44
0.0
 45
0.0
  0
ENDTAB
  0
TABLE
  2
LAYER
  5
2
330
0
100
AcDbSymbolTable
 70
     2
  0
LAYER
  5
10
330
2
100
AcDbSymbolTableRecord
100
AcDbLayerTableRecord
  2
0
 70
     0
 62
     7
  6
CONTINUOUS
  0
LAYER
  5
40
330
2
100
AcDbSymbolTableRecord
100
AcDbLayerTableRecord
  2
ROUND
 70
     0
 62
     7
  6
CONTINUOUS
  0
ENDTAB
  0
TABLE
  2
STYLE
  5
3
330
0
100
AcDbSymbolTable
 70
     1
  0
STYLE
  5
11
330
3
100
AcDbSymbolTableRecord
100
AcDbTextStyleTableRecord
  2
STANDARD
 70
     0
 40
0.0
 41
1.0
 50
0.0
 71
     0
 42
0.2
  3
txt
  4

  0
ENDTAB
  0
TABLE
  2
VIEW
  5
6
330
0
100
AcDbSymbolTable
 70
     0
  0
ENDTAB
  0
TABLE
  2
UCS
  5
7
330
0
100
AcDbSymbolTable
 70
     0
  0
ENDTAB
  0
TABLE
  2
APPID
  5
9
330
0
100
AcDbSymbolTable
 70
     2
  0
APPID
  5
12
330
9
100
AcDbSymbolTableRecord
100
AcDbRegAppTableRecord
  2
ACAD
 70
     0
  0
APPID
  5
3F
330
9
100
AcDbSymbolTableRecord
100
AcDbRegAppTableRecord
  2
ODA
 70
     0
  0
ENDTAB
  0
TABLE
  2
DIMSTYLE
  5
A
330
0
100
AcDbSymbolTable
 70
     1
  0
DIMSTYLE
105
27
330
A
100
AcDbSymbolTableRecord
100
AcDbDimStyleTableRecord
  2
STANDARD
 70
     0
  3

  4

  5

  6

  7

 40
1.0
 41
0.18
 42
0.0625
 43
0.38
 44
0.18
 45
0.0
 46
0.0
 47
0.0
 48
0.0
140
0.18
141
0.09
142
0.0
143
25.4
144
1.0
145
0.0
146
1.0
147
0.09
 71
     0
 72
     0
 73
     1
 74
     1
 75
     0
 76
     0
 77
     0
 78
     0
170
     0
171
     2
172
     0
173
     0
174
     0
175
     0
176
     0
177
     0
178
     0
270
     2
271
     4
272
     4
273
     2
274
     2
340
11
275
     0
280
     0
281
     0
282
     0
283
     1
284
     0
285
     0
286
     0
287
     3
288
     0
  0
ENDTAB
  0
TABLE
  2
BLOCK_RECORD
  5
1
330
0
100
AcDbSymbolTable
 70
     1
  0
BLOCK_RECORD
  5
1F
330
1
100
AcDbSymbolTableRecord
100
AcDbBlockTableRecord
  2
*MODEL_SPACE
  0
BLOCK_RECORD
  5
1B
330
1
100
AcDbSymbolTableRecord
100
AcDbBlockTableRecord
  2
*PAPER_SPACE
  0
ENDTAB
  0
ENDSEC
  0
SECTION
  2
BLOCKS
  0
BLOCK
  5
20
330
1F
100
AcDbEntity
  8
0
100
AcDbBlockBegin
  2
*MODEL_SPACE
 70
     0
 10
0.0
 20
0.0
 30
0.0
  3
*MODEL_SPACE
  1

  0
ENDBLK
  5
21
330
1F
100
AcDbEntity
  8
0
100
AcDbBlockEnd
  0
BLOCK
  5
1C
330
1B
100
AcDbEntity
 67
     1
  8
0
100
AcDbBlockBegin
  2
*PAPER_SPACE
 70
     0
 10
0.0
 20
0.0
 30
0.0
  3
*PAPER_SPACE
  1

  0
ENDBLK
  5
1D
330
1B
100
AcDbEntity
 67
     1
  8
0
100
AcDbBlockEnd
  0
ENDSEC
  0
SECTION
  2
ENTITIES
  0
SPLINE
  5
41
330
1F
100
AcDbEntity
  8
ROUND
 62
   250
100
AcDbSpline
210
0.0
220
0.0
230
1.0
 70
    24
 71
     3
 72
     8
 73
     4
 74
     0
 42
0.0000000001
 43
0.0000000001
 40
0.0
 40
0.0
 40
0.0
 40
0.0
 40
1.0
 40
1.0
 40
1.0
 40
1.0
 10
29.8155
 20
-4.2423
 30
0.0
 10
29.8155
 20
-4.2423
 30
0.0
 10
31.5686
 20
-4.2423
 30
0.0
 10
31.5686
 20
-4.2423
 30
0.0
  0
SPLINE
  5
42
330
1F
100
AcDbEntity
  8
ROUND
 62
   250
100
AcDbSpline
210
0.0
220
0.0
230
1.0
 70
    24
 71
     3
 72
     8
 73
     4
 74
     0
 42
0.0000000001
 43
0.0000000001
 40
0.0
 40
0.0
 40
0.0
 40
0.0
 40
1.0
 40
1.0
 40
1.0
 40
1.0
 10
29.8155
 20
14.457
 30
0.0
 10
29.8155
 20
14.457
 30
0.0
 10
31.5686
 20
14.457
 30
0.0
 10
31.5686
 20
14.457
 30
0.0
  0
SPLINE
  5
43
330
1F
100
AcDbEntity
  8
ROUND
 62
   250
100
AcDbSpline
210
0.0
220
0.0
230
1.0
 70
    24
 71
     3
 72
     8
 73
     4
 74
     0
 42
0.0000000001
 43
0.0000000001
 40
0.0
 40
0.0
 40
0.0
 40
0.0
 40
1.0
 40
1.0
 40
1.0
 40
1.0
 10
31.5686
 20
-4.2423
 30
0.0
 10
31.5686
 20
-4.2423
 30
0.0
 10
31.5686
 20
14.457
 30
0.0
 10
31.5686
 20
14.457
 30
0.0
  0
SPLINE
  5
44
330
1F
100
AcDbEntity
  8
ROUND
 62
   250
100
AcDbSpline
210
0.0
220
0.0
230
1.0
 70
    24
 71
     3
 72
     8
 73
     4
 74
     0
 42
0.0000000001
 43
0.0000000001
 40
0.0
 40
0.0
 40
0.0
 40
0.0
 40
1.0
 40
1.0
 40
1.0
 40
1.0
 10
28.0624
 20
-2.4892
 30
0.0
 10
28.0624
 20
-2.4892
 30
0.0
 10
28.0624
 20
12.7039
 30
0.0
 10
28.0624
 20
12.7039
 30
0.0
  0
SPLINE
  5
45
330
1F
100
AcDbEntity
  8
ROUND
 62
   250
100
AcDbSpline
210
0.0
220
0.0
230
1.0
 70
     8
 71
     3
 72
     8
 73
     4
 74
     0
 42
0.0000000001
 43
0.0000000001
 40
0.0
 40
0.0
 40
0.0
 40
0.0
 40
1.0
 40
1.0
 40
1.0
 40
1.0
 10
29.8155
 20
14.457
 30
0.0
 10
28.8473
 20
14.457
 30
0.0
 10
28.0624
 20
13.6721
 30
0.0
 10
28.0624
 20
12.7039
 30
0.0
  0
SPLINE
  5
46
330
1F
100
AcDbEntity
  8
ROUND
 62
   250
100
AcDbSpline
210
0.0
220
0.0
230
1.0
 70
     8
 71
     3
 72
     8
 73
     4
 74
     0
 42
0.0000000001
 43
0.0000000001
 40
0.0
 40
0.0
 40
0.0
 40
0.0
 40
1.0
 40
1.0
 40
1.0
 40
1.0
 10
28.0624
 20
-2.4892
 30
0.0
 10
28.0624
 20
-3.4575
 30
0.0
 10
28.8473
 20
-4.2423
 30
0.0
 10
29.8155
 20
-4.2423
 30
0.0
  0
SPLINE
  5
47
330
1F
100
AcDbEntity
  8
ROUND
 62
   250
100
AcDbSpline
210
0.0
220
0.0
230
1.0
 70
    11
 71
     3
 72
   116
 73
   112
 74
     0
 42
0.0000000001
 43
0.0000000001
 40
0.0
 40
0.0
 40
0.0
 40
0.0
 40
0.0344827586206897
 40
0.0344827586206897
 40
0.0344827586206897
 40
0.0344827586206897
 40
0.0689655172413793
 40
0.0689655172413793
 40
0.0689655172413793
 40
0.0689655172413793
 40
0.103448275862069
 40
0.103448275862069
 40
0.103448275862069
 40
0.103448275862069
 40
0.1379310344827586
 40
0.1379310344827586
 40
0.1379310344827586
 40
0.1379310344827586
 40
0.1724137931034483
 40
0.1724137931034483
 40
0.1724137931034483
 40
0.1724137931034483
 40
0.2068965517241379
 40
0.2068965517241379
 40
0.2068965517241379
 40
0.2068965517241379
 40
0.2413793103448276
 40
0.2413793103448276
 40
0.2413793103448276
 40
0.2413793103448276
 40
0.2758620689655172
 40
0.2758620689655172
 40
0.2758620689655172
 40
0.2758620689655172
 40
0.3103448275862069
 40
0.3103448275862069
 40
0.3103448275862069
 40
0.3103448275862069
 40
0.3448275862068966
 40
0.3448275862068966
 40
0.3448275862068966
 40
0.3448275862068966
 40
0.3793103448275862
 40
0.3793103448275862
 40
0.3793103448275862
 40
0.3793103448275862
 40
0.4137931034482759
 40
0.4137931034482759
 40
0.4137931034482759
 40
0.4137931034482759
 40
0.4482758620689655
 40
0.4482758620689655
 40
0.4482758620689655
 40
0.4482758620689655
 40
0.4827586206896552
 40
0.4827586206896552
 40
0.4827586206896552
 40
0.4827586206896552
 40
0.5172413793103449
 40
0.5172413793103449
 40
0.5172413793103449
 40
0.5172413793103449
 40
0.5517241379310345
 40
0.5517241379310345
 40
0.5517241379310345
 40
0.5517241379310345
 40
0.5862068965517241
 40
0.5862068965517241
 40
0.5862068965517241
 40
0.5862068965517241
 40
0.6206896551724138
 40
0.6206896551724138
 40
0.6206896551724138
 40
0.6206896551724138
 40
0.6551724137931034
 40
0.6551724137931034
 40
0.6551724137931034
 40
0.6551724137931034
 40
0.6896551724137931
 40
0.6896551724137931
 40
0.6896551724137931
 40
0.6896551724137931
 40
0.7241379310344828
 40
0.7241379310344828
 40
0.7241379310344828
 40
0.7241379310344828
 40
0.7586206896551724
 40
0.7586206896551724
 40
0.7586206896551724
 40
0.7586206896551724
 40
0.7931034482758621
 40
0.7931034482758621
 40
0.7931034482758621
 40
0.7931034482758621
 40
0.8275862068965517
 40
0.8275862068965517
 40
0.8275862068965517
 40
0.8275862068965517
 40
0.8620689655172413
 40
0.8620689655172413
 40
0.8620689655172413
 40
0.8620689655172413
 40
0.896551724137931
 40
0.896551724137931
 40
0.896551724137931
 40
0.896551724137931
 40
0.9310344827586207
 40
0.9310344827586207
 40
0.9310344827586207
 40
0.9310344827586207
 40
1.0
 40
1.0
 40
1.0
 40
1.0
 10
2.9637
 20
29.7635
 30
0.0
 10
2.9637
 20
29.7635
 30
0.0
 10
2.9637
 20
31.2268
 30
0.0
 10
2.9637
 20
31.2268
 30
0.0
 10
2.9637
 20
31.2268
 30
0.0
 10
2.9637
 20
31.2268
 30
0.0
 10
3.1852
 20
31.2268
 30
0.0
 10
3.1852
 20
31.2268
 30
0.0
 10
3.1852
 20
31.2268
 30
0.0
 10
3.1852
 20
31.2268
 30
0.0
 10
3.1852
 20
31.0217
 30
0.0
 10
3.1852
 20
31.0217
 30
0.0
 10
3.1852
 20
31.0217
 30
0.0
 10
3.2313
 20
31.0932
 30
0.0
 10
3.2925
 20
31.1511
 30
0.0
 10
3.3687
 20
31.1944
 30
0.0
 10
3.3687
 20
31.1944
 30
0.0
 10
3.4449
 20
31.2381
 30
0.0
 10
3.5319
 20
31.2602
 30
0.0
 10
3.6292
 20
31.2602
 30
0.0
 10
3.6292
 20
31.2602
 30
0.0
 10
3.7374
 20
31.2602
 30
0.0
 10
3.8263
 20
31.2376
 30
0.0
 10
3.8955
 20
31.1925
 30
0.0
 10
3.8955
 20
31.1925
 30
0.0
 10
3.9651
 20
31.1473
 30
0.0
 10
4.014
 20
31.0848
 30
0.0
 10
4.0422
 20
31.0039
 30
0.0
 10
4.0422
 20
31.0039
 30
0.0
 10
4.1584
 20
31.1746
 30
0.0
 10
4.3089
 20
31.2602
 30
0.0
 10
4.4942
 20
31.2602
 30
0.0
 10
4.4942
 20
31.2602
 30
0.0
 10
4.6396
 20
31.2602
 30
0.0
 10
4.7511
 20
31.2198
 30
0.0
 10
4.8291
 20
31.1393
 30
0.0
 10
4.8291
 20
31.1393
 30
0.0
 10
4.9072
 20
31.0589
 30
0.0
 10
4.9463
 20
30.9352
 30
0.0
 10
4.9463
 20
30.7682
 30
0.0
 10
4.9463
 20
30.7682
 30
0.0
 10
4.9463
 20
30.7682
 30
0.0
 10
4.9463
 20
29.7635
 30
0.0
 10
4.9463
 20
29.7635
 30
0.0
 10
4.9463
 20
29.7635
 30
0.0
 10
4.9463
 20
29.7635
 30
0.0
 10
4.6998
 20
29.7635
 30
0.0
 10
4.6998
 20
29.7635
 30
0.0
 10
4.6998
 20
29.7635
 30
0.0
 10
4.6998
 20
29.7635
 30
0.0
 10
4.6998
 20
30.6854
 30
0.0
 10
4.6998
 20
30.6854
 30
0.0
 10
4.6998
 20
30.6854
 30
0.0
 10
4.6998
 20
30.7847
 30
0.0
 10
4.6918
 20
30.8562
 30
0.0
 10
4.6758
 20
30.8999
 30
0.0
 10
4.6758
 20
30.8999
 30
0.0
 10
4.6593
 20
30.9432
 30
0.0
 10
4.6302
 20
30.9785
 30
0.0
 10
4.5883
 20
31.0053
 30
0.0
 10
4.5883
 20
31.0053
 30
0.0
 10
4.546
 20
31.0316
 30
0.0
 10
4.4961
 20
31.0452
 30
0.0
 10
4.4392
 20
31.0452
 30
0.0
 10
4.4392
 20
31.0452
 30
0.0
 10
4.3362
 20
31.0452
 30
0.0
 10
4.2511
 20
31.0109
 30
0.0
 10
4.1829
 20
30.9422
 30
0.0
 10
4.1829
 20
30.9422
 30
0.0
 10
4.1151
 20
30.874
 30
0.0
 10
4.0808
 20
30.7644
 30
0.0
 10
4.0808
 20
30.6139
 30
0.0
 10
4.0808
 20
30.6139
 30
0.0
 10
4.0808
 20
30.6139
 30
0.0
 10
4.0808
 20
29.7635
 30
0.0
 10
4.0808
 20
29.7635
 30
0.0
 10
4.0808
 20
29.7635
 30
0.0
 10
4.0808
 20
29.7635
 30
0.0
 10
3.8329
 20
29.7635
 30
0.0
 10
3.8329
 20
29.7635
 30
0.0
 10
3.8329
 20
29.7635
 30
0.0
 10
3.8329
 20
29.7635
 30
0.0
 10
3.8329
 20
30.7141
 30
0.0
 10
3.8329
 20
30.7141
 30
0.0
 10
3.8329
 20
30.7141
 30
0.0
 10
3.8329
 20
30.8246
 30
0.0
 10
3.8127
 20
30.9074
 30
0.0
 10
3.7722
 20
30.9625
 30
0.0
 10
3.7722
 20
30.9625
 30
0.0
 10
3.7318
 20
31.0175
 30
0.0
 10
3.6659
 20
31.0452
 30
0.0
 10
3.5737
 20
31.0452
 30
0.0
 10
3.5737
 20
31.0452
 30
0.0
 10
3.5041
 20
31.0452
 30
0.0
 10
3.4397
 20
31.0269
 30
0.0
 10
3.3804
 20
30.9897
 30
0.0
 10
3.3804
 20
30.9897
 30
0.0
 10
3.3211
 20
30.9531
 30
0.0
 10
3.2779
 20
30.8994
 30
0.0
 10
3.2515
 20
30.8289
 30
0.0
 10
3.2515
 20
30.8289
 30
0.0
 10
3.2247
 20
30.7579
 30
0.0
 10
3.2115
 20
30.6558
 30
0.0
 10
3.2115
 20
30.5227
 30
0.0
 10
3.2115
 20
30.5227
 30
0.0
 10
3.2115
 20
30.5227
 30
0.0
 10
3.2115
 20
29.7635
 30
0.0
 10
3.2115
 20
29.7635
 30
0.0
 10
3.2115
 20
29.7635
 30
0.0
 10
3.2115
 20
29.7635
 30
0.0
 10
2.9637
 20
29.7635
 30
0.0
 10
2.9637
 20
29.7635
 30
0.0
  0
SPLINE
  5
48
330
1F
100
AcDbEntity
  8
ROUND
 62
   250
100
AcDbSpline
210
0.0
220
0.0
230
1.0
 70
    11
 71
     3
 72
   112
 73
   108
 74
     0
 42
0.0000000001
 43
0.0000000001
 40
0.0
 40
0.0
 40
0.0
 40
0.0
 40
0.0357142857142857
 40
0.0357142857142857
 40
0.0357142857142857
 40
0.0357142857142857
 40
0.0714285714285714
 40
0.0714285714285714
 40
0.0714285714285714
 40
0.0714285714285714
 40
0.1071428571428571
 40
0.1071428571428571
 40
0.1071428571428571
 40
0.1071428571428571
 40
0.1428571428571428
 40
0.1428571428571428
 40
0.1428571428571428
 40
0.1428571428571428
 40
0.1785714285714286
 40
0.1785714285714286
 40
0.1785714285714286
 40
0.1785714285714286
 40
0.2142857142857143
 40
0.2142857142857143
 40
0.2142857142857143
 40
0.2142857142857143
 40
0.25
 40
0.25
 40
0.25
 40
0.25
 40
0.2857142857142857
 40
0.2857142857142857
 40
0.2857142857142857
 40
0.2857142857142857
 40
0.3214285714285715
 40
0.3214285714285715
 40
0.3214285714285715
 40
0.3214285714285715
 40
0.3571428571428572
 40
0.3571428571428572
 40
0.3571428571428572
 40
0.3571428571428572
 40
0.3928571428571428
 40
0.3928571428571428
 40
0.3928571428571428
 40
0.3928571428571428
 40
0.4285714285714285
 40
0.4285714285714285
 40
0.4285714285714285
 40
0.4285714285714285
 40
0.4642857142857143
 40
0.4642857142857143
 40
0.4642857142857143
 40
0.4642857142857143
 40
0.5
 40
0.5
 40
0.5
 40
0.5
 40
0.5357142857142857
 40
0.5357142857142857
 40
0.5357142857142857
 40
0.5357142857142857
 40
0.5714285714285714
 40
0.5714285714285714
 40
0.5714285714285714
 40
0.5714285714285714
 40
0.6071428571428571
 40
0.6071428571428571
 40
0.6071428571428571
 40
0.6071428571428571
 40
0.6428571428571429
 40
0.6428571428571429
 40
0.6428571428571429
 40
0.6428571428571429
 40
0.6785714285714286
 40
0.6785714285714286
 40
0.6785714285714286
 40
0.6785714285714286
 40
0.7142857142857143
 40
0.7142857142857143
 40
0.7142857142857143
 40
0.7142857142857143
 40
0.75
 40
0.75
 40
0.75
 40
0.75
 40
0.7857142857142857
 40
0.7857142857142857
 40
0.7857142857142857
 40
0.7857142857142857
 40
0.8214285714285714
 40
0.8214285714285714
 40
0.8214285714285714
 40
0.8214285714285714
 40
0.8571428571428571
 40
0.8571428571428571
 40
0.8571428571428571
 40
0.8571428571428571
 40
0.8928571428571429
 40
0.8928571428571429
 40
0.8928571428571429
 40
0.8928571428571429
 40
0.9285714285714286
 40
0.9285714285714286
 40
0.9285714285714286
 40
0.9285714285714286
 40
1.0
 40
1.0
 40
1.0
 40
1.0
 10
6.2694
 20
29.9441
 30
0.0
 10
6.1772
 20
29.866
 30
0.0
 10
6.0888
 20
29.811
 30
0.0
 10
6.0041
 20
29.7786
 30
0.0
 10
6.0041
 20
29.7786
 30
0.0
 10
5.919
 20
29.7466
 30
0.0
 10
5.8277
 20
29.7306
 30
0.0
 10
5.7304
 20
29.7306
 30
0.0
 10
5.7304
 20
29.7306
 30
0.0
 10
5.5695
 20
29.7306
 30
0.0
 10
5.4463
 20
29.7696
 30
0.0
 10
5.3597
 20
29.8482
 30
0.0
 10
5.3597
 20
29.8482
 30
0.0
 10
5.2736
 20
29.9267
 30
0.0
 10
5.2304
 20
30.0274
 30
0.0
 10
5.2304
 20
30.1492
 30
0.0
 10
5.2304
 20
30.1492
 30
0.0
 10
5.2304
 20
30.2212
 30
0.0
 10
5.2464
 20
30.2865
 30
0.0
 10
5.2793
 20
30.3458
 30
0.0
 10
5.2793
 20
30.3458
 30
0.0
 10
5.3117
 20
30.4051
 30
0.0
 10
5.3545
 20
30.4526
 30
0.0
 10
5.4072
 20
30.4883
 30
0.0
 10
5.4072
 20
30.4883
 30
0.0
 10
5.4604
 20
30.5241
 30
0.0
 10
5.5196
 20
30.5514
 30
0.0
 10
5.586
 20
30.5697
 30
0.0
 10
5.586
 20
30.5697
 30
0.0
 10
5.6344
 20
30.5824
 30
0.0
 10
5.7078
 20
30.5951
 30
0.0
 10
5.8061
 20
30.6069
 30
0.0
 10
5.8061
 20
30.6069
 30
0.0
 10
6.0065
 20
30.6309
 30
0.0
 10
6.1542
 20
30.6591
 30
0.0
 10
6.2487
 20
30.6925
 30
0.0
 10
6.2487
 20
30.6925
 30
0.0
 10
6.2497
 20
30.7263
 30
0.0
 10
6.2501
 20
30.748
 30
0.0
 10
6.2501
 20
30.7569
 30
0.0
 10
6.2501
 20
30.7569
 30
0.0
 10
6.2501
 20
30.858
 30
0.0
 10
6.2266
 20
30.9295
 30
0.0
 10
6.1796
 20
30.9705
 30
0.0
 10
6.1796
 20
30.9705
 30
0.0
 10
6.1165
 20
31.0269
 30
0.0
 10
6.022
 20
31.0547
 30
0.0
 10
5.8973
 20
31.0547
 30
0.0
 10
5.8973
 20
31.0547
 30
0.0
 10
5.7807
 20
31.0547
 30
0.0
 10
5.6946
 20
31.0344
 30
0.0
 10
5.6386
 20
30.9935
 30
0.0
 10
5.6386
 20
30.9935
 30
0.0
 10
5.5831
 20
30.9526
 30
0.0
 10
5.5422
 20
30.8802
 30
0.0
 10
5.5154
 20
30.7762
 30
0.0
 10
5.5154
 20
30.7762
 30
0.0
 10
5.5154
 20
30.7762
 30
0.0
 10
5.2732
 20
30.8096
 30
0.0
 10
5.2732
 20
30.8096
 30
0.0
 10
5.2732
 20
30.8096
 30
0.0
 10
5.2953
 20
30.9131
 30
0.0
 10
5.3315
 20
30.9973
 30
0.0
 10
5.3818
 20
31.0608
 30
0.0
 10
5.3818
 20
31.0608
 30
0.0
 10
5.4322
 20
31.1247
 30
0.0
 10
5.5055
 20
31.1741
 30
0.0
 10
5.601
 20
31.2085
 30
0.0
 10
5.601
 20
31.2085
 30
0.0
 10
5.6965
 20
31.2428
 30
0.0
 10
5.807
 20
31.2602
 30
0.0
 10
5.9331
 20
31.2602
 30
0.0
 10
5.9331
 20
31.2602
 30
0.0
 10
6.0582
 20
31.2602
 30
0.0
 10
6.1593
 20
31.2452
 30
0.0
 10
6.2374
 20
31.216
 30
0.0
 10
6.2374
 20
31.216
 30
0.0
 10
6.3155
 20
31.1864
 30
0.0
 10
6.3729
 20
31.1497
 30
0.0
 10
6.41
 20
31.105
 30
0.0
 10
6.41
 20
31.105
 30
0.0
 10
6.4467
 20
31.0603
 30
0.0
 10
6.4721
 20
31.0043
 30
0.0
 10
6.4872
 20
30.9361
 30
0.0
 10
6.4872
 20
30.9361
 30
0.0
 10
6.4952
 20
30.8938
 30
0.0
 10
6.4994
 20
30.8176
 30
0.0
 10
6.4994
 20
30.7075
 30
0.0
 10
6.4994
 20
30.7075
 30
0.0
 10
6.4994
 20
30.7075
 30
0.0
 10
6.4994
 20
30.3769
 30
0.0
 10
6.4994
 20
30.3769
 30
0.0
 10
6.4994
 20
30.3769
 30
0.0
 10
6.4994
 20
30.1459
 30
0.0
 10
6.5046
 20
30.0001
 30
0.0
 10
6.5154
 20
29.9394
 30
0.0
 10
6.5154
 20
29.9394
 30
0.0
 10
6.5258
 20
29.8783
 30
0.0
 10
6.5469
 20
29.8195
 30
0.0
 10
6.578
 20
29.7635
 30
0.0
 10
6.578
 20
29.7635
 30
0.0
 10
6.578
 20
29.7635
 30
0.0
 10
6.3188
 20
29.7635
 30
0.0
 10
6.3188
 20
29.7635
 30
0.0
 10
6.3188
 20
29.7635
 30
0.0
 10
6.2934
 20
29.8148
 30
0.0
 10
6.2765
 20
29.875
 30
0.0
 10
6.2694
 20
29.9441
 30
0.0
  0
SPLINE
  5
49
330
1F
100
AcDbEntity
  8
ROUND
 62
   250
100
AcDbSpline
210
0.0
220
0.0
230
1.0
 70
    11
 71
     3
 72
    44
 73
    40
 74
     0
 42
0.0000000001
 43
0.0000000001
 40
0.0
 40
0.0
 40
0.0
 40
0.0
 40
0.0909090909090909
 40
0.0909090909090909
 40
0.0909090909090909
 40
0.0909090909090909
 40
0.1818181818181818
 40
0.1818181818181818
 40
0.1818181818181818
 40
0.1818181818181818
 40
0.2727272727272727
 40
0.2727272727272727
 40
0.2727272727272727
 40
0.2727272727272727
 40
0.3636363636363636
 40
0.3636363636363636
 40
0.3636363636363636
 40
0.3636363636363636
 40
0.4545454545454545
 40
0.4545454545454545
 40
0.4545454545454545
 40
0.4545454545454545
 40
0.5454545454545454
 40
0.5454545454545454
 40
0.5454545454545454
 40
0.5454545454545454
 40
0.6363636363636364
 40
0.6363636363636364
 40
0.6363636363636364
 40
0.6363636363636364
 40
0.7272727272727273
 40
0.7272727272727273
 40
0.7272727272727273
 40
0.7272727272727273
 40
0.8181818181818182
 40
0.8181818181818182
 40
0.8181818181818182
 40
0.8181818181818182
 40
1.0
 40
1.0
 40
1.0
 40
1.0
 10
6.2487
 20
30.4982
 30
0.0
 10
6.1584
 20
30.4611
 30
0.0
 10
6.0234
 20
30.43
 30
0.0
 10
5.8437
 20
30.4041
 30
0.0
 10
5.8437
 20
30.4041
 30
0.0
 10
5.7417
 20
30.3896
 30
0.0
 10
5.6692
 20
30.3731
 30
0.0
 10
5.6274
 20
30.3548
 30
0.0
 10
5.6274
 20
30.3548
 30
0.0
 10
5.585
 20
30.3364
 30
0.0
 10
5.5521
 20
30.3096
 30
0.0
 10
5.5295
 20
30.2738
 30
0.0
 10
5.5295
 20
30.2738
 30
0.0
 10
5.5065
 20
30.2386
 30
0.0
 10
5.4947
 20
30.1995
 30
0.0
 10
5.4947
 20
30.1563
 30
0.0
 10
5.4947
 20
30.1563
 30
0.0
 10
5.4947
 20
30.0899
 30
0.0
 10
5.5201
 20
30.0349
 30
0.0
 10
5.57
 20
29.9907
 30
0.0
 10
5.57
 20
29.9907
 30
0.0
 10
5.6198
 20
29.9469
 30
0.0
 10
5.6932
 20
29.9248
 30
0.0
 10
5.7896
 20
29.9248
 30
0.0
 10
5.7896
 20
29.9248
 30
0.0
 10
5.8851
 20
29.9248
 30
0.0
 10
5.9703
 20
29.9455
 30
0.0
 10
6.0446
 20
29.9874
 30
0.0
 10
6.0446
 20
29.9874
 30
0.0
 10
6.1189
 20
30.0293
 30
0.0
 10
6.1739
 20
30.0866
 30
0.0
 10
6.2087
 20
30.1591
 30
0.0
 10
6.2087
 20
30.1591
 30
0.0
 10
6.2355
 20
30.2151
 30
0.0
 10
6.2487
 20
30.2978
 30
0.0
 10
6.2487
 20
30.407
 30
0.0
 10
6.2487
 20
30.407
 30
0.0
 10
6.2487
 20
30.407
 30
0.0
 10
6.2487
 20
30.4982
 30
0.0
 10
6.2487
 20
30.4982
 30
0.0
  0
SPLINE
  5
4A
330
1F
100
AcDbEntity
  8
ROUND
 62
   250
100
AcDbSpline
210
0.0
220
0.0
230
1.0
 70
    11
 71
     3
 72
    64
 73
    60
 74
     0
 42
0.0000000001
 43
0.0000000001
 40
0.0
 40
0.0
 40
0.0
 40
0.0
 40
0.0625
 40
0.0625
 40
0.0625
 40
0.0625
 40
0.125
 40
0.125
 40
0.125
 40
0.125
 40
0.1875
 40
0.1875
 40
0.1875
 40
0.1875
 40
0.25
 40
0.25
 40
0.25
 40
0.25
 40
0.3125
 40
0.3125
 40
0.3125
 40
0.3125
 40
0.375
 40
0.375
 40
0.375
 40
0.375
 40
0.4375
 40
0.4375
 40
0.4375
 40
0.4375
 40
0.5
 40
0.5
 40
0.5
 40
0.5
 40
0.5625
 40
0.5625
 40
0.5625
 40
0.5625
 40
0.625
 40
0.625
 40
0.625
 40
0.625
 40
0.6875
 40
0.6875
 40
0.6875
 40
0.6875
 40
0.75
 40
0.75
 40
0.75
 40
0.75
 40
0.8125
 40
0.8125
 40
0.8125
 40
0.8125
 40
0.875
 40
0.875
 40
0.875
 40
0.875
 40
1.0
 40
1.0
 40
1.0
 40
1.0
 10
6.7186
 20
29.7635
 30
0.0
 10
6.7186
 20
29.7635
 30
0.0
 10
7.2534
 20
30.5241
 30
0.0
 10
7.2534
 20
30.5241
 30
0.0
 10
7.2534
 20
30.5241
 30
0.0
 10
7.2534
 20
30.5241
 30
0.0
 10
6.7586
 20
31.2268
 30
0.0
 10
6.7586
 20
31.2268
 30
0.0
 10
6.7586
 20
31.2268
 30
0.0
 10
6.7586
 20
31.2268
 30
0.0
 10
7.0685
 20
31.2268
 30
0.0
 10
7.0685
 20
31.2268
 30
0.0
 10
7.0685
 20
31.2268
 30
0.0
 10
7.0685
 20
31.2268
 30
0.0
 10
7.2934
 20
30.8839
 30
0.0
 10
7.2934
 20
30.8839
 30
0.0
 10
7.2934
 20
30.8839
 30
0.0
 10
7.3352
 20
30.8185
 30
0.0
 10
7.3696
 20
30.764
 30
0.0
 10
7.395
 20
30.7198
 30
0.0
 10
7.395
 20
30.7198
 30
0.0
 10
7.4354
 20
30.7804
 30
0.0
 10
7.4726
 20
30.8341
 30
0.0
 10
7.5069
 20
30.8811
 30
0.0
 10
7.5069
 20
30.8811
 30
0.0
 10
7.5069
 20
30.8811
 30
0.0
 10
7.7534
 20
31.2268
 30
0.0
 10
7.7534
 20
31.2268
 30
0.0
 10
7.7534
 20
31.2268
 30
0.0
 10
7.7534
 20
31.2268
 30
0.0
 10
8.0497
 20
31.2268
 30
0.0
 10
8.0497
 20
31.2268
 30
0.0
 10
8.0497
 20
31.2268
 30
0.0
 10
8.0497
 20
31.2268
 30
0.0
 10
7.5441
 20
30.5377
 30
0.0
 10
7.5441
 20
30.5377
 30
0.0
 10
7.5441
 20
30.5377
 30
0.0
 10
7.5441
 20
30.5377
 30
0.0
 10
8.0883
 20
29.7635
 30
0.0
 10
8.0883
 20
29.7635
 30
0.0
 10
8.0883
 20
29.7635
 30
0.0
 10
8.0883
 20
29.7635
 30
0.0
 10
7.784
 20
29.7635
 30
0.0
 10
7.784
 20
29.7635
 30
0.0
 10
7.784
 20
29.7635
 30
0.0
 10
7.784
 20
29.7635
 30
0.0
 10
7.4834
 20
30.2183
 30
0.0
 10
7.4834
 20
30.2183
 30
0.0
 10
7.4834
 20
30.2183
 30
0.0
 10
7.4834
 20
30.2183
 30
0.0
 10
7.4035
 20
30.3411
 30
0.0
 10
7.4035
 20
30.3411
 30
0.0
 10
7.4035
 20
30.3411
 30
0.0
 10
7.4035
 20
30.3411
 30
0.0
 10
7.0192
 20
29.7635
 30
0.0
 10
7.0192
 20
29.7635
 30
0.0
 10
7.0192
 20
29.7635
 30
0.0
 10
7.0192
 20
29.7635
 30
0.0
 10
6.7186
 20
29.7635
 30
0.0
 10
6.7186
 20
29.7635
 30
0.0
  0
SPLINE
  5
4B
330
1F
100
AcDbEntity
  8
ROUND
 62
   250
100
AcDbSpline
210
0.0
220
0.0
230
1.0
 70
    11
 71
     3
 72
   124
 73
   120
 74
     0
 42
0.0000000001
 43
0.0000000001
 40
0.0
 40
0.0
 40
0.0
 40
0.0
 40
0.032258064516129
 40
0.032258064516129
 40
0.032258064516129
 40
0.032258064516129
 40
0.0645161290322581
 40
0.0645161290322581
 40
0.0645161290322581
 40
0.0645161290322581
 40
0.0967741935483871
 40
0.0967741935483871
 40
0.0967741935483871
 40
0.0967741935483871
 40
0.1290322580645161
 40
0.1290322580645161
 40
0.1290322580645161
 40
0.1290322580645161
 40
0.1612903225806452
 40
0.1612903225806452
 40
0.1612903225806452
 40
0.1612903225806452
 40
0.1935483870967742
 40
0.1935483870967742
 40
0.1935483870967742
 40
0.1935483870967742
 40
0.2258064516129032
 40
0.2258064516129032
 40
0.2258064516129032
 40
0.2258064516129032
 40
0.2580645161290323
 40
0.2580645161290323
 40
0.2580645161290323
 40
0.2580645161290323
 40
0.2903225806451613
 40
0.2903225806451613
 40
0.2903225806451613
 40
0.2903225806451613
 40
0.3225806451612903
 40
0.3225806451612903
 40
0.3225806451612903
 40
0.3225806451612903
 40
0.3548387096774194
 40
0.3548387096774194
 40
0.3548387096774194
 40
0.3548387096774194
 40
0.3870967741935484
 40
0.3870967741935484
 40
0.3870967741935484
 40
0.3870967741935484
 40
0.4193548387096774
 40
0.4193548387096774
 40
0.4193548387096774
 40
0.4193548387096774
 40
0.4516129032258064
 40
0.4516129032258064
 40
0.4516129032258064
 40
0.4516129032258064
 40
0.4838709677419355
 40
0.4838709677419355
 40
0.4838709677419355
 40
0.4838709677419355
 40
0.5161290322580645
 40
0.5161290322580645
 40
0.5161290322580645
 40
0.5161290322580645
 40
0.5483870967741935
 40
0.5483870967741935
 40
0.5483870967741935
 40
0.5483870967741935
 40
0.5806451612903226
 40
0.5806451612903226
 40
0.5806451612903226
 40
0.5806451612903226
 40
0.6129032258064516
 40
0.6129032258064516
 40
0.6129032258064516
 40
0.6129032258064516
 40
0.6451612903225806
 40
0.6451612903225806
 40
0.6451612903225806
 40
0.6451612903225806
 40
0.6774193548387096
 40
0.6774193548387096
 40
0.6774193548387096
 40
0.6774193548387096
 40
0.7096774193548387
 40
0.7096774193548387
 40
0.7096774193548387
 40
0.7096774193548387
 40
0.7419354838709677
 40
0.7419354838709677
 40
0.7419354838709677
 40
0.7419354838709677
 40
0.7741935483870968
 40
0.7741935483870968
 40
0.7741935483870968
 40
0.7741935483870968
 40
0.8064516129032258
 40
0.8064516129032258
 40
0.8064516129032258
 40
0.8064516129032258
 40
0.8387096774193549
 40
0.8387096774193549
 40
0.8387096774193549
 40
0.8387096774193549
 40
0.8709677419354839
 40
0.8709677419354839
 40
0.8709677419354839
 40
0.8709677419354839
 40
0.9032258064516129
 40
0.9032258064516129
 40
0.9032258064516129
 40
0.9032258064516129
 40
0.9354838709677419
 40
0.9354838709677419
 40
0.9354838709677419
 40
0.9354838709677419
 40
1.0
 40
1.0
 40
1.0
 40
1.0
 10
9.0116
 20
30.2969
 30
0.0
 10
9.0116
 20
30.2969
 30
0.0
 10
9.2595
 20
30.3298
 30
0.0
 10
9.2595
 20
30.3298
 30
0.0
 10
9.2595
 20
30.3298
 30
0.0
 10
9.2882
 20
30.1892
 30
0.0
 10
9.3367
 20
30.0881
 30
0.0
 10
9.4049
 20
30.026
 30
0.0
 10
9.4049
 20
30.026
 30
0.0
 10
9.4735
 20
29.9639
 30
0.0
 10
9.5568
 20
29.9328
 30
0.0
 10
9.6551
 20
29.9328
 30
0.0
 10
9.6551
 20
29.9328
 30
0.0
 10
9.7717
 20
29.9328
 30
0.0
 10
9.8705
 20
29.9733
 30
0.0
 10
9.951
 20
30.0542
 30
0.0
 10
9.951
 20
30.0542
 30
0.0
 10
10.0309
 20
30.1351
 30
0.0
 10
10.0714
 20
30.2353
 30
0.0
 10
10.0714
 20
30.3548
 30
0.0
 10
10.0714
 20
30.3548
 30
0.0
 10
10.0714
 20
30.4686
 30
0.0
 10
10.0342
 20
30.5627
 30
0.0
 10
9.9599
 20
30.6365
 30
0.0
 10
9.9599
 20
30.6365
 30
0.0
 10
9.8851
 20
30.7103
 30
0.0
 10
9.7906
 20
30.7475
 30
0.0
 10
9.6758
 20
30.7475
 30
0.0
 10
9.6758
 20
30.7475
 30
0.0
 10
9.6288
 20
30.7475
 30
0.0
 10
9.5704
 20
30.7381
 30
0.0
 10
9.5008
 20
30.7198
 30
0.0
 10
9.5008
 20
30.7198
 30
0.0
 10
9.5008
 20
30.7198
 30
0.0
 10
9.5286
 20
30.9375
 30
0.0
 10
9.5286
 20
30.9375
 30
0.0
 10
9.5286
 20
30.9375
 30
0.0
 10
9.545
 20
30.9357
 30
0.0
 10
9.5582
 20
30.9347
 30
0.0
 10
9.5685
 20
30.9347
 30
0.0
 10
9.5685
 20
30.9347
 30
0.0
 10
9.6739
 20
30.9347
 30
0.0
 10
9.7689
 20
30.9625
 30
0.0
 10
9.8536
 20
31.0175
 30
0.0
 10
9.8536
 20
31.0175
 30
0.0
 10
9.9383
 20
31.0725
 30
0.0
 10
9.9806
 20
31.1577
 30
0.0
 10
9.9806
 20
31.2724
 30
0.0
 10
9.9806
 20
31.2724
 30
0.0
 10
9.9806
 20
31.3632
 30
0.0
 10
9.9495
 20
31.4389
 30
0.0
 10
9.8879
 20
31.4982
 30
0.0
 10
9.8879
 20
31.4982
 30
0.0
 10
9.8263
 20
31.5579
 30
0.0
 10
9.7468
 20
31.5881
 30
0.0
 10
9.6494
 20
31.5881
 30
0.0
 10
9.6494
 20
31.5881
 30
0.0
 10
9.553
 20
31.5881
 30
0.0
 10
9.4726
 20
31.5575
 30
0.0
 10
9.4086
 20
31.4973
 30
0.0
 10
9.4086
 20
31.4973
 30
0.0
 10
9.3442
 20
31.4366
 30
0.0
 10
9.3028
 20
31.3453
 30
0.0
 10
9.2844
 20
31.224
 30
0.0
 10
9.2844
 20
31.224
 30
0.0
 10
9.2844
 20
31.224
 30
0.0
 10
9.0366
 20
31.2682
 30
0.0
 10
9.0366
 20
31.2682
 30
0.0
 10
9.0366
 20
31.2682
 30
0.0
 10
9.0667
 20
31.4347
 30
0.0
 10
9.1358
 20
31.5636
 30
0.0
 10
9.2431
 20
31.6548
 30
0.0
 10
9.2431
 20
31.6548
 30
0.0
 10
9.3508
 20
31.7461
 30
0.0
 10
9.4844
 20
31.7922
 30
0.0
 10
9.6443
 20
31.7922
 30
0.0
 10
9.6443
 20
31.7922
 30
0.0
 10
9.7543
 20
31.7922
 30
0.0
 10
9.8559
 20
31.7682
 30
0.0
 10
9.9486
 20
31.7212
 30
0.0
 10
9.9486
 20
31.7212
 30
0.0
 10
10.0413
 20
31.6737
 30
0.0
 10
10.1123
 20
31.6092
 30
0.0
 10
10.1617
 20
31.5274
 30
0.0
 10
10.1617
 20
31.5274
 30
0.0
 10
10.2106
 20
31.4455
 30
0.0
 10
10.2355
 20
31.359
 30
0.0
 10
10.2355
 20
31.2668
 30
0.0
 10
10.2355
 20
31.2668
 30
0.0
 10
10.2355
 20
31.1798
 30
0.0
 10
10.212
 20
31.1003
 30
0.0
 10
10.165
 20
31.0283
 30
0.0
 10
10.165
 20
31.0283
 30
0.0
 10
10.1179
 20
30.9568
 30
0.0
 10
10.0488
 20
30.8999
 30
0.0
 10
9.9571
 20
30.8576
 30
0.0
 10
9.9571
 20
30.8576
 30
0.0
 10
10.0765
 20
30.8303
 30
0.0
 10
10.1692
 20
30.7729
 30
0.0
 10
10.2355
 20
30.6859
 30
0.0
 10
10.2355
 20
30.6859
 30
0.0
 10
10.3014
 20
30.5993
 30
0.0
 10
10.3343
 20
30.4907
 30
0.0
 10
10.3343
 20
30.3604
 30
0.0
 10
10.3343
 20
30.3604
 30
0.0
 10
10.3343
 20
30.184
 30
0.0
 10
10.2703
 20
30.0344
 30
0.0
 10
10.1415
 20
29.9117
 30
0.0
 10
10.1415
 20
29.9117
 30
0.0
 10
10.013
 20
29.7889
 30
0.0
 10
9.8503
 20
29.7278
 30
0.0
 10
9.6537
 20
29.7278
 30
0.0
 10
9.6537
 20
29.7278
 30
0.0
 10
9.4764
 20
29.7278
 30
0.0
 10
9.3291
 20
29.7804
 30
0.0
 10
9.212
 20
29.8863
 30
0.0
 10
9.212
 20
29.8863
 30
0.0
 10
9.0949
 20
29.9916
 30
0.0
 10
9.0281
 20
30.1285
 30
0.0
 10
9.0116
 20
30.2969
 30
0.0
  0
SPLINE
  5
4C
330
1F
100
AcDbEntity
  8
ROUND
 62
   250
100
AcDbSpline
210
0.0
220
0.0
230
1.0
 70
    11
 71
     3
 72
    80
 73
    76
 74
     0
 42
0.0000000001
 43
0.0000000001
 40
0.0
 40
0.0
 40
0.0
 40
0.0
 40
0.05
 40
0.05
 40
0.05
 40
0.05
 40
0.1
 40
0.1
 40
0.1
 40
0.1
 40
0.15
 40
0.15
 40
0.15
 40
0.15
 40
0.2
 40
0.2
 40
0.2
 40
0.2
 40
0.25
 40
0.25
 40
0.25
 40
0.25
 40
0.3
 40
0.3
 40
0.3
 40
0.3
 40
0.35
 40
0.35
 40
0.35
 40
0.35
 40
0.4
 40
0.4
 40
0.4
 40
0.4
 40
0.45
 40
0.45
 40
0.45
 40
0.45
 40
0.5
 40
0.5
 40
0.5
 40
0.5
 40
0.55
 40
0.55
 40
0.55
 40
0.55
 40
0.6
 40
0.6
 40
0.6
 40
0.6
 40
0.65
 40
0.65
 40
0.65
 40
0.65
 40
0.7
 40
0.7
 40
0.7
 40
0.7
 40
0.75
 40
0.75
 40
0.75
 40
0.75
 40
0.8
 40
0.8
 40
0.8
 40
0.8
 40
0.85
 40
0.85
 40
0.85
 40
0.85
 40
0.9
 40
0.9
 40
0.9
 40
0.9
 40
1.0
 40
1.0
 40
1.0
 40
1.0
 10
11.8667
 20
31.2889
 30
0.0
 10
11.8667
 20
31.2889
 30
0.0
 10
11.6203
 20
31.2696
 30
0.0
 10
11.6203
 20
31.2696
 30
0.0
 10
11.6203
 20
31.2696
 30
0.0
 10
11.5982
 20
31.367
 30
0.0
 10
11.5671
 20
31.438
 30
0.0
 10
11.5267
 20
31.4817
 30
0.0
 10
11.5267
 20
31.4817
 30
0.0
 10
11.4594
 20
31.5528
 30
0.0
 10
11.3766
 20
31.5881
 30
0.0
 10
11.2783
 20
31.5881
 30
0.0
 10
11.2783
 20
31.5881
 30
0.0
 10
11.1993
 20
31.5881
 30
0.0
 10
11.1302
 20
31.5659
 30
0.0
 10
11.0704
 20
31.5217
 30
0.0
 10
11.0704
 20
31.5217
 30
0.0
 10
10.9923
 20
31.4648
 30
0.0
 10
10.9307
 20
31.3816
 30
0.0
 10
10.8856
 20
31.2724
 30
0.0
 10
10.8856
 20
31.2724
 30
0.0
 10
10.8409
 20
31.1633
 30
0.0
 10
10.8174
 20
31.0076
 30
0.0
 10
10.8155
 20
30.8054
 30
0.0
 10
10.8155
 20
30.8054
 30
0.0
 10
10.8752
 20
30.8961
 30
0.0
 10
10.9481
 20
30.9639
 30
0.0
 10
11.0347
 20
31.0081
 30
0.0
 10
11.0347
 20
31.0081
 30
0.0
 10
11.1207
 20
31.0518
 30
0.0
 10
11.2115
 20
31.0739
 30
0.0
 10
11.3061
 20
31.0739
 30
0.0
 10
11.3061
 20
31.0739
 30
0.0
 10
11.4716
 20
31.0739
 30
0.0
 10
11.6123
 20
31.0133
 30
0.0
 10
11.7285
 20
30.8914
 30
0.0
 10
11.7285
 20
30.8914
 30
0.0
 10
11.8446
 20
30.7696
 30
0.0
 10
11.903
 20
30.6125
 30
0.0
 10
11.903
 20
30.4197
 30
0.0
 10
11.903
 20
30.4197
 30
0.0
 10
11.903
 20
30.2927
 30
0.0
 10
11.8752
 20
30.1751
 30
0.0
 10
11.8206
 20
30.0659
 30
0.0
 10
11.8206
 20
30.0659
 30
0.0
 10
11.7661
 20
29.9573
 30
0.0
 10
11.6908
 20
29.8736
 30
0.0
 10
11.5953
 20
29.8157
 30
0.0
 10
11.5953
 20
29.8157
 30
0.0
 10
11.4999
 20
29.7579
 30
0.0
 10
11.3917
 20
29.7292
 30
0.0
 10
11.2703
 20
29.7292
 30
0.0
 10
11.2703
 20
29.7292
 30
0.0
 10
11.0634
 20
29.7292
 30
0.0
 10
10.895
 20
29.8049
 30
0.0
 10
10.7647
 20
29.9573
 30
0.0
 10
10.7647
 20
29.9573
 30
0.0
 10
10.6339
 20
30.1092
 30
0.0
 10
10.569
 20
30.3599
 30
0.0
 10
10.569
 20
30.7089
 30
0.0
 10
10.569
 20
30.7089
 30
0.0
 10
10.569
 20
31.0993
 30
0.0
 10
10.641
 20
31.383
 30
0.0
 10
10.7854
 20
31.5603
 30
0.0
 10
10.7854
 20
31.5603
 30
0.0
 10
10.911
 20
31.7146
 30
0.0
 10
11.0803
 20
31.7922
 30
0.0
 10
11.2938
 20
31.7922
 30
0.0
 10
11.2938
 20
31.7922
 30
0.0
 10
11.4524
 20
31.7922
 30
0.0
 10
11.5826
 20
31.7475
 30
0.0
 10
11.6842
 20
31.6581
 30
0.0
 10
11.6842
 20
31.6581
 30
0.0
 10
11.7858
 20
31.5692
 30
0.0
 10
11.8465
 20
31.446
 30
0.0
 10
11.8667
 20
31.2889
 30
0.0
  0
SPLINE
  5
4D
330
1F
100
AcDbEntity
  8
ROUND
 62
   250
100
AcDbSpline
210
0.0
220
0.0
230
1.0
 70
    11
 71
     3
 72
    40
 73
    36
 74
     0
 42
0.0000000001
 43
0.0000000001
 40
0.0
 40
0.0
 40
0.0
 40
0.0
 40
0.1
 40
0.1
 40
0.1
 40
0.1
 40
0.2
 40
0.2
 40
0.2
 40
0.2
 40
0.3
 40
0.3
 40
0.3
 40
0.3
 40
0.4
 40
0.4
 40
0.4
 40
0.4
 40
0.5
 40
0.5
 40
0.5
 40
0.5
 40
0.6
 40
0.6
 40
0.6
 40
0.6
 40
0.7
 40
0.7
 40
0.7
 40
0.7
 40
0.8
 40
0.8
 40
0.8
 40
0.8
 40
1.0
 40
1.0
 40
1.0
 40
1.0
 10
10.854
 20
30.4183
 30
0.0
 10
10.854
 20
30.3326
 30
0.0
 10
10.8724
 20
30.2508
 30
0.0
 10
10.9086
 20
30.1727
 30
0.0
 10
10.9086
 20
30.1727
 30
0.0
 10
10.9448
 20
30.0946
 30
0.0
 10
10.9956
 20
30.0354
 30
0.0
 10
11.0605
 20
29.9945
 30
0.0
 10
11.0605
 20
29.9945
 30
0.0
 10
11.1259
 20
29.9535
 30
0.0
 10
11.1946
 20
29.9328
 30
0.0
 10
11.2661
 20
29.9328
 30
0.0
 10
11.2661
 20
29.9328
 30
0.0
 10
11.371
 20
29.9328
 30
0.0
 10
11.4608
 20
29.9752
 30
0.0
 10
11.5361
 20
30.0598
 30
0.0
 10
11.5361
 20
30.0598
 30
0.0
 10
11.6113
 20
30.1445
 30
0.0
 10
11.649
 20
30.2593
 30
0.0
 10
11.649
 20
30.4041
 30
0.0
 10
11.649
 20
30.4041
 30
0.0
 10
11.649
 20
30.5438
 30
0.0
 10
11.6118
 20
30.6539
 30
0.0
 10
11.5375
 20
30.7343
 30
0.0
 10
11.5375
 20
30.7343
 30
0.0
 10
11.4632
 20
30.8148
 30
0.0
 10
11.3696
 20
30.8548
 30
0.0
 10
11.2567
 20
30.8548
 30
0.0
 10
11.2567
 20
30.8548
 30
0.0
 10
11.1443
 20
30.8548
 30
0.0
 10
11.0492
 20
30.8148
 30
0.0
 10
10.9712
 20
30.7343
 30
0.0
 10
10.9712
 20
30.7343
 30
0.0
 10
10.8931
 20
30.6539
 30
0.0
 10
10.854
 20
30.5485
 30
0.0
 10
10.854
 20
30.4183
 30
0.0
  0
SPLINE
  5
4E
330
1F
100
AcDbEntity
  8
ROUND
 62
   250
100
AcDbSpline
210
0.0
220
0.0
230
1.0
 70
    11
 71
     3
 72
    52
 73
    48
 74
     0
 42
0.0000000001
 43
0.0000000001
 40
0.0
 40
0.0
 40
0.0
 40
0.0
 40
0.0769230769230769
 40
0.0769230769230769
 40
0.0769230769230769
 40
0.0769230769230769
 40
0.1538461538461539
 40
0.1538461538461539
 40
0.1538461538461539
 40
0.1538461538461539
 40
0.2307692307692308
 40
0.2307692307692308
 40
0.2307692307692308
 40
0.2307692307692308
 40
0.3076923076923077
 40
0.3076923076923077
 40
0.3076923076923077
 40
0.3076923076923077
 40
0.3846153846153846
 40
0.3846153846153846
 40
0.3846153846153846
 40
0.3846153846153846
 40
0.4615384615384616
 40
0.4615384615384616
 40
0.4615384615384616
 40
0.4615384615384616
 40
0.5384615384615384
 40
0.5384615384615384
 40
0.5384615384615384
 40
0.5384615384615384
 40
0.6153846153846154
 40
0.6153846153846154
 40
0.6153846153846154
 40
0.6153846153846154
 40
0.6923076923076923
 40
0.6923076923076923
 40
0.6923076923076923
 40
0.6923076923076923
 40
0.7692307692307693
 40
0.7692307692307693
 40
0.7692307692307693
 40
0.7692307692307693
 40
0.8461538461538461
 40
0.8461538461538461
 40
0.8461538461538461
 40
0.8461538461538461
 40
1.0
 40
1.0
 40
1.0
 40
1.0
 10
12.1494
 20
30.7597
 30
0.0
 10
12.1494
 20
30.9987
 30
0.0
 10
12.1739
 20
31.1911
 30
0.0
 10
12.2233
 20
31.3364
 30
0.0
 10
12.2233
 20
31.3364
 30
0.0
 10
12.2722
 20
31.4822
 30
0.0
 10
12.3456
 20
31.5946
 30
0.0
 10
12.4425
 20
31.6737
 30
0.0
 10
12.4425
 20
31.6737
 30
0.0
 10
12.5394
 20
31.7527
 30
0.0
 10
12.6612
 20
31.7922
 30
0.0
 10
12.8079
 20
31.7922
 30
0.0
 10
12.8079
 20
31.7922
 30
0.0
 10
12.9166
 20
31.7922
 30
0.0
 10
13.0116
 20
31.7701
 30
0.0
 10
13.0934
 20
31.7263
 30
0.0
 10
13.0934
 20
31.7263
 30
0.0
 10
13.1753
 20
31.6831
 30
0.0
 10
13.2426
 20
31.62
 30
0.0
 10
13.2962
 20
31.5377
 30
0.0
 10
13.2962
 20
31.5377
 30
0.0
 10
13.3493
 20
31.4554
 30
0.0
 10
13.3912
 20
31.3552
 30
0.0
 10
13.4213
 20
31.2372
 30
0.0
 10
13.4213
 20
31.2372
 30
0.0
 10
13.4519
 20
31.1191
 30
0.0
 10
13.4669
 20
30.9601
 30
0.0
 10
13.4669
 20
30.7597
 30
0.0
 10
13.4669
 20
30.7597
 30
0.0
 10
13.4669
 20
30.5227
 30
0.0
 10
13.4425
 20
30.3317
 30
0.0
 10
13.394
 20
30.1859
 30
0.0
 10
13.394
 20
30.1859
 30
0.0
 10
13.3451
 20
30.0401
 30
0.0
 10
13.2722
 20
29.9277
 30
0.0
 10
13.1753
 20
29.8482
 30
0.0
 10
13.1753
 20
29.8482
 30
0.0
 10
13.0784
 20
29.7687
 30
0.0
 10
12.9561
 20
29.7292
 30
0.0
 10
12.8079
 20
29.7292
 30
0.0
 10
12.8079
 20
29.7292
 30
0.0
 10
12.6132
 20
29.7292
 30
0.0
 10
12.4603
 20
29.7988
 30
0.0
 10
12.3493
 20
29.9385
 30
0.0
 10
12.3493
 20
29.9385
 30
0.0
 10
12.2162
 20
30.1064
 30
0.0
 10
12.1494
 20
30.3806
 30
0.0
 10
12.1494
 20
30.7597
 30
0.0
  0
SPLINE
  5
4F
330
1F
100
AcDbEntity
  8
ROUND
 62
   250
100
AcDbSpline
210
0.0
220
0.0
230
1.0
 70
    11
 71
     3
 72
    36
 73
    32
 74
     0
 42
0.0000000001
 43
0.0000000001
 40
0.0
 40
0.0
 40
0.0
 40
0.0
 40
0.1111111111111111
 40
0.1111111111111111
 40
0.1111111111111111
 40
0.1111111111111111
 40
0.2222222222222222
 40
0.2222222222222222
 40
0.2222222222222222
 40
0.2222222222222222
 40
0.3333333333333333
 40
0.3333333333333333
 40
0.3333333333333333
 40
0.3333333333333333
 40
0.4444444444444444
 40
0.4444444444444444
 40
0.4444444444444444
 40
0.4444444444444444
 40
0.5555555555555556
 40
0.5555555555555556
 40
0.5555555555555556
 40
0.5555555555555556
 40
0.6666666666666666
 40
0.6666666666666666
 40
0.6666666666666666
 40
0.6666666666666666
 40
0.7777777777777778
 40
0.7777777777777778
 40
0.7777777777777778
 40
0.7777777777777778
 40
1.0
 40
1.0
 40
1.0
 40
1.0
 10
12.4044
 20
30.7597
 30
0.0
 10
12.4044
 20
30.4281
 30
0.0
 10
12.4434
 20
30.2075
 30
0.0
 10
12.521
 20
30.0975
 30
0.0
 10
12.521
 20
30.0975
 30
0.0
 10
12.5986
 20
29.9879
 30
0.0
 10
12.6941
 20
29.9328
 30
0.0
 10
12.8079
 20
29.9328
 30
0.0
 10
12.8079
 20
29.9328
 30
0.0
 10
12.9222
 20
29.9328
 30
0.0
 10
13.0177
 20
29.9883
 30
0.0
 10
13.0953
 20
30.0984
 30
0.0
 10
13.0953
 20
30.0984
 30
0.0
 10
13.1729
 20
30.2085
 30
0.0
 10
13.212
 20
30.4291
 30
0.0
 10
13.212
 20
30.7597
 30
0.0
 10
13.212
 20
30.7597
 30
0.0
 10
13.212
 20
31.0923
 30
0.0
 10
13.1729
 20
31.3134
 30
0.0
 10
13.0953
 20
31.4225
 30
0.0
 10
13.0953
 20
31.4225
 30
0.0
 10
13.0177
 20
31.5321
 30
0.0
 10
12.9213
 20
31.5866
 30
0.0
 10
12.8056
 20
31.5866
 30
0.0
 10
12.8056
 20
31.5866
 30
0.0
 10
12.6913
 20
31.5866
 30
0.0
 10
12.6005
 20
31.5382
 30
0.0
 10
12.5323
 20
31.4418
 30
0.0
 10
12.5323
 20
31.4418
 30
0.0
 10
12.4472
 20
31.319
 30
0.0
 10
12.4044
 20
31.0913
 30
0.0
 10
12.4044
 20
30.7597
 30
0.0
  0
SPLINE
  5
50
330
1F
100
AcDbEntity
  8
ROUND
 62
   250
100
AcDbSpline
210
0.0
220
0.0
230
1.0
 70
    11
 71
     3
 72
    92
 73
    88
 74
     0
 42
0.0000000001
 43
0.0000000001
 40
0.0
 40
0.0
 40
0.0
 40
0.0
 40
0.0434782608695652
 40
0.0434782608695652
 40
0.0434782608695652
 40
0.0434782608695652
 40
0.0869565217391304
 40
0.0869565217391304
 40
0.0869565217391304
 40
0.0869565217391304
 40
0.1304347826086956
 40
0.1304347826086956
 40
0.1304347826086956
 40
0.1304347826086956
 40
0.1739130434782609
 40
0.1739130434782609
 40
0.1739130434782609
 40
0.1739130434782609
 40
0.2173913043478261
 40
0.2173913043478261
 40
0.2173913043478261
 40
0.2173913043478261
 40
0.2608695652173913
 40
0.2608695652173913
 40
0.2608695652173913
 40
0.2608695652173913
 40
0.3043478260869565
 40
0.3043478260869565
 40
0.3043478260869565
 40
0.3043478260869565
 40
0.3478260869565217
 40
0.3478260869565217
 40
0.3478260869565217
 40
0.3478260869565217
 40
0.391304347826087
 40
0.391304347826087
 40
0.391304347826087
 40
0.391304347826087
 40
0.4347826086956522
 40
0.4347826086956522
 40
0.4347826086956522
 40
0.4347826086956522
 40
0.4782608695652174
 40
0.4782608695652174
 40
0.4782608695652174
 40
0.4782608695652174
 40
0.5217391304347826
 40
0.5217391304347826
 40
0.5217391304347826
 40
0.5217391304347826
 40
0.5652173913043478
 40
0.5652173913043478
 40
0.5652173913043478
 40
0.5652173913043478
 40
0.6086956521739131
 40
0.6086956521739131
 40
0.6086956521739131
 40
0.6086956521739131
 40
0.6521739130434783
 40
0.6521739130434783
 40
0.6521739130434783
 40
0.6521739130434783
 40
0.6956521739130435
 40
0.6956521739130435
 40
0.6956521739130435
 40
0.6956521739130435
 40
0.7391304347826086
 40
0.7391304347826086
 40
0.7391304347826086
 40
0.7391304347826086
 40
0.782608695652174
 40
0.782608695652174
 40
0.782608695652174
 40
0.782608695652174
 40
0.8260869565217391
 40
0.8260869565217391
 40
0.8260869565217391
 40
0.8260869565217391
 40
0.8695652173913043
 40
0.8695652173913043
 40
0.8695652173913043
 40
0.8695652173913043
 40
0.9130434782608695
 40
0.9130434782608695
 40
0.9130434782608695
 40
0.9130434782608695
 40
1.0
 40
1.0
 40
1.0
 40
1.0
 10
-43.454
 20
8.7543
 30
0.0
 10
-43.454
 20
8.7543
 30
0.0
 10
-43.4761
 20
9.0149
 30
0.0
 10
-43.4761
 20
9.0149
 30
0.0
 10
-43.4761
 20
9.0149
 30
0.0
 10
-43.3491
 20
9.0342
 30
0.0
 10
-43.2541
 20
9.0789
 30
0.0
 10
-43.1901
 20
9.149
 30
0.0
 10
-43.1901
 20
9.149
 30
0.0
 10
-43.1261
 20
9.2195
 30
0.0
 10
-43.0941
 20
9.3042
 30
0.0
 10
-43.0941
 20
9.4034
 30
0.0
 10
-43.0941
 20
9.4034
 30
0.0
 10
-43.0941
 20
9.5229
 30
0.0
 10
-43.1393
 20
9.624
 30
0.0
 10
-43.2291
 20
9.7063
 30
0.0
 10
-43.2291
 20
9.7063
 30
0.0
 10
-43.3194
 20
9.7891
 30
0.0
 10
-43.4389
 20
9.8305
 30
0.0
 10
-43.5875
 20
9.8305
 30
0.0
 10
-43.5875
 20
9.8305
 30
0.0
 10
-43.7291
 20
9.8305
 30
0.0
 10
-43.8406
 20
9.791
 30
0.0
 10
-43.9224
 20
9.7115
 30
0.0
 10
-43.9224
 20
9.7115
 30
0.0
 10
-44.0043
 20
9.632
 30
0.0
 10
-44.0452
 20
9.5281
 30
0.0
 10
-44.0452
 20
9.3992
 30
0.0
 10
-44.0452
 20
9.3992
 30
0.0
 10
-44.0452
 20
9.3192
 30
0.0
 10
-44.0269
 20
9.2473
 30
0.0
 10
-43.9907
 20
9.1828
 30
0.0
 10
-43.9907
 20
9.1828
 30
0.0
 10
-43.9544
 20
9.1184
 30
0.0
 10
-43.9074
 20
9.0681
 30
0.0
 10
-43.8495
 20
9.0314
 30
0.0
 10
-43.8495
 20
9.0314
 30
0.0
 10
-43.8495
 20
9.0314
 30
0.0
 10
-43.8796
 20
8.7985
 30
0.0
 10
-43.8796
 20
8.7985
 30
0.0
 10
-43.8796
 20
8.7985
 30
0.0
 10
-43.8796
 20
8.7985
 30
0.0
 10
-44.9173
 20
8.9942
 30
0.0
 10
-44.9173
 20
8.9942
 30
0.0
 10
-44.9173
 20
8.9942
 30
0.0
 10
-44.9173
 20
8.9942
 30
0.0
 10
-44.9173
 20
9.9989
 30
0.0
 10
-44.9173
 20
9.9989
 30
0.0
 10
-44.9173
 20
9.9989
 30
0.0
 10
-44.9173
 20
9.9989
 30
0.0
 10
-44.6802
 20
9.9989
 30
0.0
 10
-44.6802
 20
9.9989
 30
0.0
 10
-44.6802
 20
9.9989
 30
0.0
 10
-44.6802
 20
9.9989
 30
0.0
 10
-44.6802
 20
9.1927
 30
0.0
 10
-44.6802
 20
9.1927
 30
0.0
 10
-44.6802
 20
9.1927
 30
0.0
 10
-44.6802
 20
9.1927
 30
0.0
 10
-44.1374
 20
9.0836
 30
0.0
 10
-44.1374
 20
9.0836
 30
0.0
 10
-44.1374
 20
9.0836
 30
0.0
 10
-44.2221
 20
9.2049
 30
0.0
 10
-44.2644
 20
9.3324
 30
0.0
 10
-44.2644
 20
9.4655
 30
0.0
 10
-44.2644
 20
9.4655
 30
0.0
 10
-44.2644
 20
9.6419
 30
0.0
 10
-44.2033
 20
9.7905
 30
0.0
 10
-44.081
 20
9.9119
 30
0.0
 10
-44.081
 20
9.9119
 30
0.0
 10
-43.9587
 20
10.0332
 30
0.0
 10
-43.8016
 20
10.0939
 30
0.0
 10
-43.6097
 20
10.0939
 30
0.0
 10
-43.6097
 20
10.0939
 30
0.0
 10
-43.4267
 20
10.0939
 30
0.0
 10
-43.2686
 20
10.0403
 30
0.0
 10
-43.1355
 20
9.934
 30
0.0
 10
-43.1355
 20
9.934
 30
0.0
 10
-42.9723
 20
9.8042
 30
0.0
 10
-42.8905
 20
9.6273
 30
0.0
 10
-42.8905
 20
9.4034
 30
0.0
 10
-42.8905
 20
9.4034
 30
0.0
 10
-42.8905
 20
9.2195
 30
0.0
 10
-42.9417
 20
9.0695
 30
0.0
 10
-43.0447
 20
8.9533
 30
0.0
 10
-43.0447
 20
8.9533
 30
0.0
 10
-43.1478
 20
8.8371
 30
0.0
 10
-43.2842
 20
8.7708
 30
0.0
 10
-43.454
 20
8.7543
 30
0.0
  0
SPLINE
  5
51
330
1F
100
AcDbEntity
  8
ROUND
 62
   250
100
AcDbSpline
210
0.0
220
0.0
230
1.0
 70
    11
 71
     3
 72
    52
 73
    48
 74
     0
 42
0.0000000001
 43
0.0000000001
 40
0.0
 40
0.0
 40
0.0
 40
0.0
 40
0.0769230769230769
 40
0.0769230769230769
 40
0.0769230769230769
 40
0.0769230769230769
 40
0.1538461538461539
 40
0.1538461538461539
 40
0.1538461538461539
 40
0.1538461538461539
 40
0.2307692307692308
 40
0.2307692307692308
 40
0.2307692307692308
 40
0.2307692307692308
 40
0.3076923076923077
 40
0.3076923076923077
 40
0.3076923076923077
 40
0.3076923076923077
 40
0.3846153846153846
 40
0.3846153846153846
 40
0.3846153846153846
 40
0.3846153846153846
 40
0.4615384615384616
 40
0.4615384615384616
 40
0.4615384615384616
 40
0.4615384615384616
 40
0.5384615384615384
 40
0.5384615384615384
 40
0.5384615384615384
 40
0.5384615384615384
 40
0.6153846153846154
 40
0.6153846153846154
 40
0.6153846153846154
 40
0.6153846153846154
 40
0.6923076923076923
 40
0.6923076923076923
 40
0.6923076923076923
 40
0.6923076923076923
 40
0.7692307692307693
 40
0.7692307692307693
 40
0.7692307692307693
 40
0.7692307692307693
 40
0.8461538461538461
 40
0.8461538461538461
 40
0.8461538461538461
 40
0.8461538461538461
 40
1.0
 40
1.0
 40
1.0
 40
1.0
 10
-43.921
 20
10.3239
 30
0.0
 10
-44.16
 20
10.3239
 30
0.0
 10
-44.3524
 20
10.3484
 30
0.0
 10
-44.4977
 20
10.3978
 30
0.0
 10
-44.4977
 20
10.3978
 30
0.0
 10
-44.6435
 20
10.4467
 30
0.0
 10
-44.7559
 20
10.5201
 30
0.0
 10
-44.835
 20
10.617
 30
0.0
 10
-44.835
 20
10.617
 30
0.0
 10
-44.914
 20
10.7139
 30
0.0
 10
-44.9535
 20
10.8357
 30
0.0
 10
-44.9535
 20
10.9824
 30
0.0
 10
-44.9535
 20
10.9824
 30
0.0
 10
-44.9535
 20
11.0911
 30
0.0
 10
-44.9314
 20
11.1861
 30
0.0
 10
-44.8876
 20
11.2679
 30
0.0
 10
-44.8876
 20
11.2679
 30
0.0
 10
-44.8444
 20
11.3498
 30
0.0
 10
-44.7813
 20
11.4171
 30
0.0
 10
-44.699
 20
11.4707
 30
0.0
 10
-44.699
 20
11.4707
 30
0.0
 10
-44.6167
 20
11.5238
 30
0.0
 10
-44.5165
 20
11.5657
 30
0.0
 10
-44.3985
 20
11.5958
 30
0.0
 10
-44.3985
 20
11.5958
 30
0.0
 10
-44.2804
 20
11.6264
 30
0.0
 10
-44.1214
 20
11.6414
 30
0.0
 10
-43.921
 20
11.6414
 30
0.0
 10
-43.921
 20
11.6414
 30
0.0
 10
-43.684
 20
11.6414
 30
0.0
 10
-43.493
 20
11.617
 30
0.0
 10
-43.3472
 20
11.5685
 30
0.0
 10
-43.3472
 20
11.5685
 30
0.0
 10
-43.2014
 20
11.5196
 30
0.0
 10
-43.089
 20
11.4467
 30
0.0
 10
-43.0095
 20
11.3498
 30
0.0
 10
-43.0095
 20
11.3498
 30
0.0
 10
-42.93
 20
11.2529
 30
0.0
 10
-42.8905
 20
11.1306
 30
0.0
 10
-42.8905
 20
10.9824
 30
0.0
 10
-42.8905
 20
10.9824
 30
0.0
 10
-42.8905
 20
10.7877
 30
0.0
 10
-42.9601
 20
10.6348
 30
0.0
 10
-43.0998
 20
10.5238
 30
0.0
 10
-43.0998
 20
10.5238
 30
0.0
 10
-43.2677
 20
10.3907
 30
0.0
 10
-43.5419
 20
10.3239
 30
0.0
 10
-43.921
 20
10.3239
 30
0.0
  0
SPLINE
  5
52
330
1F
100
AcDbEntity
  8
ROUND
 62
   250
100
AcDbSpline
210
0.0
220
0.0
230
1.0
 70
    11
 71
     3
 72
    36
 73
    32
 74
     0
 42
0.0000000001
 43
0.0000000001
 40
0.0
 40
0.0
 40
0.0
 40
0.0
 40
0.1111111111111111
 40
0.1111111111111111
 40
0.1111111111111111
 40
0.1111111111111111
 40
0.2222222222222222
 40
0.2222222222222222
 40
0.2222222222222222
 40
0.2222222222222222
 40
0.3333333333333333
 40
0.3333333333333333
 40
0.3333333333333333
 40
0.3333333333333333
 40
0.4444444444444444
 40
0.4444444444444444
 40
0.4444444444444444
 40
0.4444444444444444
 40
0.5555555555555556
 40
0.5555555555555556
 40
0.5555555555555556
 40
0.5555555555555556
 40
0.6666666666666666
 40
0.6666666666666666
 40
0.6666666666666666
 40
0.6666666666666666
 40
0.7777777777777778
 40
0.7777777777777778
 40
0.7777777777777778
 40
0.7777777777777778
 40
1.0
 40
1.0
 40
1.0
 40
1.0
 10
-43.921
 20
10.5789
 30
0.0
 10
-43.5894
 20
10.5789
 30
0.0
 10
-43.3688
 20
10.6179
 30
0.0
 10
-43.2588
 20
10.6955
 30
0.0
 10
-43.2588
 20
10.6955
 30
0.0
 10
-43.1492
 20
10.7731
 30
0.0
 10
-43.0941
 20
10.8686
 30
0.0
 10
-43.0941
 20
10.9824
 30
0.0
 10
-43.0941
 20
10.9824
 30
0.0
 10
-43.0941
 20
11.0967
 30
0.0
 10
-43.1496
 20
11.1922
 30
0.0
 10
-43.2597
 20
11.2698
 30
0.0
 10
-43.2597
 20
11.2698
 30
0.0
 10
-43.3698
 20
11.3474
 30
0.0
 10
-43.5904
 20
11.3865
 30
0.0
 10
-43.921
 20
11.3865
 30
0.0
 10
-43.921
 20
11.3865
 30
0.0
 10
-44.2536
 20
11.3865
 30
0.0
 10
-44.4747
 20
11.3474
 30
0.0
 10
-44.5838
 20
11.2698
 30
0.0
 10
-44.5838
 20
11.2698
 30
0.0
 10
-44.6934
 20
11.1922
 30
0.0
 10
-44.7479
 20
11.0958
 30
0.0
 10
-44.7479
 20
10.9801
 30
0.0
 10
-44.7479
 20
10.9801
 30
0.0
 10
-44.7479
 20
10.8658
 30
0.0
 10
-44.6995
 20
10.775
 30
0.0
 10
-44.6031
 20
10.7068
 30
0.0
 10
-44.6031
 20
10.7068
 30
0.0
 10
-44.4803
 20
10.6217
 30
0.0
 10
-44.2526
 20
10.5789
 30
0.0
 10
-43.921
 20
10.5789
 30
0.0
  0
SPLINE
  5
53
330
1F
100
AcDbEntity
  8
ROUND
 62
   250
100
AcDbSpline
210
0.0
220
0.0
230
1.0
 70
    11
 71
     3
 72
    20
 73
    16
 74
     0
 42
0.0000000001
 43
0.0000000001
 40
0.0
 40
0.0
 40
0.0
 40
0.0
 40
0.2
 40
0.2
 40
0.2
 40
0.2
 40
0.4
 40
0.4
 40
0.4
 40
0.4
 40
0.6
 40
0.6
 40
0.6
 40
0.6
 40
1.0
 40
1.0
 40
1.0
 40
1.0
 10
-43.5311
 20
12.6499
 30
0.0
 10
-43.5311
 20
12.6499
 30
0.0
 10
-43.7804
 20
12.6499
 30
0.0
 10
-43.7804
 20
12.6499
 30
0.0
 10
-43.7804
 20
12.6499
 30
0.0
 10
-43.7804
 20
12.6499
 30
0.0
 10
-43.7804
 20
13.4123
 30
0.0
 10
-43.7804
 20
13.4123
 30
0.0
 10
-43.7804
 20
13.4123
 30
0.0
 10
-43.7804
 20
13.4123
 30
0.0
 10
-43.5311
 20
13.4123
 30
0.0
 10
-43.5311
 20
13.4123
 30
0.0
 10
-43.5311
 20
13.4123
 30
0.0
 10
-43.5311
 20
13.4123
 30
0.0
 10
-43.5311
 20
12.6499
 30
0.0
 10
-43.5311
 20
12.6499
 30
0.0
  0
SPLINE
  5
54
330
1F
100
AcDbEntity
  8
ROUND
 62
   250
100
AcDbSpline
210
0.0
220
0.0
230
1.0
 70
    11
 71
     3
 72
    68
 73
    64
 74
     0
 42
0.0000000001
 43
0.0000000001
 40
0.0
 40
0.0
 40
0.0
 40
0.0
 40
0.0588235294117647
 40
0.0588235294117647
 40
0.0588235294117647
 40
0.0588235294117647
 40
0.1176470588235294
 40
0.1176470588235294
 40
0.1176470588235294
 40
0.1176470588235294
 40
0.1764705882352941
 40
0.1764705882352941
 40
0.1764705882352941
 40
0.1764705882352941
 40
0.2352941176470588
 40
0.2352941176470588
 40
0.2352941176470588
 40
0.2352941176470588
 40
0.2941176470588235
 40
0.2941176470588235
 40
0.2941176470588235
 40
0.2941176470588235
 40
0.3529411764705883
 40
0.3529411764705883
 40
0.3529411764705883
 40
0.3529411764705883
 40
0.4117647058823529
 40
0.4117647058823529
 40
0.4117647058823529
 40
0.4117647058823529
 40
0.4705882352941176
 40
0.4705882352941176
 40
0.4705882352941176
 40
0.4705882352941176
 40
0.5294117647058824
 40
0.5294117647058824
 40
0.5294117647058824
 40
0.5294117647058824
 40
0.5882352941176471
 40
0.5882352941176471
 40
0.5882352941176471
 40
0.5882352941176471
 40
0.6470588235294118
 40
0.6470588235294118
 40
0.6470588235294118
 40
0.6470588235294118
 40
0.7058823529411765
 40
0.7058823529411765
 40
0.7058823529411765
 40
0.7058823529411765
 40
0.7647058823529411
 40
0.7647058823529411
 40
0.7647058823529411
 40
0.7647058823529411
 40
0.8235294117647058
 40
0.8235294117647058
 40
0.8235294117647058
 40
0.8235294117647058
 40
0.8823529411764706
 40
0.8823529411764706
 40
0.8823529411764706
 40
0.8823529411764706
 40
1.0
 40
1.0
 40
1.0
 40
1.0
 10
-44.0203
 20
14.7835
 30
0.0
 10
-44.0579
 20
14.6804
 30
0.0
 10
-44.1115
 20
14.6042
 30
0.0
 10
-44.1816
 20
14.5544
 30
0.0
 10
-44.1816
 20
14.5544
 30
0.0
 10
-44.2512
 20
14.505
 30
0.0
 10
-44.335
 20
14.4801
 30
0.0
 10
-44.4323
 20
14.4801
 30
0.0
 10
-44.4323
 20
14.4801
 30
0.0
 10
-44.5795
 20
14.4801
 30
0.0
 10
-44.7028
 20
14.5328
 30
0.0
 10
-44.803
 20
14.6386
 30
0.0
 10
-44.803
 20
14.6386
 30
0.0
 10
-44.9032
 20
14.7444
 30
0.0
 10
-44.9535
 20
14.8846
 30
0.0
 10
-44.9535
 20
15.06
 30
0.0
 10
-44.9535
 20
15.06
 30
0.0
 10
-44.9535
 20
15.2364
 30
0.0
 10
-44.9022
 20
15.3785
 30
0.0
 10
-44.7997
 20
15.4862
 30
0.0
 10
-44.7997
 20
15.4862
 30
0.0
 10
-44.6971
 20
15.5934
 30
0.0
 10
-44.5725
 20
15.6471
 30
0.0
 10
-44.4253
 20
15.6471
 30
0.0
 10
-44.4253
 20
15.6471
 30
0.0
 10
-44.3317
 20
15.6471
 30
0.0
 10
-44.2503
 20
15.6226
 30
0.0
 10
-44.1807
 20
15.5737
 30
0.0
 10
-44.1807
 20
15.5737
 30
0.0
 10
-44.1115
 20
15.5243
 30
0.0
 10
-44.0579
 20
15.45
 30
0.0
 10
-44.0203
 20
15.3498
 30
0.0
 10
-44.0203
 20
15.3498
 30
0.0
 10
-43.9798
 20
15.4735
 30
0.0
 10
-43.9149
 20
15.568
 30
0.0
 10
-43.8246
 20
15.6329
 30
0.0
 10
-43.8246
 20
15.6329
 30
0.0
 10
-43.7348
 20
15.6974
 30
0.0
 10
-43.6271
 20
15.7298
 30
0.0
 10
-43.5024
 20
15.7298
 30
0.0
 10
-43.5024
 20
15.7298
 30
0.0
 10
-43.3293
 20
15.7298
 30
0.0
 10
-43.1844
 20
15.6687
 30
0.0
 10
-43.0669
 20
15.5469
 30
0.0
 10
-43.0669
 20
15.5469
 30
0.0
 10
-42.9493
 20
15.4246
 30
0.0
 10
-42.8905
 20
15.2637
 30
0.0
 10
-42.8905
 20
15.0643
 30
0.0
 10
-42.8905
 20
15.0643
 30
0.0
 10
-42.8905
 20
14.8648
 30
0.0
 10
-42.9493
 20
14.7044
 30
0.0
 10
-43.0673
 20
14.5821
 30
0.0
 10
-43.0673
 20
14.5821
 30
0.0
 10
-43.1854
 20
14.4598
 30
0.0
 10
-43.3326
 20
14.3987
 30
0.0
 10
-43.509
 20
14.3987
 30
0.0
 10
-43.509
 20
14.3987
 30
0.0
 10
-43.6402
 20
14.3987
 30
0.0
 10
-43.7503
 20
14.4321
 30
0.0
 10
-43.8392
 20
14.4989
 30
0.0
 10
-43.8392
 20
14.4989
 30
0.0
 10
-43.9276
 20
14.5652
 30
0.0
 10
-43.9883
 20
14.6602
 30
0.0
 10
-44.0203
 20
14.7835
 30
0.0
  0
SPLINE
  5
55
330
1F
100
AcDbEntity
  8
ROUND
 62
   250
100
AcDbSpline
210
0.0
220
0.0
230
1.0
 70
    11
 71
     3
 72
    36
 73
    32
 74
     0
 42
0.0000000001
 43
0.0000000001
 40
0.0
 40
0.0
 40
0.0
 40
0.0
 40
0.1111111111111111
 40
0.1111111111111111
 40
0.1111111111111111
 40
0.1111111111111111
 40
0.2222222222222222
 40
0.2222222222222222
 40
0.2222222222222222
 40
0.2222222222222222
 40
0.3333333333333333
 40
0.3333333333333333
 40
0.3333333333333333
 40
0.3333333333333333
 40
0.4444444444444444
 40
0.4444444444444444
 40
0.4444444444444444
 40
0.4444444444444444
 40
0.5555555555555556
 40
0.5555555555555556
 40
0.5555555555555556
 40
0.5555555555555556
 40
0.6666666666666666
 40
0.6666666666666666
 40
0.6666666666666666
 40
0.6666666666666666
 40
0.7777777777777778
 40
0.7777777777777778
 40
0.7777777777777778
 40
0.7777777777777778
 40
1.0
 40
1.0
 40
1.0
 40
1.0
 10
-44.4408
 20
14.7336
 30
0.0
 10
-44.3453
 20
14.7336
 30
0.0
 10
-44.2672
 20
14.7646
 30
0.0
 10
-44.2065
 20
14.8258
 30
0.0
 10
-44.2065
 20
14.8258
 30
0.0
 10
-44.1459
 20
14.8874
 30
0.0
 10
-44.1153
 20
14.9674
 30
0.0
 10
-44.1153
 20
15.0657
 30
0.0
 10
-44.1153
 20
15.0657
 30
0.0
 10
-44.1153
 20
15.1612
 30
0.0
 10
-44.1454
 20
15.2397
 30
0.0
 10
-44.2056
 20
15.3009
 30
0.0
 10
-44.2056
 20
15.3009
 30
0.0
 10
-44.2658
 20
15.362
 30
0.0
 10
-44.3397
 20
15.3921
 30
0.0
 10
-44.4267
 20
15.3921
 30
0.0
 10
-44.4267
 20
15.3921
 30
0.0
 10
-44.5179
 20
15.3921
 30
0.0
 10
-44.5941
 20
15.3611
 30
0.0
 10
-44.6562
 20
15.298
 30
0.0
 10
-44.6562
 20
15.298
 30
0.0
 10
-44.7183
 20
15.235
 30
0.0
 10
-44.7494
 20
15.1569
 30
0.0
 10
-44.7494
 20
15.0629
 30
0.0
 10
-44.7494
 20
15.0629
 30
0.0
 10
-44.7494
 20
14.9683
 30
0.0
 10
-44.7188
 20
14.8898
 30
0.0
 10
-44.6586
 20
14.8272
 30
0.0
 10
-44.6586
 20
14.8272
 30
0.0
 10
-44.5979
 20
14.7646
 30
0.0
 10
-44.525
 20
14.7336
 30
0.0
 10
-44.4408
 20
14.7336
 30
0.0
  0
SPLINE
  5
56
330
1F
100
AcDbEntity
  8
ROUND
 62
   250
100
AcDbSpline
210
0.0
220
0.0
230
1.0
 70
    11
 71
     3
 72
    40
 73
    36
 74
     0
 42
0.0000000001
 43
0.0000000001
 40
0.0
 40
0.0
 40
0.0
 40
0.0
 40
0.1
 40
0.1
 40
0.1
 40
0.1
 40
0.2
 40
0.2
 40
0.2
 40
0.2
 40
0.3
 40
0.3
 40
0.3
 40
0.3
 40
0.4
 40
0.4
 40
0.4
 40
0.4
 40
0.5
 40
0.5
 40
0.5
 40
0.5
 40
0.6
 40
0.6
 40
0.6
 40
0.6
 40
0.7
 40
0.7
 40
0.7
 40
0.7
 40
0.8
 40
0.8
 40
0.8
 40
0.8
 40
1.0
 40
1.0
 40
1.0
 40
1.0
 10
-43.5076
 20
14.6536
 30
0.0
 10
-43.437
 20
14.6536
 30
0.0
 10
-43.3684
 20
14.6706
 30
0.0
 10
-43.3025
 20
14.704
 30
0.0
 10
-43.3025
 20
14.704
 30
0.0
 10
-43.2362
 20
14.7374
 30
0.0
 10
-43.1849
 20
14.7872
 30
0.0
 10
-43.1487
 20
14.8535
 30
0.0
 10
-43.1487
 20
14.8535
 30
0.0
 10
-43.1125
 20
14.9199
 30
0.0
 10
-43.0941
 20
14.9909
 30
0.0
 10
-43.0941
 20
15.0671
 30
0.0
 10
-43.0941
 20
15.0671
 30
0.0
 10
-43.0941
 20
15.1856
 30
0.0
 10
-43.1322
 20
15.2835
 30
0.0
 10
-43.2089
 20
15.3606
 30
0.0
 10
-43.2089
 20
15.3606
 30
0.0
 10
-43.2851
 20
15.4377
 30
0.0
 10
-43.382
 20
15.4763
 30
0.0
 10
-43.4996
 20
15.4763
 30
0.0
 10
-43.4996
 20
15.4763
 30
0.0
 10
-43.6191
 20
15.4763
 30
0.0
 10
-43.7178
 20
15.4368
 30
0.0
 10
-43.7959
 20
15.3573
 30
0.0
 10
-43.7959
 20
15.3573
 30
0.0
 10
-43.874
 20
15.2778
 30
0.0
 10
-43.913
 20
15.1781
 30
0.0
 10
-43.913
 20
15.0586
 30
0.0
 10
-43.913
 20
15.0586
 30
0.0
 10
-43.913
 20
14.942
 30
0.0
 10
-43.8745
 20
14.8455
 30
0.0
 10
-43.7973
 20
14.7689
 30
0.0
 10
-43.7973
 20
14.7689
 30
0.0
 10
-43.7197
 20
14.6922
 30
0.0
 10
-43.6233
 20
14.6536
 30
0.0
 10
-43.5076
 20
14.6536
 30
0.0
  0
SPLINE
  5
57
330
1F
100
AcDbEntity
  8
ROUND
 62
   250
100
AcDbSpline
210
0.0
220
0.0
230
1.0
 70
    11
 71
     3
 72
    52
 73
    48
 74
     0
 42
0.0000000001
 43
0.0000000001
 40
0.0
 40
0.0
 40
0.0
 40
0.0
 40
0.0769230769230769
 40
0.0769230769230769
 40
0.0769230769230769
 40
0.0769230769230769
 40
0.1538461538461539
 40
0.1538461538461539
 40
0.1538461538461539
 40
0.1538461538461539
 40
0.2307692307692308
 40
0.2307692307692308
 40
0.2307692307692308
 40
0.2307692307692308
 40
0.3076923076923077
 40
0.3076923076923077
 40
0.3076923076923077
 40
0.3076923076923077
 40
0.3846153846153846
 40
0.3846153846153846
 40
0.3846153846153846
 40
0.3846153846153846
 40
0.4615384615384616
 40
0.4615384615384616
 40
0.4615384615384616
 40
0.4615384615384616
 40
0.5384615384615384
 40
0.5384615384615384
 40
0.5384615384615384
 40
0.5384615384615384
 40
0.6153846153846154
 40
0.6153846153846154
 40
0.6153846153846154
 40
0.6153846153846154
 40
0.6923076923076923
 40
0.6923076923076923
 40
0.6923076923076923
 40
0.6923076923076923
 40
0.7692307692307693
 40
0.7692307692307693
 40
0.7692307692307693
 40
0.7692307692307693
 40
0.8461538461538461
 40
0.8461538461538461
 40
0.8461538461538461
 40
0.8461538461538461
 40
1.0
 40
1.0
 40
1.0
 40
1.0
 10
-43.921
 20
15.9711
 30
0.0
 10
-44.16
 20
15.9711
 30
0.0
 10
-44.3524
 20
15.9956
 30
0.0
 10
-44.4977
 20
16.045
 30
0.0
 10
-44.4977
 20
16.045
 30
0.0
 10
-44.6435
 20
16.0939
 30
0.0
 10
-44.7559
 20
16.1673
 30
0.0
 10
-44.835
 20
16.2642
 30
0.0
 10
-44.835
 20
16.2642
 30
0.0
 10
-44.914
 20
16.3611
 30
0.0
 10
-44.9535
 20
16.4829
 30
0.0
 10
-44.9535
 20
16.6296
 30
0.0
 10
-44.9535
 20
16.6296
 30
0.0
 10
-44.9535
 20
16.7383
 30
0.0
 10
-44.9314
 20
16.8333
 30
0.0
 10
-44.8876
 20
16.9151
 30
0.0
 10
-44.8876
 20
16.9151
 30
0.0
 10
-44.8444
 20
16.997
 30
0.0
 10
-44.7813
 20
17.0643
 30
0.0
 10
-44.699
 20
17.1179
 30
0.0
 10
-44.699
 20
17.1179
 30
0.0
 10
-44.6167
 20
17.171
 30
0.0
 10
-44.5165
 20
17.2129
 30
0.0
 10
-44.3985
 20
17.243
 30
0.0
 10
-44.3985
 20
17.243
 30
0.0
 10
-44.2804
 20
17.2736
 30
0.0
 10
-44.1214
 20
17.2886
 30
0.0
 10
-43.921
 20
17.2886
 30
0.0
 10
-43.921
 20
17.2886
 30
0.0
 10
-43.684
 20
17.2886
 30
0.0
 10
-43.493
 20
17.2642
 30
0.0
 10
-43.3472
 20
17.2157
 30
0.0
 10
-43.3472
 20
17.2157
 30
0.0
 10
-43.2014
 20
17.1668
 30
0.0
 10
-43.089
 20
17.0939
 30
0.0
 10
-43.0095
 20
16.997
 30
0.0
 10
-43.0095
 20
16.997
 30
0.0
 10
-42.93
 20
16.9001
 30
0.0
 10
-42.8905
 20
16.7778
 30
0.0
 10
-42.8905
 20
16.6296
 30
0.0
 10
-42.8905
 20
16.6296
 30
0.0
 10
-42.8905
 20
16.4349
 30
0.0
 10
-42.9601
 20
16.282
 30
0.0
 10
-43.0998
 20
16.171
 30
0.0
 10
-43.0998
 20
16.171
 30
0.0
 10
-43.2677
 20
16.0379
 30
0.0
 10
-43.5419
 20
15.9711
 30
0.0
 10
-43.921
 20
15.9711
 30
0.0
  0
SPLINE
  5
58
330
1F
100
AcDbEntity
  8
ROUND
 62
   250
100
AcDbSpline
210
0.0
220
0.0
230
1.0
 70
    11
 71
     3
 72
    36
 73
    32
 74
     0
 42
0.0000000001
 43
0.0000000001
 40
0.0
 40
0.0
 40
0.0
 40
0.0
 40
0.1111111111111111
 40
0.1111111111111111
 40
0.1111111111111111
 40
0.1111111111111111
 40
0.2222222222222222
 40
0.2222222222222222
 40
0.2222222222222222
 40
0.2222222222222222
 40
0.3333333333333333
 40
0.3333333333333333
 40
0.3333333333333333
 40
0.3333333333333333
 40
0.4444444444444444
 40
0.4444444444444444
 40
0.4444444444444444
 40
0.4444444444444444
 40
0.5555555555555556
 40
0.5555555555555556
 40
0.5555555555555556
 40
0.5555555555555556
 40
0.6666666666666666
 40
0.6666666666666666
 40
0.6666666666666666
 40
0.6666666666666666
 40
0.7777777777777778
 40
0.7777777777777778
 40
0.7777777777777778
 40
0.7777777777777778
 40
1.0
 40
1.0
 40
1.0
 40
1.0
 10
-43.921
 20
16.2261
 30
0.0
 10
-43.5894
 20
16.2261
 30
0.0
 10
-43.3688
 20
16.2651
 30
0.0
 10
-43.2588
 20
16.3427
 30
0.0
 10
-43.2588
 20
16.3427
 30
0.0
 10
-43.1492
 20
16.4203
 30
0.0
 10
-43.0941
 20
16.5158
 30
0.0
 10
-43.0941
 20
16.6296
 30
0.0
 10
-43.0941
 20
16.6296
 30
0.0
 10
-43.0941
 20
16.7439
 30
0.0
 10
-43.1496
 20
16.8394
 30
0.0
 10
-43.2597
 20
16.917
 30
0.0
 10
-43.2597
 20
16.917
 30
0.0
 10
-43.3698
 20
16.9946
 30
0.0
 10
-43.5904
 20
17.0337
 30
0.0
 10
-43.921
 20
17.0337
 30
0.0
 10
-43.921
 20
17.0337
 30
0.0
 10
-44.2536
 20
17.0337
 30
0.0
 10
-44.4747
 20
16.9946
 30
0.0
 10
-44.5838
 20
16.917
 30
0.0
 10
-44.5838
 20
16.917
 30
0.0
 10
-44.6934
 20
16.8394
 30
0.0
 10
-44.7479
 20
16.743
 30
0.0
 10
-44.7479
 20
16.6273
 30
0.0
 10
-44.7479
 20
16.6273
 30
0.0
 10
-44.7479
 20
16.513
 30
0.0
 10
-44.6995
 20
16.4222
 30
0.0
 10
-44.6031
 20
16.354
 30
0.0
 10
-44.6031
 20
16.354
 30
0.0
 10
-44.4803
 20
16.2689
 30
0.0
 10
-44.2526
 20
16.2261
 30
0.0
 10
-43.921
 20
16.2261
 30
0.0
  0
SPLINE
  5
59
330
1F
100
AcDbEntity
  8
ROUND
 62
   250
100
AcDbSpline
210
0.0
220
0.0
230
1.0
 70
    11
 71
     3
 72
    84
 73
    80
 74
     0
 42
0.0000000001
 43
0.0000000001
 40
0.0
 40
0.0
 40
0.0
 40
0.0
 40
0.0476190476190476
 40
0.0476190476190476
 40
0.0476190476190476
 40
0.0476190476190476
 40
0.0952380952380952
 40
0.0952380952380952
 40
0.0952380952380952
 40
0.0952380952380952
 40
0.1428571428571428
 40
0.1428571428571428
 40
0.1428571428571428
 40
0.1428571428571428
 40
0.1904761904761905
 40
0.1904761904761905
 40
0.1904761904761905
 40
0.1904761904761905
 40
0.2380952380952381
 40
0.2380952380952381
 40
0.2380952380952381
 40
0.2380952380952381
 40
0.2857142857142857
 40
0.2857142857142857
 40
0.2857142857142857
 40
0.2857142857142857
 40
0.3333333333333333
 40
0.3333333333333333
 40
0.3333333333333333
 40
0.3333333333333333
 40
0.3809523809523809
 40
0.3809523809523809
 40
0.3809523809523809
 40
0.3809523809523809
 40
0.4285714285714285
 40
0.4285714285714285
 40
0.4285714285714285
 40
0.4285714285714285
 40
0.4761904761904762
 40
0.4761904761904762
 40
0.4761904761904762
 40
0.4761904761904762
 40
0.5238095238095238
 40
0.5238095238095238
 40
0.5238095238095238
 40
0.5238095238095238
 40
0.5714285714285714
 40
0.5714285714285714
 40
0.5714285714285714
 40
0.5714285714285714
 40
0.6190476190476191
 40
0.6190476190476191
 40
0.6190476190476191
 40
0.6190476190476191
 40
0.6666666666666666
 40
0.6666666666666666
 40
0.6666666666666666
 40
0.6666666666666666
 40
0.7142857142857143
 40
0.7142857142857143
 40
0.7142857142857143
 40
0.7142857142857143
 40
0.7619047619047619
 40
0.7619047619047619
 40
0.7619047619047619
 40
0.7619047619047619
 40
0.8095238095238095
 40
0.8095238095238095
 40
0.8095238095238095
 40
0.8095238095238095
 40
0.8571428571428571
 40
0.8571428571428571
 40
0.8571428571428571
 40
0.8571428571428571
 40
0.9047619047619048
 40
0.9047619047619048
 40
0.9047619047619048
 40
0.9047619047619048
 40
1.0
 40
1.0
 40
1.0
 40
1.0
 10
14.5459
 20
14.8442
 30
0.0
 10
14.5459
 20
14.8442
 30
0.0
 10
14.2867
 20
15.0757
 30
0.0
 10
14.2867
 20
15.0757
 30
0.0
 10
14.2867
 20
15.0757
 30
0.0
 10
14.2867
 20
15.0757
 30
0.0
 10
14.4024
 20
15.212
 30
0.0
 10
14.4024
 20
15.212
 30
0.0
 10
14.4024
 20
15.212
 30
0.0
 10
14.4024
 20
15.212
 30
0.0
 10
14.6753
 20
14.9698
 30
0.0
 10
14.6753
 20
14.9698
 30
0.0
 10
14.6753
 20
14.9698
 30
0.0
 10
14.7928
 20
15.0488
 30
0.0
 10
14.8958
 20
15.102
 30
0.0
 10
14.9839
 20
15.1297
 30
0.0
 10
14.9839
 20
15.1297
 30
0.0
 10
15.0996
 20
15.1665
 30
0.0
 10
15.2293
 20
15.1848
 30
0.0
 10
15.3723
 20
15.1848
 30
0.0
 10
15.3723
 20
15.1848
 30
0.0
 10
15.5793
 20
15.1848
 30
0.0
 10
15.7637
 20
15.1429
 30
0.0
 10
15.925
 20
15.0591
 30
0.0
 10
15.925
 20
15.0591
 30
0.0
 10
16.0869
 20
14.9754
 30
0.0
 10
16.2092
 20
14.8584
 30
0.0
 10
16.2919
 20
14.7073
 30
0.0
 10
16.2919
 20
14.7073
 30
0.0
 10
16.3742
 20
14.5559
 30
0.0
 10
16.4157
 20
14.3955
 30
0.0
 10
16.4157
 20
14.2257
 30
0.0
 10
16.4157
 20
14.2257
 30
0.0
 10
16.4157
 20
14.0987
 30
0.0
 10
16.3977
 20
13.9839
 30
0.0
 10
16.362
 20
13.8809
 30
0.0
 10
16.362
 20
13.8809
 30
0.0
 10
16.3342
 20
13.8019
 30
0.0
 10
16.2815
 20
13.7096
 30
0.0
 10
16.2035
 20
13.6038
 30
0.0
 10
16.2035
 20
13.6038
 30
0.0
 10
16.2035
 20
13.6038
 30
0.0
 10
16.4626
 20
13.3724
 30
0.0
 10
16.4626
 20
13.3724
 30
0.0
 10
16.4626
 20
13.3724
 30
0.0
 10
16.4626
 20
13.3724
 30
0.0
 10
16.3469
 20
13.236
 30
0.0
 10
16.3469
 20
13.236
 30
0.0
 10
16.3469
 20
13.236
 30
0.0
 10
16.3469
 20
13.236
 30
0.0
 10
16.0756
 20
13.4787
 30
0.0
 10
16.0756
 20
13.4787
 30
0.0
 10
16.0756
 20
13.4787
 30
0.0
 10
15.9387
 20
13.3885
 30
0.0
 10
15.8215
 20
13.3282
 30
0.0
 10
15.7246
 20
13.298
 30
0.0
 10
15.7246
 20
13.298
 30
0.0
 10
15.6277
 20
13.268
 30
0.0
 10
15.5112
 20
13.2525
 30
0.0
 10
15.3752
 20
13.2525
 30
0.0
 10
15.3752
 20
13.2525
 30
0.0
 10
15.1677
 20
13.2525
 30
0.0
 10
14.9829
 20
13.2938
 30
0.0
 10
14.8206
 20
13.3766
 30
0.0
 10
14.8206
 20
13.3766
 30
0.0
 10
14.6583
 20
13.4594
 30
0.0
 10
14.5355
 20
13.5751
 30
0.0
 10
14.4519
 20
13.7247
 30
0.0
 10
14.4519
 20
13.7247
 30
0.0
 10
14.3685
 20
13.8738
 30
0.0
 10
14.3267
 20
14.0399
 30
0.0
 10
14.3267
 20
14.2229
 30
0.0
 10
14.3267
 20
14.2229
 30
0.0
 10
14.3267
 20
14.3461
 30
0.0
 10
14.3426
 20
14.4537
 30
0.0
 10
14.3756
 20
14.546
 30
0.0
 10
14.3756
 20
14.546
 30
0.0
 10
14.408
 20
14.6382
 30
0.0
 10
14.4651
 20
14.7379
 30
0.0
 10
14.5459
 20
14.8442
 30
0.0
  0
SPLINE
  5
5A
330
1F
100
AcDbEntity
  8
ROUND
 62
   250
100
AcDbSpline
210
0.0
220
0.0
230
1.0
 70
    11
 71
     3
 72
    32
 73
    28
 74
     0
 42
0.0000000001
 43
0.0000000001
 40
0.0
 40
0.0
 40
0.0
 40
0.0
 40
0.125
 40
0.125
 40
0.125
 40
0.125
 40
0.25
 40
0.25
 40
0.25
 40
0.25
 40
0.375
 40
0.375
 40
0.375
 40
0.375
 40
0.5
 40
0.5
 40
0.5
 40
0.5
 40
0.625
 40
0.625
 40
0.625
 40
0.625
 40
0.75
 40
0.75
 40
0.75
 40
0.75
 40
1.0
 40
1.0
 40
1.0
 40
1.0
 10
14.7317
 20
14.6792
 30
0.0
 10
14.6639
 20
14.5926
 30
0.0
 10
14.6174
 20
14.5169
 30
0.0
 10
14.5925
 20
14.4524
 30
0.0
 10
14.5925
 20
14.4524
 30
0.0
 10
14.568
 20
14.3875
 30
0.0
 10
14.5553
 20
14.3113
 30
0.0
 10
14.5553
 20
14.2242
 30
0.0
 10
14.5553
 20
14.2242
 30
0.0
 10
14.5553
 20
14.023
 30
0.0
 10
14.6235
 20
13.8568
 30
0.0
 10
14.76
 20
13.7252
 30
0.0
 10
14.76
 20
13.7252
 30
0.0
 10
14.8963
 20
13.5939
 30
0.0
 10
15.0999
 20
13.5281
 30
0.0
 10
15.3714
 20
13.5281
 30
0.0
 10
15.3714
 20
13.5281
 30
0.0
 10
15.4777
 20
13.5281
 30
0.0
 10
15.5723
 20
13.5384
 30
0.0
 10
15.655
 20
13.5587
 30
0.0
 10
15.655
 20
13.5587
 30
0.0
 10
15.7166
 20
13.5733
 30
0.0
 10
15.7924
 20
13.6038
 30
0.0
 10
15.8823
 20
13.6509
 30
0.0
 10
15.8823
 20
13.6509
 30
0.0
 10
15.8823
 20
13.6509
 30
0.0
 10
14.7317
 20
14.6792
 30
0.0
 10
14.7317
 20
14.6792
 30
0.0
  0
SPLINE
  5
5B
330
1F
100
AcDbEntity
  8
ROUND
 62
   250
100
AcDbSpline
210
0.0
220
0.0
230
1.0
 70
    11
 71
     3
 72
    28
 73
    24
 74
     0
 42
0.0000000001
 43
0.0000000001
 40
0.0
 40
0.0
 40
0.0
 40
0.0
 40
0.1428571428571428
 40
0.1428571428571428
 40
0.1428571428571428
 40
0.1428571428571428
 40
0.2857142857142857
 40
0.2857142857142857
 40
0.2857142857142857
 40
0.2857142857142857
 40
0.4285714285714285
 40
0.4285714285714285
 40
0.4285714285714285
 40
0.4285714285714285
 40
0.5714285714285714
 40
0.5714285714285714
 40
0.5714285714285714
 40
0.5714285714285714
 40
0.7142857142857143
 40
0.7142857142857143
 40
0.7142857142857143
 40
0.7142857142857143
 40
1.0
 40
1.0
 40
1.0
 40
1.0
 10
14.8738
 20
14.792
 30
0.0
 10
14.8738
 20
14.792
 30
0.0
 10
16.02
 20
13.768
 30
0.0
 10
16.02
 20
13.768
 30
0.0
 10
16.02
 20
13.768
 30
0.0
 10
16.0779
 20
13.8385
 30
0.0
 10
16.1184
 20
13.9039
 30
0.0
 10
16.1414
 20
13.9637
 30
0.0
 10
16.1414
 20
13.9637
 30
0.0
 10
16.172
 20
14.0418
 30
0.0
 10
16.187
 20
14.1265
 30
0.0
 10
16.187
 20
14.2172
 30
0.0
 10
16.187
 20
14.2172
 30
0.0
 10
16.187
 20
14.4176
 30
0.0
 10
16.1165
 20
14.5826
 30
0.0
 10
15.9749
 20
14.7134
 30
0.0
 10
15.9749
 20
14.7134
 30
0.0
 10
15.8333
 20
14.8438
 30
0.0
 10
15.6348
 20
14.9092
 30
0.0
 10
15.3794
 20
14.9092
 30
0.0
 10
15.3794
 20
14.9092
 30
0.0
 10
15.1885
 20
14.9092
 30
0.0
 10
15.0196
 20
14.8701
 30
0.0
 10
14.8738
 20
14.792
 30
0.0
  0
SPLINE
  5
5C
330
1F
100
AcDbEntity
  8
ROUND
 62
   250
100
AcDbSpline
210
0.0
220
0.0
230
1.0
 70
    11
 71
     3
 72
   124
 73
   120
 74
     0
 42
0.0000000001
 43
0.0000000001
 40
0.0
 40
0.0
 40
0.0
 40
0.0
 40
0.032258064516129
 40
0.032258064516129
 40
0.032258064516129
 40
0.032258064516129
 40
0.0645161290322581
 40
0.0645161290322581
 40
0.0645161290322581
 40
0.0645161290322581
 40
0.0967741935483871
 40
0.0967741935483871
 40
0.0967741935483871
 40
0.0967741935483871
 40
0.1290322580645161
 40
0.1290322580645161
 40
0.1290322580645161
 40
0.1290322580645161
 40
0.1612903225806452
 40
0.1612903225806452
 40
0.1612903225806452
 40
0.1612903225806452
 40
0.1935483870967742
 40
0.1935483870967742
 40
0.1935483870967742
 40
0.1935483870967742
 40
0.2258064516129032
 40
0.2258064516129032
 40
0.2258064516129032
 40
0.2258064516129032
 40
0.2580645161290323
 40
0.2580645161290323
 40
0.2580645161290323
 40
0.2580645161290323
 40
0.2903225806451613
 40
0.2903225806451613
 40
0.2903225806451613
 40
0.2903225806451613
 40
0.3225806451612903
 40
0.3225806451612903
 40
0.3225806451612903
 40
0.3225806451612903
 40
0.3548387096774194
 40
0.3548387096774194
 40
0.3548387096774194
 40
0.3548387096774194
 40
0.3870967741935484
 40
0.3870967741935484
 40
0.3870967741935484
 40
0.3870967741935484
 40
0.4193548387096774
 40
0.4193548387096774
 40
0.4193548387096774
 40
0.4193548387096774
 40
0.4516129032258064
 40
0.4516129032258064
 40
0.4516129032258064
 40
0.4516129032258064
 40
0.4838709677419355
 40
0.4838709677419355
 40
0.4838709677419355
 40
0.4838709677419355
 40
0.5161290322580645
 40
0.5161290322580645
 40
0.5161290322580645
 40
0.5161290322580645
 40
0.5483870967741935
 40
0.5483870967741935
 40
0.5483870967741935
 40
0.5483870967741935
 40
0.5806451612903226
 40
0.5806451612903226
 40
0.5806451612903226
 40
0.5806451612903226
 40
0.6129032258064516
 40
0.6129032258064516
 40
0.6129032258064516
 40
0.6129032258064516
 40
0.6451612903225806
 40
0.6451612903225806
 40
0.6451612903225806
 40
0.6451612903225806
 40
0.6774193548387096
 40
0.6774193548387096
 40
0.6774193548387096
 40
0.6774193548387096
 40
0.7096774193548387
 40
0.7096774193548387
 40
0.7096774193548387
 40
0.7096774193548387
 40
0.7419354838709677
 40
0.7419354838709677
 40
0.7419354838709677
 40
0.7419354838709677
 40
0.7741935483870968
 40
0.7741935483870968
 40
0.7741935483870968
 40
0.7741935483870968
 40
0.8064516129032258
 40
0.8064516129032258
 40
0.8064516129032258
 40
0.8064516129032258
 40
0.8387096774193549
 40
0.8387096774193549
 40
0.8387096774193549
 40
0.8387096774193549
 40
0.8709677419354839
 40
0.8709677419354839
 40
0.8709677419354839
 40
0.8709677419354839
 40
0.9032258064516129
 40
0.9032258064516129
 40
0.9032258064516129
 40
0.9032258064516129
 40
0.9354838709677419
 40
0.9354838709677419
 40
0.9354838709677419
 40
0.9354838709677419
 40
1.0
 40
1.0
 40
1.0
 40
1.0
 10
15.8479
 20
15.4355
 30
0.0
 10
15.8479
 20
15.4355
 30
0.0
 10
15.8149
 20
15.6833
 30
0.0
 10
15.8149
 20
15.6833
 30
0.0
 10
15.8149
 20
15.6833
 30
0.0
 10
15.9556
 20
15.7121
 30
0.0
 10
16.0568
 20
15.7605
 30
0.0
 10
16.1188
 20
15.8286
 30
0.0
 10
16.1188
 20
15.8286
 30
0.0
 10
16.1809
 20
15.8974
 30
0.0
 10
16.2119
 20
15.9806
 30
0.0
 10
16.2119
 20
16.079
 30
0.0
 10
16.2119
 20
16.079
 30
0.0
 10
16.2119
 20
16.1955
 30
0.0
 10
16.1715
 20
16.2944
 30
0.0
 10
16.0906
 20
16.3747
 30
0.0
 10
16.0906
 20
16.3747
 30
0.0
 10
16.0097
 20
16.4548
 30
0.0
 10
15.9096
 20
16.4952
 30
0.0
 10
15.79
 20
16.4952
 30
0.0
 10
15.79
 20
16.4952
 30
0.0
 10
15.6762
 20
16.4952
 30
0.0
 10
15.5821
 20
16.458
 30
0.0
 10
15.5083
 20
16.3837
 30
0.0
 10
15.5083
 20
16.3837
 30
0.0
 10
15.4344
 20
16.309
 30
0.0
 10
15.3973
 20
16.2144
 30
0.0
 10
15.3973
 20
16.0996
 30
0.0
 10
15.3973
 20
16.0996
 30
0.0
 10
15.3973
 20
16.0525
 30
0.0
 10
15.4067
 20
15.9943
 30
0.0
 10
15.425
 20
15.9246
 30
0.0
 10
15.425
 20
15.9246
 30
0.0
 10
15.425
 20
15.9246
 30
0.0
 10
15.2073
 20
15.9524
 30
0.0
 10
15.2073
 20
15.9524
 30
0.0
 10
15.2073
 20
15.9524
 30
0.0
 10
15.2092
 20
15.9689
 30
0.0
 10
15.21
 20
15.9821
 30
0.0
 10
15.21
 20
15.9924
 30
0.0
 10
15.21
 20
15.9924
 30
0.0
 10
15.21
 20
16.0978
 30
0.0
 10
15.1823
 20
16.1928
 30
0.0
 10
15.1273
 20
16.2775
 30
0.0
 10
15.1273
 20
16.2775
 30
0.0
 10
15.0723
 20
16.362
 30
0.0
 10
14.9871
 20
16.4044
 30
0.0
 10
14.8723
 20
16.4044
 30
0.0
 10
14.8723
 20
16.4044
 30
0.0
 10
14.7815
 20
16.4044
 30
0.0
 10
14.7058
 20
16.3734
 30
0.0
 10
14.6465
 20
16.3117
 30
0.0
 10
14.6465
 20
16.3117
 30
0.0
 10
14.5868
 20
16.2502
 30
0.0
 10
14.5567
 20
16.1706
 30
0.0
 10
14.5567
 20
16.0732
 30
0.0
 10
14.5567
 20
16.0732
 30
0.0
 10
14.5567
 20
15.9768
 30
0.0
 10
14.5873
 20
15.8964
 30
0.0
 10
14.6475
 20
15.8325
 30
0.0
 10
14.6475
 20
15.8325
 30
0.0
 10
14.7081
 20
15.768
 30
0.0
 10
14.7994
 20
15.7266
 30
0.0
 10
14.9207
 20
15.7082
 30
0.0
 10
14.9207
 20
15.7082
 30
0.0
 10
14.9207
 20
15.7082
 30
0.0
 10
14.8765
 20
15.4604
 30
0.0
 10
14.8765
 20
15.4604
 30
0.0
 10
14.8765
 20
15.4604
 30
0.0
 10
14.71
 20
15.4905
 30
0.0
 10
14.5811
 20
15.5596
 30
0.0
 10
14.49
 20
15.6669
 30
0.0
 10
14.49
 20
15.6669
 30
0.0
 10
14.3987
 20
15.7746
 30
0.0
 10
14.3526
 20
15.9082
 30
0.0
 10
14.3526
 20
16.0681
 30
0.0
 10
14.3526
 20
16.0681
 30
0.0
 10
14.3526
 20
16.1782
 30
0.0
 10
14.3765
 20
16.2798
 30
0.0
 10
14.4236
 20
16.3725
 30
0.0
 10
14.4236
 20
16.3725
 30
0.0
 10
14.4712
 20
16.4651
 30
0.0
 10
14.5355
 20
16.5361
 30
0.0
 10
14.6174
 20
16.5856
 30
0.0
 10
14.6174
 20
16.5856
 30
0.0
 10
14.6992
 20
16.6344
 30
0.0
 10
14.7857
 20
16.6594
 30
0.0
 10
14.878
 20
16.6594
 30
0.0
 10
14.878
 20
16.6594
 30
0.0
 10
14.9649
 20
16.6594
 30
0.0
 10
15.0445
 20
16.6359
 30
0.0
 10
15.1165
 20
16.5888
 30
0.0
 10
15.1165
 20
16.5888
 30
0.0
 10
15.188
 20
16.5417
 30
0.0
 10
15.2449
 20
16.4726
 30
0.0
 10
15.2872
 20
16.381
 30
0.0
 10
15.2872
 20
16.381
 30
0.0
 10
15.3145
 20
16.5004
 30
0.0
 10
15.3719
 20
16.593
 30
0.0
 10
15.4589
 20
16.6594
 30
0.0
 10
15.4589
 20
16.6594
 30
0.0
 10
15.5454
 20
16.7252
 30
0.0
 10
15.6541
 20
16.7582
 30
0.0
 10
15.7844
 20
16.7582
 30
0.0
 10
15.7844
 20
16.7582
 30
0.0
 10
15.9607
 20
16.7582
 30
0.0
 10
16.1103
 20
16.6942
 30
0.0
 10
16.2331
 20
16.5653
 30
0.0
 10
16.2331
 20
16.5653
 30
0.0
 10
16.3559
 20
16.4369
 30
0.0
 10
16.417
 20
16.2741
 30
0.0
 10
16.417
 20
16.0775
 30
0.0
 10
16.417
 20
16.0775
 30
0.0
 10
16.417
 20
15.9001
 30
0.0
 10
16.3644
 20
15.7529
 30
0.0
 10
16.2585
 20
15.6358
 30
0.0
 10
16.2585
 20
15.6358
 30
0.0
 10
16.1531
 20
15.5187
 30
0.0
 10
16.0163
 20
15.4519
 30
0.0
 10
15.8479
 20
15.4355
 30
0.0
  0
SPLINE
  5
5D
330
1F
100
AcDbEntity
  8
ROUND
 62
   250
100
AcDbSpline
210
0.0
220
0.0
230
1.0
 70
    11
 71
     3
 72
    92
 73
    88
 74
     0
 42
0.0000000001
 43
0.0000000001
 40
0.0
 40
0.0
 40
0.0
 40
0.0
 40
0.0434782608695652
 40
0.0434782608695652
 40
0.0434782608695652
 40
0.0434782608695652
 40
0.0869565217391304
 40
0.0869565217391304
 40
0.0869565217391304
 40
0.0869565217391304
 40
0.1304347826086956
 40
0.1304347826086956
 40
0.1304347826086956
 40
0.1304347826086956
 40
0.1739130434782609
 40
0.1739130434782609
 40
0.1739130434782609
 40
0.1739130434782609
 40
0.2173913043478261
 40
0.2173913043478261
 40
0.2173913043478261
 40
0.2173913043478261
 40
0.2608695652173913
 40
0.2608695652173913
 40
0.2608695652173913
 40
0.2608695652173913
 40
0.3043478260869565
 40
0.3043478260869565
 40
0.3043478260869565
 40
0.3043478260869565
 40
0.3478260869565217
 40
0.3478260869565217
 40
0.3478260869565217
 40
0.3478260869565217
 40
0.391304347826087
 40
0.391304347826087
 40
0.391304347826087
 40
0.391304347826087
 40
0.4347826086956522
 40
0.4347826086956522
 40
0.4347826086956522
 40
0.4347826086956522
 40
0.4782608695652174
 40
0.4782608695652174
 40
0.4782608695652174
 40
0.4782608695652174
 40
0.5217391304347826
 40
0.5217391304347826
 40
0.5217391304347826
 40
0.5217391304347826
 40
0.5652173913043478
 40
0.5652173913043478
 40
0.5652173913043478
 40
0.5652173913043478
 40
0.6086956521739131
 40
0.6086956521739131
 40
0.6086956521739131
 40
0.6086956521739131
 40
0.6521739130434783
 40
0.6521739130434783
 40
0.6521739130434783
 40
0.6521739130434783
 40
0.6956521739130435
 40
0.6956521739130435
 40
0.6956521739130435
 40
0.6956521739130435
 40
0.7391304347826086
 40
0.7391304347826086
 40
0.7391304347826086
 40
0.7391304347826086
 40
0.782608695652174
 40
0.782608695652174
 40
0.782608695652174
 40
0.782608695652174
 40
0.8260869565217391
 40
0.8260869565217391
 40
0.8260869565217391
 40
0.8260869565217391
 40
0.8695652173913043
 40
0.8695652173913043
 40
0.8695652173913043
 40
0.8695652173913043
 40
0.9130434782608695
 40
0.9130434782608695
 40
0.9130434782608695
 40
0.9130434782608695
 40
1.0
 40
1.0
 40
1.0
 40
1.0
 10
16.1428
 20
18.3075
 30
0.0
 10
16.1428
 20
18.3075
 30
0.0
 10
16.3813
 20
18.3075
 30
0.0
 10
16.3813
 20
18.3075
 30
0.0
 10
16.3813
 20
18.3075
 30
0.0
 10
16.3813
 20
18.3075
 30
0.0
 10
16.3813
 20
16.9721
 30
0.0
 10
16.3813
 20
16.9721
 30
0.0
 10
16.3813
 20
16.9721
 30
0.0
 10
16.3215
 20
16.9703
 30
0.0
 10
16.2642
 20
16.9797
 30
0.0
 10
16.2092
 20
17.0009
 30
0.0
 10
16.2092
 20
17.0009
 30
0.0
 10
16.1179
 20
17.0348
 30
0.0
 10
16.0285
 20
17.0893
 30
0.0
 10
15.9401
 20
17.164
 30
0.0
 10
15.9401
 20
17.164
 30
0.0
 10
15.8521
 20
17.2394
 30
0.0
 10
15.75
 20
17.3475
 30
0.0
 10
15.6343
 20
17.4887
 30
0.0
 10
15.6343
 20
17.4887
 30
0.0
 10
15.4542
 20
17.7083
 30
0.0
 10
15.3117
 20
17.857
 30
0.0
 10
15.2063
 20
17.934
 30
0.0
 10
15.2063
 20
17.934
 30
0.0
 10
15.1014
 20
18.0113
 30
0.0
 10
15.0017
 20
18.0499
 30
0.0
 10
14.908
 20
18.0499
 30
0.0
 10
14.908
 20
18.0499
 30
0.0
 10
14.8098
 20
18.0499
 30
0.0
 10
14.727
 20
18.0145
 30
0.0
 10
14.6592
 20
17.9444
 30
0.0
 10
14.6592
 20
17.9444
 30
0.0
 10
14.592
 20
17.8739
 30
0.0
 10
14.5581
 20
17.7821
 30
0.0
 10
14.5581
 20
17.6693
 30
0.0
 10
14.5581
 20
17.6693
 30
0.0
 10
14.5581
 20
17.5499
 30
0.0
 10
14.5938
 20
17.4543
 30
0.0
 10
14.6658
 20
17.3828
 30
0.0
 10
14.6658
 20
17.3828
 30
0.0
 10
14.7373
 20
17.3109
 30
0.0
 10
14.8365
 20
17.2746
 30
0.0
 10
14.9631
 20
17.2736
 30
0.0
 10
14.9631
 20
17.2736
 30
0.0
 10
14.9631
 20
17.2736
 30
0.0
 10
14.9373
 20
17.0187
 30
0.0
 10
14.9373
 20
17.0187
 30
0.0
 10
14.9373
 20
17.0187
 30
0.0
 10
14.7468
 20
17.0361
 30
0.0
 10
14.6019
 20
17.102
 30
0.0
 10
14.5022
 20
17.2158
 30
0.0
 10
14.5022
 20
17.2158
 30
0.0
 10
14.4024
 20
17.3297
 30
0.0
 10
14.3526
 20
17.483
 30
0.0
 10
14.3526
 20
17.6749
 30
0.0
 10
14.3526
 20
17.6749
 30
0.0
 10
14.3526
 20
17.8687
 30
0.0
 10
14.4066
 20
18.0221
 30
0.0
 10
14.5139
 20
18.1349
 30
0.0
 10
14.5139
 20
18.1349
 30
0.0
 10
14.6216
 20
18.2483
 30
0.0
 10
14.7547
 20
18.3048
 30
0.0
 10
14.9138
 20
18.3048
 30
0.0
 10
14.9138
 20
18.3048
 30
0.0
 10
14.9946
 20
18.3048
 30
0.0
 10
15.0742
 20
18.2882
 30
0.0
 10
15.1522
 20
18.2549
 30
0.0
 10
15.1522
 20
18.2549
 30
0.0
 10
15.2303
 20
18.222
 30
0.0
 10
15.3127
 20
18.1669
 30
0.0
 10
15.3987
 20
18.0902
 30
0.0
 10
15.3987
 20
18.0902
 30
0.0
 10
15.4853
 20
18.0136
 30
0.0
 10
15.6038
 20
17.8861
 30
0.0
 10
15.7543
 20
17.7079
 30
0.0
 10
15.7543
 20
17.7079
 30
0.0
 10
15.8794
 20
17.5592
 30
0.0
 10
15.9641
 20
17.4637
 30
0.0
 10
16.0088
 20
17.4213
 30
0.0
 10
16.0088
 20
17.4213
 30
0.0
 10
16.053
 20
17.3791
 30
0.0
 10
16.0976
 20
17.3442
 30
0.0
 10
16.1428
 20
17.3165
 30
0.0
 10
16.1428
 20
17.3165
 30
0.0
 10
16.1428
 20
17.3165
 30
0.0
 10
16.1428
 20
18.3075
 30
0.0
 10
16.1428
 20
18.3075
 30
0.0
  0
SPLINE
  5
5E
330
1F
100
AcDbEntity
  8
ROUND
 62
   250
100
AcDbSpline
210
0.0
220
0.0
230
1.0
 70
    11
 71
     3
 72
    20
 73
    16
 74
     0
 42
0.0000000001
 43
0.0000000001
 40
0.0
 40
0.0
 40
0.0
 40
0.0
 40
0.2
 40
0.2
 40
0.2
 40
0.2
 40
0.4
 40
0.4
 40
0.4
 40
0.4
 40
0.6
 40
0.6
 40
0.6
 40
0.6
 40
1.0
 40
1.0
 40
1.0
 40
1.0
 10
17.7092
 20
12.742
 30
0.0
 10
17.7092
 20
12.742
 30
0.0
 10
17.2858
 20
9.7419
 30
0.0
 10
17.2858
 20
9.7419
 30
0.0
 10
17.2858
 20
9.7419
 30
0.0
 10
17.2858
 20
9.7419
 30
0.0
 10
17.1918
 20
9.7419
 30
0.0
 10
17.1918
 20
9.7419
 30
0.0
 10
17.1918
 20
9.7419
 30
0.0
 10
17.1918
 20
9.7419
 30
0.0
 10
16.7402
 20
12.742
 30
0.0
 10
16.7402
 20
12.742
 30
0.0
 10
16.7402
 20
12.742
 30
0.0
 10
16.7402
 20
12.742
 30
0.0
 10
17.7092
 20
12.742
 30
0.0
 10
17.7092
 20
12.742
 30
0.0
  0
SPLINE
  5
5F
330
1F
100
AcDbEntity
  8
ROUND
 62
   250
100
AcDbSpline
210
0.0
220
0.0
230
1.0
 70
    11
 71
     3
 72
    20
 73
    16
 74
     0
 42
0.0000000001
 43
0.0000000001
 40
0.0
 40
0.0
 40
0.0
 40
0.0
 40
0.2
 40
0.2
 40
0.2
 40
0.2
 40
0.4
 40
0.4
 40
0.4
 40
0.4
 40
0.6
 40
0.6
 40
0.6
 40
0.6
 40
1.0
 40
1.0
 40
1.0
 40
1.0
 10
16.7554
 20
-2.3855
 30
0.0
 10
16.7554
 20
-2.3855
 30
0.0
 10
17.1788
 20
0.6146
 30
0.0
 10
17.1788
 20
0.6146
 30
0.0
 10
17.1788
 20
0.6146
 30
0.0
 10
17.1788
 20
0.6146
 30
0.0
 10
17.2728
 20
0.6146
 30
0.0
 10
17.2728
 20
0.6146
 30
0.0
 10
17.2728
 20
0.6146
 30
0.0
 10
17.2728
 20
0.6146
 30
0.0
 10
17.7244
 20
-2.3855
 30
0.0
 10
17.7244
 20
-2.3855
 30
0.0
 10
17.7244
 20
-2.3855
 30
0.0
 10
17.7244
 20
-2.3855
 30
0.0
 10
16.7554
 20
-2.3855
 30
0.0
 10
16.7554
 20
-2.3855
 30
0.0
  0
SPLINE
  5
60
330
1F
100
AcDbEntity
  8
ROUND
 62
   250
100
AcDbSpline
210
0.0
220
0.0
230
1.0
 70
    11
 71
     3
 72
    20
 73
    16
 74
     0
 42
0.0000000001
 43
0.0000000001
 40
0.0
 40
0.0
 40
0.0
 40
0.0
 40
0.2
 40
0.2
 40
0.2
 40
0.2
 40
0.4
 40
0.4
 40
0.4
 40
0.4
 40
0.6
 40
0.6
 40
0.6
 40
0.6
 40
1.0
 40
1.0
 40
1.0
 40
1.0
 10
-36.656
 20
24.068
 30
0.0
 10
-36.656
 20
24.068
 30
0.0
 10
-33.656
 20
23.6446
 30
0.0
 10
-33.656
 20
23.6446
 30
0.0
 10
-33.656
 20
23.6446
 30
0.0
 10
-33.656
 20
23.6446
 30
0.0
 10
-33.656
 20
23.5506
 30
0.0
 10
-33.656
 20
23.5506
 30
0.0
 10
-33.656
 20
23.5506
 30
0.0
 10
-33.656
 20
23.5506
 30
0.0
 10
-36.656
 20
23.099
 30
0.0
 10
-36.656
 20
23.099
 30
0.0
 10
-36.656
 20
23.099
 30
0.0
 10
-36.656
 20
23.099
 30
0.0
 10
-36.656
 20
24.068
 30
0.0
 10
-36.656
 20
24.068
 30
0.0
  0
SPLINE
  5
61
330
1F
100
AcDbEntity
  8
ROUND
 62
   250
100
AcDbSpline
210
0.0
220
0.0
230
1.0
 70
    11
 71
     3
 72
    20
 73
    16
 74
     0
 42
0.0000000001
 43
0.0000000001
 40
0.0
 40
0.0
 40
0.0
 40
0.0
 40
0.2
 40
0.2
 40
0.2
 40
0.2
 40
0.4
 40
0.4
 40
0.4
 40
0.4
 40
0.6
 40
0.6
 40
0.6
 40
0.6
 40
1.0
 40
1.0
 40
1.0
 40
1.0
 10
-19.3848
 20
23.099
 30
0.0
 10
-19.3848
 20
23.099
 30
0.0
 10
-22.3848
 20
23.5224
 30
0.0
 10
-22.3848
 20
23.5224
 30
0.0
 10
-22.3848
 20
23.5224
 30
0.0
 10
-22.3848
 20
23.5224
 30
0.0
 10
-22.3848
 20
23.6164
 30
0.0
 10
-22.3848
 20
23.6164
 30
0.0
 10
-22.3848
 20
23.6164
 30
0.0
 10
-22.3848
 20
23.6164
 30
0.0
 10
-19.3848
 20
24.068
 30
0.0
 10
-19.3848
 20
24.068
 30
0.0
 10
-19.3848
 20
24.068
 30
0.0
 10
-19.3848
 20
24.068
 30
0.0
 10
-19.3848
 20
23.099
 30
0.0
 10
-19.3848
 20
23.099
 30
0.0
  0
SPLINE
  5
62
330
1F
100
AcDbEntity
  8
ROUND
 62
   250
100
AcDbSpline
210
0.0
220
0.0
230
1.0
 70
    11
 71
     3
 72
    40
 73
    36
 74
     0
 42
0.0000000001
 43
0.0000000001
 40
0.0
 40
0.0
 40
0.0
 40
0.0
 40
0.1
 40
0.1
 40
0.1
 40
0.1
 40
0.2
 40
0.2
 40
0.2
 40
0.2
 40
0.3
 40
0.3
 40
0.3
 40
0.3
 40
0.4
 40
0.4
 40
0.4
 40
0.4
 40
0.5
 40
0.5
 40
0.5
 40
0.5
 40
0.6
 40
0.6
 40
0.6
 40
0.6
 40
0.7
 40
0.7
 40
0.7
 40
0.7
 40
0.8
 40
0.8
 40
0.8
 40
0.8
 40
1.0
 40
1.0
 40
1.0
 40
1.0
 10
-42.8579
 20
-10.8078
 30
0.0
 10
-42.8579
 20
-10.8078
 30
0.0
 10
-42.8579
 20
-11.0557
 30
0.0
 10
-42.8579
 20
-11.0557
 30
0.0
 10
-42.8579
 20
-11.0557
 30
0.0
 10
-42.8579
 20
-11.0557
 30
0.0
 10
-44.4383
 20
-11.0557
 30
0.0
 10
-44.4383
 20
-11.0557
 30
0.0
 10
-44.4383
 20
-11.0557
 30
0.0
 10
-44.3814
 20
-11.1155
 30
0.0
 10
-44.3245
 20
-11.1935
 30
0.0
 10
-44.2676
 20
-11.2904
 30
0.0
 10
-44.2676
 20
-11.2904
 30
0.0
 10
-44.2107
 20
-11.3878
 30
0.0
 10
-44.1679
 20
-11.4748
 30
0.0
 10
-44.1396
 20
-11.552
 30
0.0
 10
-44.1396
 20
-11.552
 30
0.0
 10
-44.1396
 20
-11.552
 30
0.0
 10
-44.3791
 20
-11.552
 30
0.0
 10
-44.3791
 20
-11.552
 30
0.0
 10
-44.3791
 20
-11.552
 30
0.0
 10
-44.4444
 20
-11.4132
 30
0.0
 10
-44.5235
 20
-11.2918
 30
0.0
 10
-44.6161
 20
-11.1879
 30
0.0
 10
-44.6161
 20
-11.1879
 30
0.0
 10
-44.7093
 20
-11.0844
 30
0.0
 10
-44.7991
 20
-11.0106
 30
0.0
 10
-44.8866
 20
-10.9673
 30
0.0
 10
-44.8866
 20
-10.9673
 30
0.0
 10
-44.8866
 20
-10.9673
 30
0.0
 10
-44.8866
 20
-10.8078
 30
0.0
 10
-44.8866
 20
-10.8078
 30
0.0
 10
-44.8866
 20
-10.8078
 30
0.0
 10
-44.8866
 20
-10.8078
 30
0.0
 10
-42.8579
 20
-10.8078
 30
0.0
 10
-42.8579
 20
-10.8078
 30
0.0
  0
SPLINE
  5
63
330
1F
100
AcDbEntity
  8
ROUND
 62
   250
100
AcDbSpline
210
0.0
220
0.0
230
1.0
 70
    11
 71
     3
 72
    40
 73
    36
 74
     0
 42
0.0000000001
 43
0.0000000001
 40
0.0
 40
0.0
 40
0.0
 40
0.0
 40
0.1
 40
0.1
 40
0.1
 40
0.1
 40
0.2
 40
0.2
 40
0.2
 40
0.2
 40
0.3
 40
0.3
 40
0.3
 40
0.3
 40
0.4
 40
0.4
 40
0.4
 40
0.4
 40
0.5
 40
0.5
 40
0.5
 40
0.5
 40
0.6
 40
0.6
 40
0.6
 40
0.6
 40
0.7
 40
0.7
 40
0.7
 40
0.7
 40
0.8
 40
0.8
 40
0.8
 40
0.8
 40
1.0
 40
1.0
 40
1.0
 40
1.0
 10
-42.8579
 20
-9.4475
 30
0.0
 10
-42.8579
 20
-9.4475
 30
0.0
 10
-42.8579
 20
-9.6954
 30
0.0
 10
-42.8579
 20
-9.6954
 30
0.0
 10
-42.8579
 20
-9.6954
 30
0.0
 10
-42.8579
 20
-9.6954
 30
0.0
 10
-44.4383
 20
-9.6954
 30
0.0
 10
-44.4383
 20
-9.6954
 30
0.0
 10
-44.4383
 20
-9.6954
 30
0.0
 10
-44.3814
 20
-9.7552
 30
0.0
 10
-44.3245
 20
-9.8332
 30
0.0
 10
-44.2676
 20
-9.9301
 30
0.0
 10
-44.2676
 20
-9.9301
 30
0.0
 10
-44.2107
 20
-10.0275
 30
0.0
 10
-44.1679
 20
-10.1145
 30
0.0
 10
-44.1396
 20
-10.1917
 30
0.0
 10
-44.1396
 20
-10.1917
 30
0.0
 10
-44.1396
 20
-10.1917
 30
0.0
 10
-44.3791
 20
-10.1917
 30
0.0
 10
-44.3791
 20
-10.1917
 30
0.0
 10
-44.3791
 20
-10.1917
 30
0.0
 10
-44.4444
 20
-10.0529
 30
0.0
 10
-44.5235
 20
-9.9315
 30
0.0
 10
-44.6161
 20
-9.8276
 30
0.0
 10
-44.6161
 20
-9.8276
 30
0.0
 10
-44.7093
 20
-9.7241
 30
0.0
 10
-44.7991
 20
-9.6503
 30
0.0
 10
-44.8866
 20
-9.607
 30
0.0
 10
-44.8866
 20
-9.607
 30
0.0
 10
-44.8866
 20
-9.607
 30
0.0
 10
-44.8866
 20
-9.4475
 30
0.0
 10
-44.8866
 20
-9.4475
 30
0.0
 10
-44.8866
 20
-9.4475
 30
0.0
 10
-44.8866
 20
-9.4475
 30
0.0
 10
-42.8579
 20
-9.4475
 30
0.0
 10
-42.8579
 20
-9.4475
 30
0.0
  0
SPLINE
  5
64
330
1F
100
AcDbEntity
  8
ROUND
 62
   250
100
AcDbSpline
210
0.0
220
0.0
230
1.0
 70
    11
 71
     3
 72
    52
 73
    48
 74
     0
 42
0.0000000001
 43
0.0000000001
 40
0.0
 40
0.0
 40
0.0
 40
0.0
 40
0.0769230769230769
 40
0.0769230769230769
 40
0.0769230769230769
 40
0.0769230769230769
 40
0.1538461538461539
 40
0.1538461538461539
 40
0.1538461538461539
 40
0.1538461538461539
 40
0.2307692307692308
 40
0.2307692307692308
 40
0.2307692307692308
 40
0.2307692307692308
 40
0.3076923076923077
 40
0.3076923076923077
 40
0.3076923076923077
 40
0.3076923076923077
 40
0.3846153846153846
 40
0.3846153846153846
 40
0.3846153846153846
 40
0.3846153846153846
 40
0.4615384615384616
 40
0.4615384615384616
 40
0.4615384615384616
 40
0.4615384615384616
 40
0.5384615384615384
 40
0.5384615384615384
 40
0.5384615384615384
 40
0.5384615384615384
 40
0.6153846153846154
 40
0.6153846153846154
 40
0.6153846153846154
 40
0.6153846153846154
 40
0.6923076923076923
 40
0.6923076923076923
 40
0.6923076923076923
 40
0.6923076923076923
 40
0.7692307692307693
 40
0.7692307692307693
 40
0.7692307692307693
 40
0.7692307692307693
 40
0.8461538461538461
 40
0.8461538461538461
 40
0.8461538461538461
 40
0.8461538461538461
 40
1.0
 40
1.0
 40
1.0
 40
1.0
 10
-43.8541
 20
-8.8121
 30
0.0
 10
-44.0931
 20
-8.8121
 30
0.0
 10
-44.2855
 20
-8.7876
 30
0.0
 10
-44.4308
 20
-8.7382
 30
0.0
 10
-44.4308
 20
-8.7382
 30
0.0
 10
-44.5766
 20
-8.6893
 30
0.0
 10
-44.689
 20
-8.6159
 30
0.0
 10
-44.7681
 20
-8.519
 30
0.0
 10
-44.7681
 20
-8.519
 30
0.0
 10
-44.8471
 20
-8.4221
 30
0.0
 10
-44.8866
 20
-8.3003
 30
0.0
 10
-44.8866
 20
-8.1536
 30
0.0
 10
-44.8866
 20
-8.1536
 30
0.0
 10
-44.8866
 20
-8.0449
 30
0.0
 10
-44.8645
 20
-7.9499
 30
0.0
 10
-44.8207
 20
-7.8681
 30
0.0
 10
-44.8207
 20
-7.8681
 30
0.0
 10
-44.7775
 20
-7.7862
 30
0.0
 10
-44.7144
 20
-7.7189
 30
0.0
 10
-44.6321
 20
-7.6653
 30
0.0
 10
-44.6321
 20
-7.6653
 30
0.0
 10
-44.5498
 20
-7.6122
 30
0.0
 10
-44.4496
 20
-7.5703
 30
0.0
 10
-44.3316
 20
-7.5402
 30
0.0
 10
-44.3316
 20
-7.5402
 30
0.0
 10
-44.2135
 20
-7.5096
 30
0.0
 10
-44.0545
 20
-7.4946
 30
0.0
 10
-43.8541
 20
-7.4946
 30
0.0
 10
-43.8541
 20
-7.4946
 30
0.0
 10
-43.6171
 20
-7.4946
 30
0.0
 10
-43.4261
 20
-7.519
 30
0.0
 10
-43.2803
 20
-7.5675
 30
0.0
 10
-43.2803
 20
-7.5675
 30
0.0
 10
-43.1345
 20
-7.6164
 30
0.0
 10
-43.0221
 20
-7.6893
 30
0.0
 10
-42.9426
 20
-7.7862
 30
0.0
 10
-42.9426
 20
-7.7862
 30
0.0
 10
-42.8631
 20
-7.8831
 30
0.0
 10
-42.8236
 20
-8.0054
 30
0.0
 10
-42.8236
 20
-8.1536
 30
0.0
 10
-42.8236
 20
-8.1536
 30
0.0
 10
-42.8236
 20
-8.3483
 30
0.0
 10
-42.8932
 20
-8.5012
 30
0.0
 10
-43.0329
 20
-8.6122
 30
0.0
 10
-43.0329
 20
-8.6122
 30
0.0
 10
-43.2008
 20
-8.7453
 30
0.0
 10
-43.475
 20
-8.8121
 30
0.0
 10
-43.8541
 20
-8.8121
 30
0.0
  0
SPLINE
  5
65
330
1F
100
AcDbEntity
  8
ROUND
 62
   250
100
AcDbSpline
210
0.0
220
0.0
230
1.0
 70
    11
 71
     3
 72
    36
 73
    32
 74
     0
 42
0.0000000001
 43
0.0000000001
 40
0.0
 40
0.0
 40
0.0
 40
0.0
 40
0.1111111111111111
 40
0.1111111111111111
 40
0.1111111111111111
 40
0.1111111111111111
 40
0.2222222222222222
 40
0.2222222222222222
 40
0.2222222222222222
 40
0.2222222222222222
 40
0.3333333333333333
 40
0.3333333333333333
 40
0.3333333333333333
 40
0.3333333333333333
 40
0.4444444444444444
 40
0.4444444444444444
 40
0.4444444444444444
 40
0.4444444444444444
 40
0.5555555555555556
 40
0.5555555555555556
 40
0.5555555555555556
 40
0.5555555555555556
 40
0.6666666666666666
 40
0.6666666666666666
 40
0.6666666666666666
 40
0.6666666666666666
 40
0.7777777777777778
 40
0.7777777777777778
 40
0.7777777777777778
 40
0.7777777777777778
 40
1.0
 40
1.0
 40
1.0
 40
1.0
 10
-43.8541
 20
-8.5571
 30
0.0
 10
-43.5225
 20
-8.5571
 30
0.0
 10
-43.3019
 20
-8.5181
 30
0.0
 10
-43.1919
 20
-8.4405
 30
0.0
 10
-43.1919
 20
-8.4405
 30
0.0
 10
-43.0823
 20
-8.3629
 30
0.0
 10
-43.0272
 20
-8.2674
 30
0.0
 10
-43.0272
 20
-8.1536
 30
0.0
 10
-43.0272
 20
-8.1536
 30
0.0
 10
-43.0272
 20
-8.0393
 30
0.0
 10
-43.0827
 20
-7.9438
 30
0.0
 10
-43.1928
 20
-7.8662
 30
0.0
 10
-43.1928
 20
-7.8662
 30
0.0
 10
-43.3029
 20
-7.7886
 30
0.0
 10
-43.5235
 20
-7.7495
 30
0.0
 10
-43.8541
 20
-7.7495
 30
0.0
 10
-43.8541
 20
-7.7495
 30
0.0
 10
-44.1867
 20
-7.7495
 30
0.0
 10
-44.4078
 20
-7.7886
 30
0.0
 10
-44.5169
 20
-7.8662
 30
0.0
 10
-44.5169
 20
-7.8662
 30
0.0
 10
-44.6265
 20
-7.9438
 30
0.0
 10
-44.681
 20
-8.0402
 30
0.0
 10
-44.681
 20
-8.1559
 30
0.0
 10
-44.681
 20
-8.1559
 30
0.0
 10
-44.681
 20
-8.2702
 30
0.0
 10
-44.6326
 20
-8.361
 30
0.0
 10
-44.5362
 20
-8.4292
 30
0.0
 10
-44.5362
 20
-8.4292
 30
0.0
 10
-44.4134
 20
-8.5143
 30
0.0
 10
-44.1857
 20
-8.5571
 30
0.0
 10
-43.8541
 20
-8.5571
 30
0.0
  0
SPLINE
  5
66
330
1F
100
AcDbEntity
  8
ROUND
 62
   250
100
AcDbSpline
210
0.0
220
0.0
230
1.0
 70
    11
 71
     3
 72
    68
 73
    64
 74
     0
 42
0.0000000001
 43
0.0000000001
 40
0.0
 40
0.0
 40
0.0
 40
0.0
 40
0.0588235294117647
 40
0.0588235294117647
 40
0.0588235294117647
 40
0.0588235294117647
 40
0.1176470588235294
 40
0.1176470588235294
 40
0.1176470588235294
 40
0.1176470588235294
 40
0.1764705882352941
 40
0.1764705882352941
 40
0.1764705882352941
 40
0.1764705882352941
 40
0.2352941176470588
 40
0.2352941176470588
 40
0.2352941176470588
 40
0.2352941176470588
 40
0.2941176470588235
 40
0.2941176470588235
 40
0.2941176470588235
 40
0.2941176470588235
 40
0.3529411764705883
 40
0.3529411764705883
 40
0.3529411764705883
 40
0.3529411764705883
 40
0.4117647058823529
 40
0.4117647058823529
 40
0.4117647058823529
 40
0.4117647058823529
 40
0.4705882352941176
 40
0.4705882352941176
 40
0.4705882352941176
 40
0.4705882352941176
 40
0.5294117647058824
 40
0.5294117647058824
 40
0.5294117647058824
 40
0.5294117647058824
 40
0.5882352941176471
 40
0.5882352941176471
 40
0.5882352941176471
 40
0.5882352941176471
 40
0.6470588235294118
 40
0.6470588235294118
 40
0.6470588235294118
 40
0.6470588235294118
 40
0.7058823529411765
 40
0.7058823529411765
 40
0.7058823529411765
 40
0.7058823529411765
 40
0.7647058823529411
 40
0.7647058823529411
 40
0.7647058823529411
 40
0.7647058823529411
 40
0.8235294117647058
 40
0.8235294117647058
 40
0.8235294117647058
 40
0.8235294117647058
 40
0.8823529411764706
 40
0.8823529411764706
 40
0.8823529411764706
 40
0.8823529411764706
 40
1.0
 40
1.0
 40
1.0
 40
1.0
 10
-17.2786
 20
-29.1602
 30
0.0
 10
-17.3817
 20
-29.1226
 30
0.0
 10
-17.4579
 20
-29.069
 30
0.0
 10
-17.5077
 20
-28.9989
 30
0.0
 10
-17.5077
 20
-28.9989
 30
0.0
 10
-17.5571
 20
-28.9293
 30
0.0
 10
-17.582
 20
-28.8455
 30
0.0
 10
-17.582
 20
-28.7482
 30
0.0
 10
-17.582
 20
-28.7482
 30
0.0
 10
-17.582
 20
-28.601
 30
0.0
 10
-17.5293
 20
-28.4777
 30
0.0
 10
-17.4235
 20
-28.3775
 30
0.0
 10
-17.4235
 20
-28.3775
 30
0.0
 10
-17.3177
 20
-28.2773
 30
0.0
 10
-17.1775
 20
-28.227
 30
0.0
 10
-17.0021
 20
-28.227
 30
0.0
 10
-17.0021
 20
-28.227
 30
0.0
 10
-16.8257
 20
-28.227
 30
0.0
 10
-16.6836
 20
-28.2783
 30
0.0
 10
-16.5759
 20
-28.3808
 30
0.0
 10
-16.5759
 20
-28.3808
 30
0.0
 10
-16.4687
 20
-28.4834
 30
0.0
 10
-16.415
 20
-28.608
 30
0.0
 10
-16.415
 20
-28.7552
 30
0.0
 10
-16.415
 20
-28.7552
 30
0.0
 10
-16.415
 20
-28.8488
 30
0.0
 10
-16.4395
 20
-28.9302
 30
0.0
 10
-16.4884
 20
-28.9998
 30
0.0
 10
-16.4884
 20
-28.9998
 30
0.0
 10
-16.5378
 20
-29.069
 30
0.0
 10
-16.6121
 20
-29.1226
 30
0.0
 10
-16.7123
 20
-29.1602
 30
0.0
 10
-16.7123
 20
-29.1602
 30
0.0
 10
-16.5886
 20
-29.2007
 30
0.0
 10
-16.4941
 20
-29.2656
 30
0.0
 10
-16.4292
 20
-29.3559
 30
0.0
 10
-16.4292
 20
-29.3559
 30
0.0
 10
-16.3647
 20
-29.4457
 30
0.0
 10
-16.3323
 20
-29.5534
 30
0.0
 10
-16.3323
 20
-29.6781
 30
0.0
 10
-16.3323
 20
-29.6781
 30
0.0
 10
-16.3323
 20
-29.8512
 30
0.0
 10
-16.3934
 20
-29.9961
 30
0.0
 10
-16.5152
 20
-30.1136
 30
0.0
 10
-16.5152
 20
-30.1136
 30
0.0
 10
-16.6375
 20
-30.2312
 30
0.0
 10
-16.7984
 20
-30.29
 30
0.0
 10
-16.9978
 20
-30.29
 30
0.0
 10
-16.9978
 20
-30.29
 30
0.0
 10
-17.1973
 20
-30.29
 30
0.0
 10
-17.3577
 20
-30.2312
 30
0.0
 10
-17.48
 20
-30.1132
 30
0.0
 10
-17.48
 20
-30.1132
 30
0.0
 10
-17.6023
 20
-29.9951
 30
0.0
 10
-17.6634
 20
-29.8479
 30
0.0
 10
-17.6634
 20
-29.6715
 30
0.0
 10
-17.6634
 20
-29.6715
 30
0.0
 10
-17.6634
 20
-29.5403
 30
0.0
 10
-17.63
 20
-29.4302
 30
0.0
 10
-17.5632
 20
-29.3413
 30
0.0
 10
-17.5632
 20
-29.3413
 30
0.0
 10
-17.4969
 20
-29.2529
 30
0.0
 10
-17.4019
 20
-29.1922
 30
0.0
 10
-17.2786
 20
-29.1602
 30
0.0
  0
SPLINE
  5
67
330
1F
100
AcDbEntity
  8
ROUND
 62
   250
100
AcDbSpline
210
0.0
220
0.0
230
1.0
 70
    11
 71
     3
 72
    36
 73
    32
 74
     0
 42
0.0000000001
 43
0.0000000001
 40
0.0
 40
0.0
 40
0.0
 40
0.0
 40
0.1111111111111111
 40
0.1111111111111111
 40
0.1111111111111111
 40
0.1111111111111111
 40
0.2222222222222222
 40
0.2222222222222222
 40
0.2222222222222222
 40
0.2222222222222222
 40
0.3333333333333333
 40
0.3333333333333333
 40
0.3333333333333333
 40
0.3333333333333333
 40
0.4444444444444444
 40
0.4444444444444444
 40
0.4444444444444444
 40
0.4444444444444444
 40
0.5555555555555556
 40
0.5555555555555556
 40
0.5555555555555556
 40
0.5555555555555556
 40
0.6666666666666666
 40
0.6666666666666666
 40
0.6666666666666666
 40
0.6666666666666666
 40
0.7777777777777778
 40
0.7777777777777778
 40
0.7777777777777778
 40
0.7777777777777778
 40
1.0
 40
1.0
 40
1.0
 40
1.0
 10
-17.3285
 20
-28.7397
 30
0.0
 10
-17.3285
 20
-28.8352
 30
0.0
 10
-17.2975
 20
-28.9133
 30
0.0
 10
-17.2363
 20
-28.974
 30
0.0
 10
-17.2363
 20
-28.974
 30
0.0
 10
-17.1747
 20
-29.0346
 30
0.0
 10
-17.0947
 20
-29.0652
 30
0.0
 10
-16.9964
 20
-29.0652
 30
0.0
 10
-16.9964
 20
-29.0652
 30
0.0
 10
-16.9009
 20
-29.0652
 30
0.0
 10
-16.8224
 20
-29.0351
 30
0.0
 10
-16.7612
 20
-28.9749
 30
0.0
 10
-16.7612
 20
-28.9749
 30
0.0
 10
-16.7001
 20
-28.9147
 30
0.0
 10
-16.67
 20
-28.8408
 30
0.0
 10
-16.67
 20
-28.7538
 30
0.0
 10
-16.67
 20
-28.7538
 30
0.0
 10
-16.67
 20
-28.6626
 30
0.0
 10
-16.701
 20
-28.5864
 30
0.0
 10
-16.7641
 20
-28.5243
 30
0.0
 10
-16.7641
 20
-28.5243
 30
0.0
 10
-16.8271
 20
-28.4622
 30
0.0
 10
-16.9052
 20
-28.4311
 30
0.0
 10
-16.9992
 20
-28.4311
 30
0.0
 10
-16.9992
 20
-28.4311
 30
0.0
 10
-17.0938
 20
-28.4311
 30
0.0
 10
-17.1723
 20
-28.4617
 30
0.0
 10
-17.2349
 20
-28.5219
 30
0.0
 10
-17.2349
 20
-28.5219
 30
0.0
 10
-17.2975
 20
-28.5826
 30
0.0
 10
-17.3285
 20
-28.6555
 30
0.0
 10
-17.3285
 20
-28.7397
 30
0.0
  0
SPLINE
  5
68
330
1F
100
AcDbEntity
  8
ROUND
 62
   250
100
AcDbSpline
210
0.0
220
0.0
230
1.0
 70
    11
 71
     3
 72
    40
 73
    36
 74
     0
 42
0.0000000001
 43
0.0000000001
 40
0.0
 40
0.0
 40
0.0
 40
0.0
 40
0.1
 40
0.1
 40
0.1
 40
0.1
 40
0.2
 40
0.2
 40
0.2
 40
0.2
 40
0.3
 40
0.3
 40
0.3
 40
0.3
 40
0.4
 40
0.4
 40
0.4
 40
0.4
 40
0.5
 40
0.5
 40
0.5
 40
0.5
 40
0.6
 40
0.6
 40
0.6
 40
0.6
 40
0.7
 40
0.7
 40
0.7
 40
0.7
 40
0.8
 40
0.8
 40
0.8
 40
0.8
 40
1.0
 40
1.0
 40
1.0
 40
1.0
 10
-17.4085
 20
-29.6729
 30
0.0
 10
-17.4085
 20
-29.7435
 30
0.0
 10
-17.3915
 20
-29.8121
 30
0.0
 10
-17.3581
 20
-29.878
 30
0.0
 10
-17.3581
 20
-29.878
 30
0.0
 10
-17.3247
 20
-29.9443
 30
0.0
 10
-17.2749
 20
-29.9956
 30
0.0
 10
-17.2086
 20
-30.0318
 30
0.0
 10
-17.2086
 20
-30.0318
 30
0.0
 10
-17.1422
 20
-30.068
 30
0.0
 10
-17.0712
 20
-30.0864
 30
0.0
 10
-16.995
 20
-30.0864
 30
0.0
 10
-16.995
 20
-30.0864
 30
0.0
 10
-16.8765
 20
-30.0864
 30
0.0
 10
-16.7786
 20
-30.0483
 30
0.0
 10
-16.7015
 20
-29.9716
 30
0.0
 10
-16.7015
 20
-29.9716
 30
0.0
 10
-16.6244
 20
-29.8954
 30
0.0
 10
-16.5858
 20
-29.7985
 30
0.0
 10
-16.5858
 20
-29.6809
 30
0.0
 10
-16.5858
 20
-29.6809
 30
0.0
 10
-16.5858
 20
-29.5614
 30
0.0
 10
-16.6253
 20
-29.4627
 30
0.0
 10
-16.7048
 20
-29.3846
 30
0.0
 10
-16.7048
 20
-29.3846
 30
0.0
 10
-16.7843
 20
-29.3065
 30
0.0
 10
-16.884
 20
-29.2675
 30
0.0
 10
-17.0035
 20
-29.2675
 30
0.0
 10
-17.0035
 20
-29.2675
 30
0.0
 10
-17.1201
 20
-29.2675
 30
0.0
 10
-17.2166
 20
-29.306
 30
0.0
 10
-17.2932
 20
-29.3832
 30
0.0
 10
-17.2932
 20
-29.3832
 30
0.0
 10
-17.3699
 20
-29.4608
 30
0.0
 10
-17.4085
 20
-29.5572
 30
0.0
 10
-17.4085
 20
-29.6729
 30
0.0
  0
SPLINE
  5
69
330
1F
100
AcDbEntity
  8
ROUND
 62
   250
100
AcDbSpline
210
0.0
220
0.0
230
1.0
 70
    11
 71
     3
 72
    52
 73
    48
 74
     0
 42
0.0000000001
 43
0.0000000001
 40
0.0
 40
0.0
 40
0.0
 40
0.0
 40
0.0769230769230769
 40
0.0769230769230769
 40
0.0769230769230769
 40
0.0769230769230769
 40
0.1538461538461539
 40
0.1538461538461539
 40
0.1538461538461539
 40
0.1538461538461539
 40
0.2307692307692308
 40
0.2307692307692308
 40
0.2307692307692308
 40
0.2307692307692308
 40
0.3076923076923077
 40
0.3076923076923077
 40
0.3076923076923077
 40
0.3076923076923077
 40
0.3846153846153846
 40
0.3846153846153846
 40
0.3846153846153846
 40
0.3846153846153846
 40
0.4615384615384616
 40
0.4615384615384616
 40
0.4615384615384616
 40
0.4615384615384616
 40
0.5384615384615384
 40
0.5384615384615384
 40
0.5384615384615384
 40
0.5384615384615384
 40
0.6153846153846154
 40
0.6153846153846154
 40
0.6153846153846154
 40
0.6153846153846154
 40
0.6923076923076923
 40
0.6923076923076923
 40
0.6923076923076923
 40
0.6923076923076923
 40
0.7692307692307693
 40
0.7692307692307693
 40
0.7692307692307693
 40
0.7692307692307693
 40
0.8461538461538461
 40
0.8461538461538461
 40
0.8461538461538461
 40
0.8461538461538461
 40
1.0
 40
1.0
 40
1.0
 40
1.0
 10
-16.091
 20
-29.2595
 30
0.0
 10
-16.091
 20
-29.0205
 30
0.0
 10
-16.0665
 20
-28.8281
 30
0.0
 10
-16.0171
 20
-28.6828
 30
0.0
 10
-16.0171
 20
-28.6828
 30
0.0
 10
-15.9682
 20
-28.537
 30
0.0
 10
-15.8948
 20
-28.4246
 30
0.0
 10
-15.7979
 20
-28.3455
 30
0.0
 10
-15.7979
 20
-28.3455
 30
0.0
 10
-15.701
 20
-28.2665
 30
0.0
 10
-15.5792
 20
-28.227
 30
0.0
 10
-15.4325
 20
-28.227
 30
0.0
 10
-15.4325
 20
-28.227
 30
0.0
 10
-15.3238
 20
-28.227
 30
0.0
 10
-15.2288
 20
-28.2491
 30
0.0
 10
-15.147
 20
-28.2929
 30
0.0
 10
-15.147
 20
-28.2929
 30
0.0
 10
-15.0651
 20
-28.3361
 30
0.0
 10
-14.9978
 20
-28.3992
 30
0.0
 10
-14.9442
 20
-28.4815
 30
0.0
 10
-14.9442
 20
-28.4815
 30
0.0
 10
-14.8911
 20
-28.5638
 30
0.0
 10
-14.8492
 20
-28.664
 30
0.0
 10
-14.8191
 20
-28.782
 30
0.0
 10
-14.8191
 20
-28.782
 30
0.0
 10
-14.7885
 20
-28.9001
 30
0.0
 10
-14.7735
 20
-29.0591
 30
0.0
 10
-14.7735
 20
-29.2595
 30
0.0
 10
-14.7735
 20
-29.2595
 30
0.0
 10
-14.7735
 20
-29.4965
 30
0.0
 10
-14.7979
 20
-29.6875
 30
0.0
 10
-14.8464
 20
-29.8333
 30
0.0
 10
-14.8464
 20
-29.8333
 30
0.0
 10
-14.8953
 20
-29.9791
 30
0.0
 10
-14.9682
 20
-30.0915
 30
0.0
 10
-15.0651
 20
-30.171
 30
0.0
 10
-15.0651
 20
-30.171
 30
0.0
 10
-15.162
 20
-30.2505
 30
0.0
 10
-15.2843
 20
-30.29
 30
0.0
 10
-15.4325
 20
-30.29
 30
0.0
 10
-15.4325
 20
-30.29
 30
0.0
 10
-15.6272
 20
-30.29
 30
0.0
 10
-15.7801
 20
-30.2204
 30
0.0
 10
-15.8911
 20
-30.0807
 30
0.0
 10
-15.8911
 20
-30.0807
 30
0.0
 10
-16.0242
 20
-29.9128
 30
0.0
 10
-16.091
 20
-29.6386
 30
0.0
 10
-16.091
 20
-29.2595
 30
0.0
  0
SPLINE
  5
6A
330
1F
100
AcDbEntity
  8
ROUND
 62
   250
100
AcDbSpline
210
0.0
220
0.0
230
1.0
 70
    11
 71
     3
 72
    36
 73
    32
 74
     0
 42
0.0000000001
 43
0.0000000001
 40
0.0
 40
0.0
 40
0.0
 40
0.0
 40
0.1111111111111111
 40
0.1111111111111111
 40
0.1111111111111111
 40
0.1111111111111111
 40
0.2222222222222222
 40
0.2222222222222222
 40
0.2222222222222222
 40
0.2222222222222222
 40
0.3333333333333333
 40
0.3333333333333333
 40
0.3333333333333333
 40
0.3333333333333333
 40
0.4444444444444444
 40
0.4444444444444444
 40
0.4444444444444444
 40
0.4444444444444444
 40
0.5555555555555556
 40
0.5555555555555556
 40
0.5555555555555556
 40
0.5555555555555556
 40
0.6666666666666666
 40
0.6666666666666666
 40
0.6666666666666666
 40
0.6666666666666666
 40
0.7777777777777778
 40
0.7777777777777778
 40
0.7777777777777778
 40
0.7777777777777778
 40
1.0
 40
1.0
 40
1.0
 40
1.0
 10
-15.836
 20
-29.2595
 30
0.0
 10
-15.836
 20
-29.5911
 30
0.0
 10
-15.797
 20
-29.8117
 30
0.0
 10
-15.7194
 20
-29.9217
 30
0.0
 10
-15.7194
 20
-29.9217
 30
0.0
 10
-15.6418
 20
-30.0313
 30
0.0
 10
-15.5463
 20
-30.0864
 30
0.0
 10
-15.4325
 20
-30.0864
 30
0.0
 10
-15.4325
 20
-30.0864
 30
0.0
 10
-15.3182
 20
-30.0864
 30
0.0
 10
-15.2227
 20
-30.0309
 30
0.0
 10
-15.1451
 20
-29.9208
 30
0.0
 10
-15.1451
 20
-29.9208
 30
0.0
 10
-15.0675
 20
-29.8107
 30
0.0
 10
-15.0284
 20
-29.5901
 30
0.0
 10
-15.0284
 20
-29.2595
 30
0.0
 10
-15.0284
 20
-29.2595
 30
0.0
 10
-15.0284
 20
-28.9269
 30
0.0
 10
-15.0675
 20
-28.7058
 30
0.0
 10
-15.1451
 20
-28.5967
 30
0.0
 10
-15.1451
 20
-28.5967
 30
0.0
 10
-15.2227
 20
-28.4871
 30
0.0
 10
-15.3191
 20
-28.4326
 30
0.0
 10
-15.4348
 20
-28.4326
 30
0.0
 10
-15.4348
 20
-28.4326
 30
0.0
 10
-15.5491
 20
-28.4326
 30
0.0
 10
-15.6399
 20
-28.481
 30
0.0
 10
-15.7081
 20
-28.5774
 30
0.0
 10
-15.7081
 20
-28.5774
 30
0.0
 10
-15.7932
 20
-28.7002
 30
0.0
 10
-15.836
 20
-28.9279
 30
0.0
 10
-15.836
 20
-29.2595
 30
0.0
  0
SPLINE
  5
6B
330
1F
100
AcDbEntity
  8
ROUND
 62
   250
100
AcDbSpline
210
0.0
220
0.0
230
1.0
 70
    11
 71
     3
 72
   120
 73
   116
 74
     0
 42
0.0000000001
 43
0.0000000001
 40
0.0
 40
0.0
 40
0.0
 40
0.0
 40
0.0333333333333333
 40
0.0333333333333333
 40
0.0333333333333333
 40
0.0333333333333333
 40
0.0666666666666667
 40
0.0666666666666667
 40
0.0666666666666667
 40
0.0666666666666667
 40
0.1
 40
0.1
 40
0.1
 40
0.1
 40
0.1333333333333333
 40
0.1333333333333333
 40
0.1333333333333333
 40
0.1333333333333333
 40
0.1666666666666667
 40
0.1666666666666667
 40
0.1666666666666667
 40
0.1666666666666667
 40
0.2
 40
0.2
 40
0.2
 40
0.2
 40
0.2333333333333333
 40
0.2333333333333333
 40
0.2333333333333333
 40
0.2333333333333333
 40
0.2666666666666667
 40
0.2666666666666667
 40
0.2666666666666667
 40
0.2666666666666667
 40
0.3
 40
0.3
 40
0.3
 40
0.3
 40
0.3333333333333333
 40
0.3333333333333333
 40
0.3333333333333333
 40
0.3333333333333333
 40
0.3666666666666666
 40
0.3666666666666666
 40
0.3666666666666666
 40
0.3666666666666666
 40
0.4
 40
0.4
 40
0.4
 40
0.4
 40
0.4333333333333333
 40
0.4333333333333333
 40
0.4333333333333333
 40
0.4333333333333333
 40
0.4666666666666667
 40
0.4666666666666667
 40
0.4666666666666667
 40
0.4666666666666667
 40
0.5
 40
0.5
 40
0.5
 40
0.5
 40
0.5333333333333333
 40
0.5333333333333333
 40
0.5333333333333333
 40
0.5333333333333333
 40
0.5666666666666667
 40
0.5666666666666667
 40
0.5666666666666667
 40
0.5666666666666667
 40
0.6
 40
0.6
 40
0.6
 40
0.6
 40
0.6333333333333333
 40
0.6333333333333333
 40
0.6333333333333333
 40
0.6333333333333333
 40
0.6666666666666666
 40
0.6666666666666666
 40
0.6666666666666666
 40
0.6666666666666666
 40
0.7
 40
0.7
 40
0.7
 40
0.7
 40
0.7333333333333333
 40
0.7333333333333333
 40
0.7333333333333333
 40
0.7333333333333333
 40
0.7666666666666667
 40
0.7666666666666667
 40
0.7666666666666667
 40
0.7666666666666667
 40
0.8
 40
0.8
 40
0.8
 40
0.8
 40
0.8333333333333334
 40
0.8333333333333334
 40
0.8333333333333334
 40
0.8333333333333334
 40
0.8666666666666667
 40
0.8666666666666667
 40
0.8666666666666667
 40
0.8666666666666667
 40
0.9
 40
0.9
 40
0.9
 40
0.9
 40
0.9333333333333333
 40
0.9333333333333333
 40
0.9333333333333333
 40
0.9333333333333333
 40
1.0
 40
1.0
 40
1.0
 40
1.0
 10
-30.124
 20
24.9179
 30
0.0
 10
-30.124
 20
24.9179
 30
0.0
 10
-30.124
 20
25.1545
 30
0.0
 10
-30.124
 20
25.1545
 30
0.0
 10
-30.124
 20
25.1545
 30
0.0
 10
-30.124
 20
25.1545
 30
0.0
 10
-29.2684
 20
25.1559
 30
0.0
 10
-29.2684
 20
25.1559
 30
0.0
 10
-29.2684
 20
25.1559
 30
0.0
 10
-29.2684
 20
25.1559
 30
0.0
 10
-29.2684
 20
24.4066
 30
0.0
 10
-29.2684
 20
24.4066
 30
0.0
 10
-29.2684
 20
24.4066
 30
0.0
 10
-29.3996
 20
24.3017
 30
0.0
 10
-29.5351
 20
24.2231
 30
0.0
 10
-29.6748
 20
24.17
 30
0.0
 10
-29.6748
 20
24.17
 30
0.0
 10
-29.8145
 20
24.1173
 30
0.0
 10
-29.9579
 20
24.091
 30
0.0
 10
-30.1047
 20
24.091
 30
0.0
 10
-30.1047
 20
24.091
 30
0.0
 10
-30.3032
 20
24.091
 30
0.0
 10
-30.4838
 20
24.1333
 30
0.0
 10
-30.6456
 20
24.2184
 30
0.0
 10
-30.6456
 20
24.2184
 30
0.0
 10
-30.8079
 20
24.3031
 30
0.0
 10
-30.9302
 20
24.4263
 30
0.0
 10
-31.013
 20
24.5867
 30
0.0
 10
-31.013
 20
24.5867
 30
0.0
 10
-31.0958
 20
24.7476
 30
0.0
 10
-31.1372
 20
24.9273
 30
0.0
 10
-31.1372
 20
25.1258
 30
0.0
 10
-31.1372
 20
25.1258
 30
0.0
 10
-31.1372
 20
25.3224
 30
0.0
 10
-31.0958
 20
25.5058
 30
0.0
 10
-31.0134
 20
25.6761
 30
0.0
 10
-31.0134
 20
25.6761
 30
0.0
 10
-30.9316
 20
25.8468
 30
0.0
 10
-30.8131
 20
25.9734
 30
0.0
 10
-30.6588
 20
26.0562
 30
0.0
 10
-30.6588
 20
26.0562
 30
0.0
 10
-30.5045
 20
26.1385
 30
0.0
 10
-30.3267
 20
26.1799
 30
0.0
 10
-30.1254
 20
26.1799
 30
0.0
 10
-30.1254
 20
26.1799
 30
0.0
 10
-29.9796
 20
26.1799
 30
0.0
 10
-29.8474
 20
26.1563
 30
0.0
 10
-29.7293
 20
26.1088
 30
0.0
 10
-29.7293
 20
26.1088
 30
0.0
 10
-29.6113
 20
26.0618
 30
0.0
 10
-29.5186
 20
25.9959
 30
0.0
 10
-29.4518
 20
25.9113
 30
0.0
 10
-29.4518
 20
25.9113
 30
0.0
 10
-29.3846
 20
25.8266
 30
0.0
 10
-29.3338
 20
25.7166
 30
0.0
 10
-29.2985
 20
25.5806
 30
0.0
 10
-29.2985
 20
25.5806
 30
0.0
 10
-29.2985
 20
25.5806
 30
0.0
 10
-29.5398
 20
25.5143
 30
0.0
 10
-29.5398
 20
25.5143
 30
0.0
 10
-29.5398
 20
25.5143
 30
0.0
 10
-29.5704
 20
25.6173
 30
0.0
 10
-29.608
 20
25.6982
 30
0.0
 10
-29.6527
 20
25.757
 30
0.0
 10
-29.6527
 20
25.757
 30
0.0
 10
-29.6978
 20
25.8158
 30
0.0
 10
-29.7623
 20
25.8628
 30
0.0
 10
-29.846
 20
25.8981
 30
0.0
 10
-29.846
 20
25.8981
 30
0.0
 10
-29.9293
 20
25.9334
 30
0.0
 10
-30.0224
 20
25.9513
 30
0.0
 10
-30.124
 20
25.9513
 30
0.0
 10
-30.124
 20
25.9513
 30
0.0
 10
-30.2463
 20
25.9513
 30
0.0
 10
-30.3521
 20
25.9324
 30
0.0
 10
-30.441
 20
25.8953
 30
0.0
 10
-30.441
 20
25.8953
 30
0.0
 10
-30.5304
 20
25.8581
 30
0.0
 10
-30.6019
 20
25.8092
 30
0.0
 10
-30.6569
 20
25.7485
 30
0.0
 10
-30.6569
 20
25.7485
 30
0.0
 10
-30.7115
 20
25.6879
 30
0.0
 10
-30.7538
 20
25.6215
 30
0.0
 10
-30.7844
 20
25.5486
 30
0.0
 10
-30.7844
 20
25.5486
 30
0.0
 10
-30.8356
 20
25.424
 30
0.0
 10
-30.8615
 20
25.2885
 30
0.0
 10
-30.8615
 20
25.1422
 30
0.0
 10
-30.8615
 20
25.1422
 30
0.0
 10
-30.8615
 20
24.9621
 30
0.0
 10
-30.8305
 20
24.8116
 30
0.0
 10
-30.7684
 20
24.6902
 30
0.0
 10
-30.7684
 20
24.6902
 30
0.0
 10
-30.7063
 20
24.5689
 30
0.0
 10
-30.616
 20
24.479
 30
0.0
 10
-30.4975
 20
24.4202
 30
0.0
 10
-30.4975
 20
24.4202
 30
0.0
 10
-30.3789
 20
24.3614
 30
0.0
 10
-30.2533
 20
24.3318
 30
0.0
 10
-30.1202
 20
24.3318
 30
0.0
 10
-30.1202
 20
24.3318
 30
0.0
 10
-30.004
 20
24.3318
 30
0.0
 10
-29.8912
 20
24.3544
 30
0.0
 10
-29.7811
 20
24.3991
 30
0.0
 10
-29.7811
 20
24.3991
 30
0.0
 10
-29.6705
 20
24.4433
 30
0.0
 10
-29.5873
 20
24.4908
 30
0.0
 10
-29.5304
 20
24.5416
 30
0.0
 10
-29.5304
 20
24.5416
 30
0.0
 10
-29.5304
 20
24.5416
 30
0.0
 10
-29.5304
 20
24.9179
 30
0.0
 10
-29.5304
 20
24.9179
 30
0.0
 10
-29.5304
 20
24.9179
 30
0.0
 10
-29.5304
 20
24.9179
 30
0.0
 10
-30.124
 20
24.9179
 30
0.0
 10
-30.124
 20
24.9179
 30
0.0
  0
SPLINE
  5
6C
330
1F
100
AcDbEntity
  8
ROUND
 62
   250
100
AcDbSpline
210
0.0
220
0.0
230
1.0
 70
    11
 71
     3
 72
    92
 73
    88
 74
     0
 42
0.0000000001
 43
0.0000000001
 40
0.0
 40
0.0
 40
0.0
 40
0.0
 40
0.0434782608695652
 40
0.0434782608695652
 40
0.0434782608695652
 40
0.0434782608695652
 40
0.0869565217391304
 40
0.0869565217391304
 40
0.0869565217391304
 40
0.0869565217391304
 40
0.1304347826086956
 40
0.1304347826086956
 40
0.1304347826086956
 40
0.1304347826086956
 40
0.1739130434782609
 40
0.1739130434782609
 40
0.1739130434782609
 40
0.1739130434782609
 40
0.2173913043478261
 40
0.2173913043478261
 40
0.2173913043478261
 40
0.2173913043478261
 40
0.2608695652173913
 40
0.2608695652173913
 40
0.2608695652173913
 40
0.2608695652173913
 40
0.3043478260869565
 40
0.3043478260869565
 40
0.3043478260869565
 40
0.3043478260869565
 40
0.3478260869565217
 40
0.3478260869565217
 40
0.3478260869565217
 40
0.3478260869565217
 40
0.391304347826087
 40
0.391304347826087
 40
0.391304347826087
 40
0.391304347826087
 40
0.4347826086956522
 40
0.4347826086956522
 40
0.4347826086956522
 40
0.4347826086956522
 40
0.4782608695652174
 40
0.4782608695652174
 40
0.4782608695652174
 40
0.4782608695652174
 40
0.5217391304347826
 40
0.5217391304347826
 40
0.5217391304347826
 40
0.5217391304347826
 40
0.5652173913043478
 40
0.5652173913043478
 40
0.5652173913043478
 40
0.5652173913043478
 40
0.6086956521739131
 40
0.6086956521739131
 40
0.6086956521739131
 40
0.6086956521739131
 40
0.6521739130434783
 40
0.6521739130434783
 40
0.6521739130434783
 40
0.6521739130434783
 40
0.6956521739130435
 40
0.6956521739130435
 40
0.6956521739130435
 40
0.6956521739130435
 40
0.7391304347826086
 40
0.7391304347826086
 40
0.7391304347826086
 40
0.7391304347826086
 40
0.782608695652174
 40
0.782608695652174
 40
0.782608695652174
 40
0.782608695652174
 40
0.8260869565217391
 40
0.8260869565217391
 40
0.8260869565217391
 40
0.8260869565217391
 40
0.8695652173913043
 40
0.8695652173913043
 40
0.8695652173913043
 40
0.8695652173913043
 40
0.9130434782608695
 40
0.9130434782608695
 40
0.9130434782608695
 40
0.9130434782608695
 40
1.0
 40
1.0
 40
1.0
 40
1.0
 10
-28.1908
 20
24.6545
 30
0.0
 10
-28.1908
 20
24.6545
 30
0.0
 10
-27.9302
 20
24.6766
 30
0.0
 10
-27.9302
 20
24.6766
 30
0.0
 10
-27.9302
 20
24.6766
 30
0.0
 10
-27.9109
 20
24.5496
 30
0.0
 10
-27.8662
 20
24.4546
 30
0.0
 10
-27.7961
 20
24.3906
 30
0.0
 10
-27.7961
 20
24.3906
 30
0.0
 10
-27.7256
 20
24.3266
 30
0.0
 10
-27.6409
 20
24.2946
 30
0.0
 10
-27.5417
 20
24.2946
 30
0.0
 10
-27.5417
 20
24.2946
 30
0.0
 10
-27.4222
 20
24.2946
 30
0.0
 10
-27.3211
 20
24.3398
 30
0.0
 10
-27.2388
 20
24.4296
 30
0.0
 10
-27.2388
 20
24.4296
 30
0.0
 10
-27.156
 20
24.5199
 30
0.0
 10
-27.1146
 20
24.6394
 30
0.0
 10
-27.1146
 20
24.788
 30
0.0
 10
-27.1146
 20
24.788
 30
0.0
 10
-27.1146
 20
24.9296
 30
0.0
 10
-27.1541
 20
25.0411
 30
0.0
 10
-27.2336
 20
25.1229
 30
0.0
 10
-27.2336
 20
25.1229
 30
0.0
 10
-27.3131
 20
25.2048
 30
0.0
 10
-27.417
 20
25.2457
 30
0.0
 10
-27.5459
 20
25.2457
 30
0.0
 10
-27.5459
 20
25.2457
 30
0.0
 10
-27.6259
 20
25.2457
 30
0.0
 10
-27.6978
 20
25.2274
 30
0.0
 10
-27.7623
 20
25.1912
 30
0.0
 10
-27.7623
 20
25.1912
 30
0.0
 10
-27.8267
 20
25.1549
 30
0.0
 10
-27.877
 20
25.1079
 30
0.0
 10
-27.9137
 20
25.05
 30
0.0
 10
-27.9137
 20
25.05
 30
0.0
 10
-27.9137
 20
25.05
 30
0.0
 10
-28.1466
 20
25.0801
 30
0.0
 10
-28.1466
 20
25.0801
 30
0.0
 10
-28.1466
 20
25.0801
 30
0.0
 10
-28.1466
 20
25.0801
 30
0.0
 10
-27.9509
 20
26.1178
 30
0.0
 10
-27.9509
 20
26.1178
 30
0.0
 10
-27.9509
 20
26.1178
 30
0.0
 10
-27.9509
 20
26.1178
 30
0.0
 10
-26.9462
 20
26.1178
 30
0.0
 10
-26.9462
 20
26.1178
 30
0.0
 10
-26.9462
 20
26.1178
 30
0.0
 10
-26.9462
 20
26.1178
 30
0.0
 10
-26.9462
 20
25.8807
 30
0.0
 10
-26.9462
 20
25.8807
 30
0.0
 10
-26.9462
 20
25.8807
 30
0.0
 10
-26.9462
 20
25.8807
 30
0.0
 10
-27.7524
 20
25.8807
 30
0.0
 10
-27.7524
 20
25.8807
 30
0.0
 10
-27.7524
 20
25.8807
 30
0.0
 10
-27.7524
 20
25.8807
 30
0.0
 10
-27.8615
 20
25.3379
 30
0.0
 10
-27.8615
 20
25.3379
 30
0.0
 10
-27.8615
 20
25.3379
 30
0.0
 10
-27.7402
 20
25.4226
 30
0.0
 10
-27.6127
 20
25.4649
 30
0.0
 10
-27.4796
 20
25.4649
 30
0.0
 10
-27.4796
 20
25.4649
 30
0.0
 10
-27.3032
 20
25.4649
 30
0.0
 10
-27.1546
 20
25.4038
 30
0.0
 10
-27.0332
 20
25.2815
 30
0.0
 10
-27.0332
 20
25.2815
 30
0.0
 10
-26.9119
 20
25.1592
 30
0.0
 10
-26.8512
 20
25.0021
 30
0.0
 10
-26.8512
 20
24.8102
 30
0.0
 10
-26.8512
 20
24.8102
 30
0.0
 10
-26.8512
 20
24.6272
 30
0.0
 10
-26.9048
 20
24.4691
 30
0.0
 10
-27.0111
 20
24.336
 30
0.0
 10
-27.0111
 20
24.336
 30
0.0
 10
-27.1409
 20
24.1728
 30
0.0
 10
-27.3178
 20
24.091
 30
0.0
 10
-27.5417
 20
24.091
 30
0.0
 10
-27.5417
 20
24.091
 30
0.0
 10
-27.7256
 20
24.091
 30
0.0
 10
-27.8756
 20
24.1422
 30
0.0
 10
-27.9918
 20
24.2452
 30
0.0
 10
-27.9918
 20
24.2452
 30
0.0
 10
-28.108
 20
24.3483
 30
0.0
 10
-28.1743
 20
24.4847
 30
0.0
 10
-28.1908
 20
24.6545
 30
0.0
  0
SPLINE
  5
6D
330
1F
100
AcDbEntity
  8
ROUND
 62
   250
100
AcDbSpline
210
0.0
220
0.0
230
1.0
 70
    11
 71
     3
 72
    20
 73
    16
 74
     0
 42
0.0000000001
 43
0.0000000001
 40
0.0
 40
0.0
 40
0.0
 40
0.0
 40
0.2
 40
0.2
 40
0.2
 40
0.2
 40
0.4
 40
0.4
 40
0.4
 40
0.4
 40
0.6
 40
0.6
 40
0.6
 40
0.6
 40
1.0
 40
1.0
 40
1.0
 40
1.0
 10
-26.7383
 20
24.091
 30
0.0
 10
-26.7383
 20
24.091
 30
0.0
 10
-26.1527
 20
26.1799
 30
0.0
 10
-26.1527
 20
26.1799
 30
0.0
 10
-26.1527
 20
26.1799
 30
0.0
 10
-26.1527
 20
26.1799
 30
0.0
 10
-25.9542
 20
26.1799
 30
0.0
 10
-25.9542
 20
26.1799
 30
0.0
 10
-25.9542
 20
26.1799
 30
0.0
 10
-25.9542
 20
26.1799
 30
0.0
 10
-26.5384
 20
24.091
 30
0.0
 10
-26.5384
 20
24.091
 30
0.0
 10
-26.5384
 20
24.091
 30
0.0
 10
-26.5384
 20
24.091
 30
0.0
 10
-26.7383
 20
24.091
 30
0.0
 10
-26.7383
 20
24.091
 30
0.0
  0
SPLINE
  5
6E
330
1F
100
AcDbEntity
  8
ROUND
 62
   250
100
AcDbSpline
210
0.0
220
0.0
230
1.0
 70
    11
 71
     3
 72
    48
 73
    44
 74
     0
 42
0.0000000001
 43
0.0000000001
 40
0.0
 40
0.0
 40
0.0
 40
0.0
 40
0.0833333333333333
 40
0.0833333333333333
 40
0.0833333333333333
 40
0.0833333333333333
 40
0.1666666666666667
 40
0.1666666666666667
 40
0.1666666666666667
 40
0.1666666666666667
 40
0.25
 40
0.25
 40
0.25
 40
0.25
 40
0.3333333333333333
 40
0.3333333333333333
 40
0.3333333333333333
 40
0.3333333333333333
 40
0.4166666666666667
 40
0.4166666666666667
 40
0.4166666666666667
 40
0.4166666666666667
 40
0.5
 40
0.5
 40
0.5
 40
0.5
 40
0.5833333333333334
 40
0.5833333333333334
 40
0.5833333333333334
 40
0.5833333333333334
 40
0.6666666666666666
 40
0.6666666666666666
 40
0.6666666666666666
 40
0.6666666666666666
 40
0.75
 40
0.75
 40
0.75
 40
0.75
 40
0.8333333333333334
 40
0.8333333333333334
 40
0.8333333333333334
 40
0.8333333333333334
 40
1.0
 40
1.0
 40
1.0
 40
1.0
 10
-25.0422
 20
24.1253
 30
0.0
 10
-25.0422
 20
24.1253
 30
0.0
 10
-25.0422
 20
24.6088
 30
0.0
 10
-25.0422
 20
24.6088
 30
0.0
 10
-25.0422
 20
24.6088
 30
0.0
 10
-25.0422
 20
24.6088
 30
0.0
 10
-25.9185
 20
24.6088
 30
0.0
 10
-25.9185
 20
24.6088
 30
0.0
 10
-25.9185
 20
24.6088
 30
0.0
 10
-25.9185
 20
24.6088
 30
0.0
 10
-25.9185
 20
24.8365
 30
0.0
 10
-25.9185
 20
24.8365
 30
0.0
 10
-25.9185
 20
24.8365
 30
0.0
 10
-25.9185
 20
24.8365
 30
0.0
 10
-24.9965
 20
26.1455
 30
0.0
 10
-24.9965
 20
26.1455
 30
0.0
 10
-24.9965
 20
26.1455
 30
0.0
 10
-24.9965
 20
26.1455
 30
0.0
 10
-24.7938
 20
26.1455
 30
0.0
 10
-24.7938
 20
26.1455
 30
0.0
 10
-24.7938
 20
26.1455
 30
0.0
 10
-24.7938
 20
26.1455
 30
0.0
 10
-24.7938
 20
24.8365
 30
0.0
 10
-24.7938
 20
24.8365
 30
0.0
 10
-24.7938
 20
24.8365
 30
0.0
 10
-24.7938
 20
24.8365
 30
0.0
 10
-24.521
 20
24.8365
 30
0.0
 10
-24.521
 20
24.8365
 30
0.0
 10
-24.521
 20
24.8365
 30
0.0
 10
-24.521
 20
24.8365
 30
0.0
 10
-24.521
 20
24.6088
 30
0.0
 10
-24.521
 20
24.6088
 30
0.0
 10
-24.521
 20
24.6088
 30
0.0
 10
-24.521
 20
24.6088
 30
0.0
 10
-24.7938
 20
24.6088
 30
0.0
 10
-24.7938
 20
24.6088
 30
0.0
 10
-24.7938
 20
24.6088
 30
0.0
 10
-24.7938
 20
24.6088
 30
0.0
 10
-24.7938
 20
24.1253
 30
0.0
 10
-24.7938
 20
24.1253
 30
0.0
 10
-24.7938
 20
24.1253
 30
0.0
 10
-24.7938
 20
24.1253
 30
0.0
 10
-25.0422
 20
24.1253
 30
0.0
 10
-25.0422
 20
24.1253
 30
0.0
  0
SPLINE
  5
6F
330
1F
100
AcDbEntity
  8
ROUND
 62
   250
100
AcDbSpline
210
0.0
220
0.0
230
1.0
 70
    11
 71
     3
 72
    16
 73
    12
 74
     0
 42
0.0000000001
 43
0.0000000001
 40
0.0
 40
0.0
 40
0.0
 40
0.0
 40
0.25
 40
0.25
 40
0.25
 40
0.25
 40
0.5
 40
0.5
 40
0.5
 40
0.5
 40
1.0
 40
1.0
 40
1.0
 40
1.0
 10
-25.0422
 20
24.8365
 30
0.0
 10
-25.0422
 20
24.8365
 30
0.0
 10
-25.0422
 20
25.7471
 30
0.0
 10
-25.0422
 20
25.7471
 30
0.0
 10
-25.0422
 20
25.7471
 30
0.0
 10
-25.0422
 20
25.7471
 30
0.0
 10
-25.6743
 20
24.8365
 30
0.0
 10
-25.6743
 20
24.8365
 30
0.0
 10
-25.6743
 20
24.8365
 30
0.0
 10
-25.6743
 20
24.8365
 30
0.0
 10
-25.0422
 20
24.8365
 30
0.0
 10
-25.0422
 20
24.8365
 30
0.0
  0
SPLINE
  5
70
330
1F
100
AcDbEntity
  8
ROUND
 62
   250
100
AcDbSpline
210
0.0
220
0.0
230
1.0
 70
    11
 71
     3
 72
    28
 73
    24
 74
     0
 42
0.0000000001
 43
0.0000000001
 40
0.0
 40
0.0
 40
0.0
 40
0.0
 40
0.1428571428571428
 40
0.1428571428571428
 40
0.1428571428571428
 40
0.1428571428571428
 40
0.2857142857142857
 40
0.2857142857142857
 40
0.2857142857142857
 40
0.2857142857142857
 40
0.4285714285714285
 40
0.4285714285714285
 40
0.4285714285714285
 40
0.4285714285714285
 40
0.5714285714285714
 40
0.5714285714285714
 40
0.5714285714285714
 40
0.5714285714285714
 40
0.7142857142857143
 40
0.7142857142857143
 40
0.7142857142857143
 40
0.7142857142857143
 40
1.0
 40
1.0
 40
1.0
 40
1.0
 10
-24.1861
 20
25.4301
 30
0.0
 10
-24.1861
 20
25.4301
 30
0.0
 10
-24.2552
 20
25.8149
 30
0.0
 10
-24.2552
 20
25.8149
 30
0.0
 10
-24.2552
 20
25.8149
 30
0.0
 10
-24.2552
 20
25.8149
 30
0.0
 10
-24.2552
 20
26.1455
 30
0.0
 10
-24.2552
 20
26.1455
 30
0.0
 10
-24.2552
 20
26.1455
 30
0.0
 10
-24.2552
 20
26.1455
 30
0.0
 10
-23.9726
 20
26.1455
 30
0.0
 10
-23.9726
 20
26.1455
 30
0.0
 10
-23.9726
 20
26.1455
 30
0.0
 10
-23.9726
 20
26.1455
 30
0.0
 10
-23.9726
 20
25.8149
 30
0.0
 10
-23.9726
 20
25.8149
 30
0.0
 10
-23.9726
 20
25.8149
 30
0.0
 10
-23.9726
 20
25.8149
 30
0.0
 10
-24.0346
 20
25.4301
 30
0.0
 10
-24.0346
 20
25.4301
 30
0.0
 10
-24.0346
 20
25.4301
 30
0.0
 10
-24.0346
 20
25.4301
 30
0.0
 10
-24.1861
 20
25.4301
 30
0.0
 10
-24.1861
 20
25.4301
 30
0.0
  0
SPLINE
  5
71
330
1F
100
AcDbEntity
  8
ROUND
 62
   250
100
AcDbSpline
210
0.0
220
0.0
230
1.0
 70
    11
 71
     3
 72
    28
 73
    24
 74
     0
 42
0.0000000001
 43
0.0000000001
 40
0.0
 40
0.0
 40
0.0
 40
0.0
 40
0.1428571428571428
 40
0.1428571428571428
 40
0.1428571428571428
 40
0.1428571428571428
 40
0.2857142857142857
 40
0.2857142857142857
 40
0.2857142857142857
 40
0.2857142857142857
 40
0.4285714285714285
 40
0.4285714285714285
 40
0.4285714285714285
 40
0.4285714285714285
 40
0.5714285714285714
 40
0.5714285714285714
 40
0.5714285714285714
 40
0.5714285714285714
 40
0.7142857142857143
 40
0.7142857142857143
 40
0.7142857142857143
 40
0.7142857142857143
 40
1.0
 40
1.0
 40
1.0
 40
1.0
 10
-23.7298
 20
25.4301
 30
0.0
 10
-23.7298
 20
25.4301
 30
0.0
 10
-23.7976
 20
25.8149
 30
0.0
 10
-23.7976
 20
25.8149
 30
0.0
 10
-23.7976
 20
25.8149
 30
0.0
 10
-23.7976
 20
25.8149
 30
0.0
 10
-23.7976
 20
26.1455
 30
0.0
 10
-23.7976
 20
26.1455
 30
0.0
 10
-23.7976
 20
26.1455
 30
0.0
 10
-23.7976
 20
26.1455
 30
0.0
 10
-23.5149
 20
26.1455
 30
0.0
 10
-23.5149
 20
26.1455
 30
0.0
 10
-23.5149
 20
26.1455
 30
0.0
 10
-23.5149
 20
26.1455
 30
0.0
 10
-23.5149
 20
25.8149
 30
0.0
 10
-23.5149
 20
25.8149
 30
0.0
 10
-23.5149
 20
25.8149
 30
0.0
 10
-23.5149
 20
25.8149
 30
0.0
 10
-23.5812
 20
25.4301
 30
0.0
 10
-23.5812
 20
25.4301
 30
0.0
 10
-23.5812
 20
25.4301
 30
0.0
 10
-23.5812
 20
25.4301
 30
0.0
 10
-23.7298
 20
25.4301
 30
0.0
 10
-23.7298
 20
25.4301
 30
0.0
  0
SPLINE
  5
72
330
1F
100
AcDbEntity
  8
ROUND
 62
   250
100
AcDbSpline
210
0.0
220
0.0
230
1.0
 70
    11
 71
     3
 72
    20
 73
    16
 74
     0
 42
0.0000000001
 43
0.0000000001
 40
0.0
 40
0.0
 40
0.0
 40
0.0
 40
0.2
 40
0.2
 40
0.2
 40
0.2
 40
0.4
 40
0.4
 40
0.4
 40
0.4
 40
0.6
 40
0.6
 40
0.6
 40
0.6
 40
1.0
 40
1.0
 40
1.0
 40
1.0
 10
-8.8228
 20
-30.3783
 30
0.0
 10
-8.8228
 20
-30.3783
 30
0.0
 10
-5.8227
 20
-30.8017
 30
0.0
 10
-5.8227
 20
-30.8017
 30
0.0
 10
-5.8227
 20
-30.8017
 30
0.0
 10
-5.8227
 20
-30.8017
 30
0.0
 10
-5.8227
 20
-30.8957
 30
0.0
 10
-5.8227
 20
-30.8957
 30
0.0
 10
-5.8227
 20
-30.8957
 30
0.0
 10
-5.8227
 20
-30.8957
 30
0.0
 10
-8.8228
 20
-31.3473
 30
0.0
 10
-8.8228
 20
-31.3473
 30
0.0
 10
-8.8228
 20
-31.3473
 30
0.0
 10
-8.8228
 20
-31.3473
 30
0.0
 10
-8.8228
 20
-30.3783
 30
0.0
 10
-8.8228
 20
-30.3783
 30
0.0
  0
SPLINE
  5
73
330
1F
100
AcDbEntity
  8
ROUND
 62
   250
100
AcDbSpline
210
0.0
220
0.0
230
1.0
 70
    11
 71
     3
 72
    20
 73
    16
 74
     0
 42
0.0000000001
 43
0.0000000001
 40
0.0
 40
0.0
 40
0.0
 40
0.0
 40
0.2
 40
0.2
 40
0.2
 40
0.2
 40
0.4
 40
0.4
 40
0.4
 40
0.4
 40
0.6
 40
0.6
 40
0.6
 40
0.6
 40
1.0
 40
1.0
 40
1.0
 40
1.0
 10
-24.9532
 20
-31.3147
 30
0.0
 10
-24.9532
 20
-31.3147
 30
0.0
 10
-27.9532
 20
-30.8913
 30
0.0
 10
-27.9532
 20
-30.8913
 30
0.0
 10
-27.9532
 20
-30.8913
 30
0.0
 10
-27.9532
 20
-30.8913
 30
0.0
 10
-27.9532
 20
-30.7973
 30
0.0
 10
-27.9532
 20
-30.7973
 30
0.0
 10
-27.9532
 20
-30.7973
 30
0.0
 10
-27.9532
 20
-30.7973
 30
0.0
 10
-24.9532
 20
-30.3458
 30
0.0
 10
-24.9532
 20
-30.3458
 30
0.0
 10
-24.9532
 20
-30.3458
 30
0.0
 10
-24.9532
 20
-30.3458
 30
0.0
 10
-24.9532
 20
-31.3147
 30
0.0
 10
-24.9532
 20
-31.3147
 30
0.0
  0
SPLINE
  5
74
330
1F
100
AcDbEntity
  8
ROUND
 62
   250
100
AcDbSpline
210
0.0
220
0.0
230
1.0
 70
    11
 71
     3
 72
    20
 73
    16
 74
     0
 42
0.0000000001
 43
0.0000000001
 40
0.0
 40
0.0
 40
0.0
 40
0.0
 40
0.2
 40
0.2
 40
0.2
 40
0.2
 40
0.4
 40
0.4
 40
0.4
 40
0.4
 40
0.6
 40
0.6
 40
0.6
 40
0.6
 40
1.0
 40
1.0
 40
1.0
 40
1.0
 10
-41.701
 20
-21.3673
 30
0.0
 10
-41.701
 20
-21.3673
 30
0.0
 10
-42.1244
 20
-24.3674
 30
0.0
 10
-42.1244
 20
-24.3674
 30
0.0
 10
-42.1244
 20
-24.3674
 30
0.0
 10
-42.1244
 20
-24.3674
 30
0.0
 10
-42.2184
 20
-24.3674
 30
0.0
 10
-42.2184
 20
-24.3674
 30
0.0
 10
-42.2184
 20
-24.3674
 30
0.0
 10
-42.2184
 20
-24.3674
 30
0.0
 10
-42.67
 20
-21.3673
 30
0.0
 10
-42.67
 20
-21.3673
 30
0.0
 10
-42.67
 20
-21.3673
 30
0.0
 10
-42.67
 20
-21.3673
 30
0.0
 10
-41.701
 20
-21.3673
 30
0.0
 10
-41.701
 20
-21.3673
 30
0.0
  0
SPLINE
  5
75
330
1F
100
AcDbEntity
  8
ROUND
 62
   250
100
AcDbSpline
210
0.0
220
0.0
230
1.0
 70
    11
 71
     3
 72
    20
 73
    16
 74
     0
 42
0.0000000001
 43
0.0000000001
 40
0.0
 40
0.0
 40
0.0
 40
0.0
 40
0.2
 40
0.2
 40
0.2
 40
0.2
 40
0.4
 40
0.4
 40
0.4
 40
0.4
 40
0.6
 40
0.6
 40
0.6
 40
0.6
 40
1.0
 40
1.0
 40
1.0
 40
1.0
 10
-42.6233
 20
2.1127
 30
0.0
 10
-42.6233
 20
2.1127
 30
0.0
 10
-42.1999
 20
5.1127
 30
0.0
 10
-42.1999
 20
5.1127
 30
0.0
 10
-42.1999
 20
5.1127
 30
0.0
 10
-42.1999
 20
5.1127
 30
0.0
 10
-42.1059
 20
5.1127
 30
0.0
 10
-42.1059
 20
5.1127
 30
0.0
 10
-42.1059
 20
5.1127
 30
0.0
 10
-42.1059
 20
5.1127
 30
0.0
 10
-41.6544
 20
2.1127
 30
0.0
 10
-41.6544
 20
2.1127
 30
0.0
 10
-41.6544
 20
2.1127
 30
0.0
 10
-41.6544
 20
2.1127
 30
0.0
 10
-42.6233
 20
2.1127
 30
0.0
 10
-42.6233
 20
2.1127
 30
0.0
  0
SPLINE
  5
76
330
1F
100
AcDbEntity
  8
ROUND
 62
   250
100
AcDbSpline
210
0.0
220
0.0
230
1.0
 70
    11
 71
     3
 72
    20
 73
    16
 74
     0
 42
0.0000000001
 43
0.0000000001
 40
0.0
 40
0.0
 40
0.0
 40
0.0
 40
0.2
 40
0.2
 40
0.2
 40
0.2
 40
0.4
 40
0.4
 40
0.4
 40
0.4
 40
0.6
 40
0.6
 40
0.6
 40
0.6
 40
1.0
 40
1.0
 40
1.0
 40
1.0
 10
-42.6497
 20
17.2874
 30
0.0
 10
-42.6497
 20
17.2874
 30
0.0
 10
-42.2263
 20
20.2874
 30
0.0
 10
-42.2263
 20
20.2874
 30
0.0
 10
-42.2263
 20
20.2874
 30
0.0
 10
-42.2263
 20
20.2874
 30
0.0
 10
-42.1323
 20
20.2874
 30
0.0
 10
-42.1323
 20
20.2874
 30
0.0
 10
-42.1323
 20
20.2874
 30
0.0
 10
-42.1323
 20
20.2874
 30
0.0
 10
-41.6808
 20
17.2874
 30
0.0
 10
-41.6808
 20
17.2874
 30
0.0
 10
-41.6808
 20
17.2874
 30
0.0
 10
-41.6808
 20
17.2874
 30
0.0
 10
-42.6497
 20
17.2874
 30
0.0
 10
-42.6497
 20
17.2874
 30
0.0
  0
SPLINE
  5
77
330
1F
100
AcDbEntity
  8
ROUND
 62
   250
100
AcDbSpline
210
0.0
220
0.0
230
1.0
 70
    11
 71
     3
 72
    20
 73
    16
 74
     0
 42
0.0000000001
 43
0.0000000001
 40
0.0
 40
0.0
 40
0.0
 40
0.0
 40
0.2
 40
0.2
 40
0.2
 40
0.2
 40
0.4
 40
0.4
 40
0.4
 40
0.4
 40
0.6
 40
0.6
 40
0.6
 40
0.6
 40
1.0
 40
1.0
 40
1.0
 40
1.0
 10
-41.6726
 20
8.2773
 30
0.0
 10
-41.6726
 20
8.2773
 30
0.0
 10
-42.096
 20
5.2773
 30
0.0
 10
-42.096
 20
5.2773
 30
0.0
 10
-42.096
 20
5.2773
 30
0.0
 10
-42.096
 20
5.2773
 30
0.0
 10
-42.19
 20
5.2773
 30
0.0
 10
-42.19
 20
5.2773
 30
0.0
 10
-42.19
 20
5.2773
 30
0.0
 10
-42.19
 20
5.2773
 30
0.0
 10
-42.6416
 20
8.2773
 30
0.0
 10
-42.6416
 20
8.2773
 30
0.0
 10
-42.6416
 20
8.2773
 30
0.0
 10
-42.6416
 20
8.2773
 30
0.0
 10
-41.6726
 20
8.2773
 30
0.0
 10
-41.6726
 20
8.2773
 30
0.0
  0
SPLINE
  5
78
330
1F
100
AcDbEntity
  8
ROUND
 62
   250
100
AcDbSpline
210
0.0
220
0.0
230
1.0
 70
    11
 71
     3
 72
    20
 73
    16
 74
     0
 42
0.0000000001
 43
0.0000000001
 40
0.0
 40
0.0
 40
0.0
 40
0.0
 40
0.2
 40
0.2
 40
0.2
 40
0.2
 40
0.4
 40
0.4
 40
0.4
 40
0.4
 40
0.6
 40
0.6
 40
0.6
 40
0.6
 40
1.0
 40
1.0
 40
1.0
 40
1.0
 10
0.2415
 20
-6.7552
 30
0.0
 10
0.2415
 20
-6.7552
 30
0.0
 10
0.2415
 20
-7.3021
 30
0.0
 10
0.2415
 20
-7.3021
 30
0.0
 10
0.2415
 20
-7.3021
 30
0.0
 10
0.2415
 20
-7.3021
 30
0.0
 10
-11.7111
 20
-7.3021
 30
0.0
 10
-11.7111
 20
-7.3021
 30
0.0
 10
-11.7111
 20
-7.3021
 30
0.0
 10
-11.7111
 20
-7.3021
 30
0.0
 10
-11.7111
 20
-6.7552
 30
0.0
 10
-11.7111
 20
-6.7552
 30
0.0
 10
-11.7111
 20
-6.7552
 30
0.0
 10
-11.7111
 20
-6.7552
 30
0.0
 10
0.2415
 20
-6.7552
 30
0.0
 10
0.2415
 20
-6.7552
 30
0.0
  0
SPLINE
  5
79
330
1F
100
AcDbEntity
  8
ROUND
 62
   250
100
AcDbSpline
210
0.0
220
0.0
230
1.0
 70
     8
 71
     3
 72
     8
 73
     4
 74
     0
 42
0.0000000001
 43
0.0000000001
 40
0.0
 40
0.0
 40
0.0
 40
0.0
 40
1.0
 40
1.0
 40
1.0
 40
1.0
 10
-11.0327
 20
-4.5466
 30
0.0
 10
-11.4173
 20
-4.5466
 30
0.0
 10
-11.729
 20
-4.8583
 30
0.0
 10
-11.729
 20
-5.2429
 30
0.0
  0
SPLINE
  5
7A
330
1F
100
AcDbEntity
  8
ROUND
 62
   250
100
AcDbSpline
210
0.0
220
0.0
230
1.0
 70
     8
 71
     3
 72
   124
 73
   120
 74
     0
 42
0.0000000001
 43
0.0000000001
 40
0.0
 40
0.0
 40
0.0
 40
0.0
 40
0.032258064516129
 40
0.032258064516129
 40
0.032258064516129
 40
0.032258064516129
 40
0.0645161290322581
 40
0.0645161290322581
 40
0.0645161290322581
 40
0.0645161290322581
 40
0.0967741935483871
 40
0.0967741935483871
 40
0.0967741935483871
 40
0.0967741935483871
 40
0.1290322580645161
 40
0.1290322580645161
 40
0.1290322580645161
 40
0.1290322580645161
 40
0.1612903225806452
 40
0.1612903225806452
 40
0.1612903225806452
 40
0.1612903225806452
 40
0.1935483870967742
 40
0.1935483870967742
 40
0.1935483870967742
 40
0.1935483870967742
 40
0.2258064516129032
 40
0.2258064516129032
 40
0.2258064516129032
 40
0.2258064516129032
 40
0.2580645161290323
 40
0.2580645161290323
 40
0.2580645161290323
 40
0.2580645161290323
 40
0.2903225806451613
 40
0.2903225806451613
 40
0.2903225806451613
 40
0.2903225806451613
 40
0.3225806451612903
 40
0.3225806451612903
 40
0.3225806451612903
 40
0.3225806451612903
 40
0.3548387096774194
 40
0.3548387096774194
 40
0.3548387096774194
 40
0.3548387096774194
 40
0.3870967741935484
 40
0.3870967741935484
 40
0.3870967741935484
 40
0.3870967741935484
 40
0.4193548387096774
 40
0.4193548387096774
 40
0.4193548387096774
 40
0.4193548387096774
 40
0.4516129032258064
 40
0.4516129032258064
 40
0.4516129032258064
 40
0.4516129032258064
 40
0.4838709677419355
 40
0.4838709677419355
 40
0.4838709677419355
 40
0.4838709677419355
 40
0.5161290322580645
 40
0.5161290322580645
 40
0.5161290322580645
 40
0.5161290322580645
 40
0.5483870967741935
 40
0.5483870967741935
 40
0.5483870967741935
 40
0.5483870967741935
 40
0.5806451612903226
 40
0.5806451612903226
 40
0.5806451612903226
 40
0.5806451612903226
 40
0.6129032258064516
 40
0.6129032258064516
 40
0.6129032258064516
 40
0.6129032258064516
 40
0.6451612903225806
 40
0.6451612903225806
 40
0.6451612903225806
 40
0.6451612903225806
 40
0.6774193548387096
 40
0.6774193548387096
 40
0.6774193548387096
 40
0.6774193548387096
 40
0.7096774193548387
 40
0.7096774193548387
 40
0.7096774193548387
 40
0.7096774193548387
 40
0.7419354838709677
 40
0.7419354838709677
 40
0.7419354838709677
 40
0.7419354838709677
 40
0.7741935483870968
 40
0.7741935483870968
 40
0.7741935483870968
 40
0.7741935483870968
 40
0.8064516129032258
 40
0.8064516129032258
 40
0.8064516129032258
 40
0.8064516129032258
 40
0.8387096774193549
 40
0.8387096774193549
 40
0.8387096774193549
 40
0.8387096774193549
 40
0.8709677419354839
 40
0.8709677419354839
 40
0.8709677419354839
 40
0.8709677419354839
 40
0.9032258064516129
 40
0.9032258064516129
 40
0.9032258064516129
 40
0.9032258064516129
 40
0.9354838709677419
 40
0.9354838709677419
 40
0.9354838709677419
 40
0.9354838709677419
 40
1.0
 40
1.0
 40
1.0
 40
1.0
 10
-11.729
 20
-5.2429
 30
0.0
 10
-11.729
 20
-5.2429
 30
0.0
 10
-11.7376
 20
-5.3824
 30
0.0
 10
-11.7376
 20
-5.3824
 30
0.0
 10
-11.7376
 20
-5.3824
 30
0.0
 10
-11.7376
 20
-5.3824
 30
0.0
 10
-10.9544
 20
-5.3832
 30
0.0
 10
-10.9544
 20
-5.3832
 30
0.0
 10
-10.9544
 20
-5.3832
 30
0.0
 10
-10.9544
 20
-5.3832
 30
0.0
 10
-10.5893
 20
-5.3836
 30
0.0
 10
-10.5893
 20
-5.3836
 30
0.0
 10
-10.5893
 20
-5.3836
 30
0.0
 10
-10.5893
 20
-5.3836
 30
0.0
 10
-10.1704
 20
-5.3841
 30
0.0
 10
-10.1704
 20
-5.3841
 30
0.0
 10
-10.1704
 20
-5.3841
 30
0.0
 10
-10.1704
 20
-5.3841
 30
0.0
 10
-9.7044
 20
-5.3846
 30
0.0
 10
-9.7044
 20
-5.3846
 30
0.0
 10
-9.7044
 20
-5.3846
 30
0.0
 10
-9.7044
 20
-5.3846
 30
0.0
 10
-9.1938
 20
-5.3851
 30
0.0
 10
-9.1938
 20
-5.3851
 30
0.0
 10
-9.1938
 20
-5.3851
 30
0.0
 10
-9.1938
 20
-5.3851
 30
0.0
 10
-8.6454
 20
-5.3857
 30
0.0
 10
-8.6454
 20
-5.3857
 30
0.0
 10
-8.6454
 20
-5.3857
 30
0.0
 10
-8.6454
 20
-5.3857
 30
0.0
 10
-8.0664
 20
-5.3863
 30
0.0
 10
-8.0664
 20
-5.3863
 30
0.0
 10
-8.0664
 20
-5.3863
 30
0.0
 10
-8.0664
 20
-5.3863
 30
0.0
 10
-7.4603
 20
-5.387
 30
0.0
 10
-7.4603
 20
-5.387
 30
0.0
 10
-7.4603
 20
-5.387
 30
0.0
 10
-7.4603
 20
-5.387
 30
0.0
 10
-6.8358
 20
-5.3876
 30
0.0
 10
-6.8358
 20
-5.3876
 30
0.0
 10
-6.8358
 20
-5.3876
 30
0.0
 10
-6.8358
 20
-5.3876
 30
0.0
 10
-6.2006
 20
-5.3883
 30
0.0
 10
-6.2006
 20
-5.3883
 30
0.0
 10
-6.2006
 20
-5.3883
 30
0.0
 10
-6.2006
 20
-5.3883
 30
0.0
 10
-5.2805
 20
-5.3893
 30
0.0
 10
-5.2805
 20
-5.3893
 30
0.0
 10
-5.2805
 20
-5.3893
 30
0.0
 10
-5.2805
 20
-5.3893
 30
0.0
 10
-4.6452
 20
-5.39
 30
0.0
 10
-4.6452
 20
-5.39
 30
0.0
 10
-4.6452
 20
-5.39
 30
0.0
 10
-4.6452
 20
-5.39
 30
0.0
 10
-4.0207
 20
-5.3907
 30
0.0
 10
-4.0207
 20
-5.3907
 30
0.0
 10
-4.0207
 20
-5.3907
 30
0.0
 10
-4.0207
 20
-5.3907
 30
0.0
 10
-3.415
 20
-5.3913
 30
0.0
 10
-3.415
 20
-5.3913
 30
0.0
 10
-3.415
 20
-5.3913
 30
0.0
 10
-3.415
 20
-5.3913
 30
0.0
 10
-2.8349
 20
-5.3919
 30
0.0
 10
-2.8349
 20
-5.3919
 30
0.0
 10
-2.8349
 20
-5.3919
 30
0.0
 10
-2.8349
 20
-5.3919
 30
0.0
 10
-2.287
 20
-5.3925
 30
0.0
 10
-2.287
 20
-5.3925
 30
0.0
 10
-2.287
 20
-5.3925
 30
0.0
 10
-2.287
 20
-5.3925
 30
0.0
 10
-1.7772
 20
-5.3931
 30
0.0
 10
-1.7772
 20
-5.3931
 30
0.0
 10
-1.7772
 20
-5.3931
 30
0.0
 10
-1.7772
 20
-5.3931
 30
0.0
 10
-1.3098
 20
-5.3936
 30
0.0
 10
-1.3098
 20
-5.3936
 30
0.0
 10
-1.3098
 20
-5.3936
 30
0.0
 10
-1.3098
 20
-5.3936
 30
0.0
 10
-0.8919
 20
-5.394
 30
0.0
 10
-0.8919
 20
-5.394
 30
0.0
 10
-0.8919
 20
-5.394
 30
0.0
 10
-0.8919
 20
-5.394
 30
0.0
 10
-0.528
 20
-5.3944
 30
0.0
 10
-0.528
 20
-5.3944
 30
0.0
 10
-0.528
 20
-5.3944
 30
0.0
 10
-0.528
 20
-5.3944
 30
0.0
 10
-0.0709
 20
-5.3949
 30
0.0
 10
-0.0709
 20
-5.3949
 30
0.0
 10
-0.0709
 20
-5.3949
 30
0.0
 10
-0.0709
 20
-5.3949
 30
0.0
 10
0.3167
 20
-5.3953
 30
0.0
 10
0.3167
 20
-5.3953
 30
0.0
 10
0.3167
 20
-5.3953
 30
0.0
 10
0.3167
 20
-5.3953
 30
0.0
 10
0.3039
 20
-5.1504
 30
0.0
 10
0.3039
 20
-5.1504
 30
0.0
 10
0.3039
 20
-5.1504
 30
0.0
 10
0.3039
 20
-5.1504
 30
0.0
 10
0.2138
 20
-4.9184
 30
0.0
 10
0.2138
 20
-4.9184
 30
0.0
 10
0.2138
 20
-4.9184
 30
0.0
 10
0.2138
 20
-4.9184
 30
0.0
 10
0.0852
 20
-4.7508
 30
0.0
 10
0.0852
 20
-4.7508
 30
0.0
 10
0.0852
 20
-4.7508
 30
0.0
 10
0.0852
 20
-4.7508
 30
0.0
 10
-0.1593
 20
-4.609
 30
0.0
 10
-0.1593
 20
-4.609
 30
0.0
 10
-0.1593
 20
-4.609
 30
0.0
 10
-0.1593
 20
-4.609
 30
0.0
 10
-0.2879
 20
-4.5445
 30
0.0
 10
-0.2879
 20
-4.5445
 30
0.0
 10
-0.2879
 20
-4.5445
 30
0.0
 10
-0.2879
 20
-4.5445
 30
0.0
 10
-0.378
 20
-4.5445
 30
0.0
 10
-0.378
 20
-4.5445
 30
0.0
 10
-0.378
 20
-4.5445
 30
0.0
 10
-0.378
 20
-4.5445
 30
0.0
 10
-11.0327
 20
-4.5466
 30
0.0
 10
-11.0327
 20
-4.5466
 30
0.0
  0
SPLINE
  5
7B
330
1F
100
AcDbEntity
  8
ROUND
 62
   250
100
AcDbSpline
210
0.0
220
0.0
230
1.0
 70
    27
 71
     3
 72
    12
 73
     8
 74
     0
 42
0.0000000001
 43
0.0000000001
 40
0.0
 40
0.0
 40
0.0
 40
0.0
 40
0.3333333333333333
 40
0.3333333333333333
 40
0.3333333333333333
 40
0.3333333333333333
 40
1.0
 40
1.0
 40
1.0
 40
1.0
 10
0.3844
 20
-6.7743
 30
0.0
 10
0.3844
 20
-6.7743
 30
0.0
 10
0.3844
 20
-5.3829
 30
0.0
 10
0.3844
 20
-5.3829
 30
0.0
 10
0.3844
 20
-5.3829
 30
0.0
 10
0.3844
 20
-5.3829
 30
0.0
 10
0.3844
 20
-6.7743
 30
0.0
 10
0.3844
 20
-6.7743
 30
0.0
  0
SPLINE
  5
7C
330
1F
100
AcDbEntity
  8
ROUND
 62
   250
100
AcDbSpline
210
0.0
220
0.0
230
1.0
 70
    27
 71
     3
 72
    16
 73
    12
 74
     0
 42
0.0000000001
 43
0.0000000001
 40
0.0
 40
0.0
 40
0.0
 40
0.0
 40
0.25
 40
0.25
 40
0.25
 40
0.25
 40
0.5
 40
0.5
 40
0.5
 40
0.5
 40
1.0
 40
1.0
 40
1.0
 40
1.0
 10
-1.7772
 20
-6.7743
 30
0.0
 10
-1.7772
 20
-6.7743
 30
0.0
 10
-1.7772
 20
-5.3931
 30
0.0
 10
-1.7772
 20
-5.3931
 30
0.0
 10
-1.7772
 20
-5.3931
 30
0.0
 10
-1.7772
 20
-5.3931
 30
0.0
 10
-1.7772
 20
-5.3829
 30
0.0
 10
-1.7772
 20
-5.3829
 30
0.0
 10
-1.7772
 20
-5.3829
 30
0.0
 10
-1.7772
 20
-5.3829
 30
0.0
 10
-1.7772
 20
-6.7743
 30
0.0
 10
-1.7772
 20
-6.7743
 30
0.0
  0
SPLINE
  5
7D
330
1F
100
AcDbEntity
  8
ROUND
 62
   250
100
AcDbSpline
210
0.0
220
0.0
230
1.0
 70
    27
 71
     3
 72
    16
 73
    12
 74
     0
 42
0.0000000001
 43
0.0000000001
 40
0.0
 40
0.0
 40
0.0
 40
0.0
 40
0.25
 40
0.25
 40
0.25
 40
0.25
 40
0.5
 40
0.5
 40
0.5
 40
0.5
 40
1.0
 40
1.0
 40
1.0
 40
1.0
 10
-1.3098
 20
-6.7743
 30
0.0
 10
-1.3098
 20
-6.7743
 30
0.0
 10
-1.3098
 20
-5.3936
 30
0.0
 10
-1.3098
 20
-5.3936
 30
0.0
 10
-1.3098
 20
-5.3936
 30
0.0
 10
-1.3098
 20
-5.3936
 30
0.0
 10
-1.3098
 20
-5.3829
 30
0.0
 10
-1.3098
 20
-5.3829
 30
0.0
 10
-1.3098
 20
-5.3829
 30
0.0
 10
-1.3098
 20
-5.3829
 30
0.0
 10
-1.3098
 20
-6.7743
 30
0.0
 10
-1.3098
 20
-6.7743
 30
0.0
  0
SPLINE
  5
7E
330
1F
100
AcDbEntity
  8
ROUND
 62
   250
100
AcDbSpline
210
0.0
220
0.0
230
1.0
 70
    27
 71
     3
 72
    16
 73
    12
 74
     0
 42
0.0000000001
 43
0.0000000001
 40
0.0
 40
0.0
 40
0.0
 40
0.0
 40
0.25
 40
0.25
 40
0.25
 40
0.25
 40
0.5
 40
0.5
 40
0.5
 40
0.5
 40
1.0
 40
1.0
 40
1.0
 40
1.0
 10
-0.8919
 20
-6.7743
 30
0.0
 10
-0.8919
 20
-6.7743
 30
0.0
 10
-0.8919
 20
-5.394
 30
0.0
 10
-0.8919
 20
-5.394
 30
0.0
 10
-0.8919
 20
-5.394
 30
0.0
 10
-0.8919
 20
-5.394
 30
0.0
 10
-0.8919
 20
-5.3829
 30
0.0
 10
-0.8919
 20
-5.3829
 30
0.0
 10
-0.8919
 20
-5.3829
 30
0.0
 10
-0.8919
 20
-5.3829
 30
0.0
 10
-0.8919
 20
-6.7743
 30
0.0
 10
-0.8919
 20
-6.7743
 30
0.0
  0
SPLINE
  5
7F
330
1F
100
AcDbEntity
  8
ROUND
 62
   250
100
AcDbSpline
210
0.0
220
0.0
230
1.0
 70
    27
 71
     3
 72
    16
 73
    12
 74
     0
 42
0.0000000001
 43
0.0000000001
 40
0.0
 40
0.0
 40
0.0
 40
0.0
 40
0.25
 40
0.25
 40
0.25
 40
0.25
 40
0.5
 40
0.5
 40
0.5
 40
0.5
 40
1.0
 40
1.0
 40
1.0
 40
1.0
 10
-0.528
 20
-6.7743
 30
0.0
 10
-0.528
 20
-6.7743
 30
0.0
 10
-0.528
 20
-5.3944
 30
0.0
 10
-0.528
 20
-5.3944
 30
0.0
 10
-0.528
 20
-5.3944
 30
0.0
 10
-0.528
 20
-5.3944
 30
0.0
 10
-0.528
 20
-5.3829
 30
0.0
 10
-0.528
 20
-5.3829
 30
0.0
 10
-0.528
 20
-5.3829
 30
0.0
 10
-0.528
 20
-5.3829
 30
0.0
 10
-0.528
 20
-6.7743
 30
0.0
 10
-0.528
 20
-6.7743
 30
0.0
  0
SPLINE
  5
80
330
1F
100
AcDbEntity
  8
ROUND
 62
   250
100
AcDbSpline
210
0.0
220
0.0
230
1.0
 70
    27
 71
     3
 72
    16
 73
    12
 74
     0
 42
0.0000000001
 43
0.0000000001
 40
0.0
 40
0.0
 40
0.0
 40
0.0
 40
0.25
 40
0.25
 40
0.25
 40
0.25
 40
0.5
 40
0.5
 40
0.5
 40
0.5
 40
1.0
 40
1.0
 40
1.0
 40
1.0
 10
-0.0709
 20
-6.7743
 30
0.0
 10
-0.0709
 20
-6.7743
 30
0.0
 10
-0.0709
 20
-5.3949
 30
0.0
 10
-0.0709
 20
-5.3949
 30
0.0
 10
-0.0709
 20
-5.3949
 30
0.0
 10
-0.0709
 20
-5.3949
 30
0.0
 10
-0.0709
 20
-5.3829
 30
0.0
 10
-0.0709
 20
-5.3829
 30
0.0
 10
-0.0709
 20
-5.3829
 30
0.0
 10
-0.0709
 20
-5.3829
 30
0.0
 10
-0.0709
 20
-6.7743
 30
0.0
 10
-0.0709
 20
-6.7743
 30
0.0
  0
SPLINE
  5
81
330
1F
100
AcDbEntity
  8
ROUND
 62
   250
100
AcDbSpline
210
0.0
220
0.0
230
1.0
 70
    27
 71
     3
 72
    16
 73
    12
 74
     0
 42
0.0000000001
 43
0.0000000001
 40
0.0
 40
0.0
 40
0.0
 40
0.0
 40
0.25
 40
0.25
 40
0.25
 40
0.25
 40
0.5
 40
0.5
 40
0.5
 40
0.5
 40
1.0
 40
1.0
 40
1.0
 40
1.0
 10
-2.287
 20
-6.7743
 30
0.0
 10
-2.287
 20
-6.7743
 30
0.0
 10
-2.287
 20
-5.3925
 30
0.0
 10
-2.287
 20
-5.3925
 30
0.0
 10
-2.287
 20
-5.3925
 30
0.0
 10
-2.287
 20
-5.3925
 30
0.0
 10
-2.287
 20
-5.3829
 30
0.0
 10
-2.287
 20
-5.3829
 30
0.0
 10
-2.287
 20
-5.3829
 30
0.0
 10
-2.287
 20
-5.3829
 30
0.0
 10
-2.287
 20
-6.7743
 30
0.0
 10
-2.287
 20
-6.7743
 30
0.0
  0
SPLINE
  5
82
330
1F
100
AcDbEntity
  8
ROUND
 62
   250
100
AcDbSpline
210
0.0
220
0.0
230
1.0
 70
    27
 71
     3
 72
    12
 73
     8
 74
     0
 42
0.0000000001
 43
0.0000000001
 40
0.0
 40
0.0
 40
0.0
 40
0.0
 40
0.3333333333333333
 40
0.3333333333333333
 40
0.3333333333333333
 40
0.3333333333333333
 40
1.0
 40
1.0
 40
1.0
 40
1.0
 10
-11.4097
 20
-6.7743
 30
0.0
 10
-11.4097
 20
-6.7743
 30
0.0
 10
-11.4097
 20
-5.3829
 30
0.0
 10
-11.4097
 20
-5.3829
 30
0.0
 10
-11.4097
 20
-5.3829
 30
0.0
 10
-11.4097
 20
-5.3829
 30
0.0
 10
-11.4097
 20
-6.7743
 30
0.0
 10
-11.4097
 20
-6.7743
 30
0.0
  0
SPLINE
  5
83
330
1F
100
AcDbEntity
  8
ROUND
 62
   250
100
AcDbSpline
210
0.0
220
0.0
230
1.0
 70
    27
 71
     3
 72
    16
 73
    12
 74
     0
 42
0.0000000001
 43
0.0000000001
 40
0.0
 40
0.0
 40
0.0
 40
0.0
 40
0.25
 40
0.25
 40
0.25
 40
0.25
 40
0.5
 40
0.5
 40
0.5
 40
0.5
 40
1.0
 40
1.0
 40
1.0
 40
1.0
 10
-10.9544
 20
-6.7743
 30
0.0
 10
-10.9544
 20
-6.7743
 30
0.0
 10
-10.9544
 20
-5.3832
 30
0.0
 10
-10.9544
 20
-5.3832
 30
0.0
 10
-10.9544
 20
-5.3832
 30
0.0
 10
-10.9544
 20
-5.3832
 30
0.0
 10
-10.9544
 20
-5.3829
 30
0.0
 10
-10.9544
 20
-5.3829
 30
0.0
 10
-10.9544
 20
-5.3829
 30
0.0
 10
-10.9544
 20
-5.3829
 30
0.0
 10
-10.9544
 20
-6.7743
 30
0.0
 10
-10.9544
 20
-6.7743
 30
0.0
  0
SPLINE
  5
84
330
1F
100
AcDbEntity
  8
ROUND
 62
   250
100
AcDbSpline
210
0.0
220
0.0
230
1.0
 70
    27
 71
     3
 72
    16
 73
    12
 74
     0
 42
0.0000000001
 43
0.0000000001
 40
0.0
 40
0.0
 40
0.0
 40
0.0
 40
0.25
 40
0.25
 40
0.25
 40
0.25
 40
0.5
 40
0.5
 40
0.5
 40
0.5
 40
1.0
 40
1.0
 40
1.0
 40
1.0
 10
-10.5893
 20
-6.7743
 30
0.0
 10
-10.5893
 20
-6.7743
 30
0.0
 10
-10.5893
 20
-5.3836
 30
0.0
 10
-10.5893
 20
-5.3836
 30
0.0
 10
-10.5893
 20
-5.3836
 30
0.0
 10
-10.5893
 20
-5.3836
 30
0.0
 10
-10.5893
 20
-5.3829
 30
0.0
 10
-10.5893
 20
-5.3829
 30
0.0
 10
-10.5893
 20
-5.3829
 30
0.0
 10
-10.5893
 20
-5.3829
 30
0.0
 10
-10.5893
 20
-6.7743
 30
0.0
 10
-10.5893
 20
-6.7743
 30
0.0
  0
SPLINE
  5
85
330
1F
100
AcDbEntity
  8
ROUND
 62
   250
100
AcDbSpline
210
0.0
220
0.0
230
1.0
 70
    27
 71
     3
 72
    16
 73
    12
 74
     0
 42
0.0000000001
 43
0.0000000001
 40
0.0
 40
0.0
 40
0.0
 40
0.0
 40
0.25
 40
0.25
 40
0.25
 40
0.25
 40
0.5
 40
0.5
 40
0.5
 40
0.5
 40
1.0
 40
1.0
 40
1.0
 40
1.0
 10
-10.1704
 20
-6.7743
 30
0.0
 10
-10.1704
 20
-6.7743
 30
0.0
 10
-10.1704
 20
-5.3841
 30
0.0
 10
-10.1704
 20
-5.3841
 30
0.0
 10
-10.1704
 20
-5.3841
 30
0.0
 10
-10.1704
 20
-5.3841
 30
0.0
 10
-10.1704
 20
-5.3829
 30
0.0
 10
-10.1704
 20
-5.3829
 30
0.0
 10
-10.1704
 20
-5.3829
 30
0.0
 10
-10.1704
 20
-5.3829
 30
0.0
 10
-10.1704
 20
-6.7743
 30
0.0
 10
-10.1704
 20
-6.7743
 30
0.0
  0
SPLINE
  5
86
330
1F
100
AcDbEntity
  8
ROUND
 62
   250
100
AcDbSpline
210
0.0
220
0.0
230
1.0
 70
    27
 71
     3
 72
    16
 73
    12
 74
     0
 42
0.0000000001
 43
0.0000000001
 40
0.0
 40
0.0
 40
0.0
 40
0.0
 40
0.25
 40
0.25
 40
0.25
 40
0.25
 40
0.5
 40
0.5
 40
0.5
 40
0.5
 40
1.0
 40
1.0
 40
1.0
 40
1.0
 10
-9.7044
 20
-6.7743
 30
0.0
 10
-9.7044
 20
-6.7743
 30
0.0
 10
-9.7044
 20
-5.3846
 30
0.0
 10
-9.7044
 20
-5.3846
 30
0.0
 10
-9.7044
 20
-5.3846
 30
0.0
 10
-9.7044
 20
-5.3846
 30
0.0
 10
-9.7044
 20
-5.3829
 30
0.0
 10
-9.7044
 20
-5.3829
 30
0.0
 10
-9.7044
 20
-5.3829
 30
0.0
 10
-9.7044
 20
-5.3829
 30
0.0
 10
-9.7044
 20
-6.7743
 30
0.0
 10
-9.7044
 20
-6.7743
 30
0.0
  0
SPLINE
  5
87
330
1F
100
AcDbEntity
  8
ROUND
 62
   250
100
AcDbSpline
210
0.0
220
0.0
230
1.0
 70
    27
 71
     3
 72
    16
 73
    12
 74
     0
 42
0.0000000001
 43
0.0000000001
 40
0.0
 40
0.0
 40
0.0
 40
0.0
 40
0.25
 40
0.25
 40
0.25
 40
0.25
 40
0.5
 40
0.5
 40
0.5
 40
0.5
 40
1.0
 40
1.0
 40
1.0
 40
1.0
 10
-9.1938
 20
-6.7743
 30
0.0
 10
-9.1938
 20
-6.7743
 30
0.0
 10
-9.1938
 20
-5.3851
 30
0.0
 10
-9.1938
 20
-5.3851
 30
0.0
 10
-9.1938
 20
-5.3851
 30
0.0
 10
-9.1938
 20
-5.3851
 30
0.0
 10
-9.1938
 20
-5.3829
 30
0.0
 10
-9.1938
 20
-5.3829
 30
0.0
 10
-9.1938
 20
-5.3829
 30
0.0
 10
-9.1938
 20
-5.3829
 30
0.0
 10
-9.1938
 20
-6.7743
 30
0.0
 10
-9.1938
 20
-6.7743
 30
0.0
  0
SPLINE
  5
88
330
1F
100
AcDbEntity
  8
ROUND
 62
   250
100
AcDbSpline
210
0.0
220
0.0
230
1.0
 70
    27
 71
     3
 72
    16
 73
    12
 74
     0
 42
0.0000000001
 43
0.0000000001
 40
0.0
 40
0.0
 40
0.0
 40
0.0
 40
0.25
 40
0.25
 40
0.25
 40
0.25
 40
0.5
 40
0.5
 40
0.5
 40
0.5
 40
1.0
 40
1.0
 40
1.0
 40
1.0
 10
-8.6454
 20
-6.7743
 30
0.0
 10
-8.6454
 20
-6.7743
 30
0.0
 10
-8.6454
 20
-5.3857
 30
0.0
 10
-8.6454
 20
-5.3857
 30
0.0
 10
-8.6454
 20
-5.3857
 30
0.0
 10
-8.6454
 20
-5.3857
 30
0.0
 10
-8.6454
 20
-5.3829
 30
0.0
 10
-8.6454
 20
-5.3829
 30
0.0
 10
-8.6454
 20
-5.3829
 30
0.0
 10
-8.6454
 20
-5.3829
 30
0.0
 10
-8.6454
 20
-6.7743
 30
0.0
 10
-8.6454
 20
-6.7743
 30
0.0
  0
SPLINE
  5
89
330
1F
100
AcDbEntity
  8
ROUND
 62
   250
100
AcDbSpline
210
0.0
220
0.0
230
1.0
 70
    27
 71
     3
 72
    16
 73
    12
 74
     0
 42
0.0000000001
 43
0.0000000001
 40
0.0
 40
0.0
 40
0.0
 40
0.0
 40
0.25
 40
0.25
 40
0.25
 40
0.25
 40
0.5
 40
0.5
 40
0.5
 40
0.5
 40
1.0
 40
1.0
 40
1.0
 40
1.0
 10
-8.0664
 20
-6.7743
 30
0.0
 10
-8.0664
 20
-6.7743
 30
0.0
 10
-8.0664
 20
-5.3863
 30
0.0
 10
-8.0664
 20
-5.3863
 30
0.0
 10
-8.0664
 20
-5.3863
 30
0.0
 10
-8.0664
 20
-5.3863
 30
0.0
 10
-8.0664
 20
-5.3829
 30
0.0
 10
-8.0664
 20
-5.3829
 30
0.0
 10
-8.0664
 20
-5.3829
 30
0.0
 10
-8.0664
 20
-5.3829
 30
0.0
 10
-8.0664
 20
-6.7743
 30
0.0
 10
-8.0664
 20
-6.7743
 30
0.0
  0
SPLINE
  5
8A
330
1F
100
AcDbEntity
  8
ROUND
 62
   250
100
AcDbSpline
210
0.0
220
0.0
230
1.0
 70
    27
 71
     3
 72
    16
 73
    12
 74
     0
 42
0.0000000001
 43
0.0000000001
 40
0.0
 40
0.0
 40
0.0
 40
0.0
 40
0.25
 40
0.25
 40
0.25
 40
0.25
 40
0.5
 40
0.5
 40
0.5
 40
0.5
 40
1.0
 40
1.0
 40
1.0
 40
1.0
 10
-7.4603
 20
-6.7743
 30
0.0
 10
-7.4603
 20
-6.7743
 30
0.0
 10
-7.4603
 20
-5.387
 30
0.0
 10
-7.4603
 20
-5.387
 30
0.0
 10
-7.4603
 20
-5.387
 30
0.0
 10
-7.4603
 20
-5.387
 30
0.0
 10
-7.4603
 20
-5.3829
 30
0.0
 10
-7.4603
 20
-5.3829
 30
0.0
 10
-7.4603
 20
-5.3829
 30
0.0
 10
-7.4603
 20
-5.3829
 30
0.0
 10
-7.4603
 20
-6.7743
 30
0.0
 10
-7.4603
 20
-6.7743
 30
0.0
  0
SPLINE
  5
8B
330
1F
100
AcDbEntity
  8
ROUND
 62
   250
100
AcDbSpline
210
0.0
220
0.0
230
1.0
 70
    27
 71
     3
 72
    16
 73
    12
 74
     0
 42
0.0000000001
 43
0.0000000001
 40
0.0
 40
0.0
 40
0.0
 40
0.0
 40
0.25
 40
0.25
 40
0.25
 40
0.25
 40
0.5
 40
0.5
 40
0.5
 40
0.5
 40
1.0
 40
1.0
 40
1.0
 40
1.0
 10
-6.8358
 20
-6.7743
 30
0.0
 10
-6.8358
 20
-6.7743
 30
0.0
 10
-6.8358
 20
-5.3876
 30
0.0
 10
-6.8358
 20
-5.3876
 30
0.0
 10
-6.8358
 20
-5.3876
 30
0.0
 10
-6.8358
 20
-5.3876
 30
0.0
 10
-6.8358
 20
-5.3829
 30
0.0
 10
-6.8358
 20
-5.3829
 30
0.0
 10
-6.8358
 20
-5.3829
 30
0.0
 10
-6.8358
 20
-5.3829
 30
0.0
 10
-6.8358
 20
-6.7743
 30
0.0
 10
-6.8358
 20
-6.7743
 30
0.0
  0
SPLINE
  5
8C
330
1F
100
AcDbEntity
  8
ROUND
 62
   250
100
AcDbSpline
210
0.0
220
0.0
230
1.0
 70
    27
 71
     3
 72
    16
 73
    12
 74
     0
 42
0.0000000001
 43
0.0000000001
 40
0.0
 40
0.0
 40
0.0
 40
0.0
 40
0.25
 40
0.25
 40
0.25
 40
0.25
 40
0.5
 40
0.5
 40
0.5
 40
0.5
 40
1.0
 40
1.0
 40
1.0
 40
1.0
 10
-6.2006
 20
-6.7743
 30
0.0
 10
-6.2006
 20
-6.7743
 30
0.0
 10
-6.2006
 20
-5.3883
 30
0.0
 10
-6.2006
 20
-5.3883
 30
0.0
 10
-6.2006
 20
-5.3883
 30
0.0
 10
-6.2006
 20
-5.3883
 30
0.0
 10
-6.2006
 20
-5.3829
 30
0.0
 10
-6.2006
 20
-5.3829
 30
0.0
 10
-6.2006
 20
-5.3829
 30
0.0
 10
-6.2006
 20
-5.3829
 30
0.0
 10
-6.2006
 20
-6.7743
 30
0.0
 10
-6.2006
 20
-6.7743
 30
0.0
  0
SPLINE
  5
8D
330
1F
100
AcDbEntity
  8
ROUND
 62
   250
100
AcDbSpline
210
0.0
220
0.0
230
1.0
 70
    27
 71
     3
 72
    16
 73
    12
 74
     0
 42
0.0000000001
 43
0.0000000001
 40
0.0
 40
0.0
 40
0.0
 40
0.0
 40
0.25
 40
0.25
 40
0.25
 40
0.25
 40
0.5
 40
0.5
 40
0.5
 40
0.5
 40
1.0
 40
1.0
 40
1.0
 40
1.0
 10
-5.2805
 20
-6.7743
 30
0.0
 10
-5.2805
 20
-6.7743
 30
0.0
 10
-5.2805
 20
-5.3893
 30
0.0
 10
-5.2805
 20
-5.3893
 30
0.0
 10
-5.2805
 20
-5.3893
 30
0.0
 10
-5.2805
 20
-5.3893
 30
0.0
 10
-5.2805
 20
-5.3829
 30
0.0
 10
-5.2805
 20
-5.3829
 30
0.0
 10
-5.2805
 20
-5.3829
 30
0.0
 10
-5.2805
 20
-5.3829
 30
0.0
 10
-5.2805
 20
-6.7743
 30
0.0
 10
-5.2805
 20
-6.7743
 30
0.0
  0
SPLINE
  5
8E
330
1F
100
AcDbEntity
  8
ROUND
 62
   250
100
AcDbSpline
210
0.0
220
0.0
230
1.0
 70
    27
 71
     3
 72
    16
 73
    12
 74
     0
 42
0.0000000001
 43
0.0000000001
 40
0.0
 40
0.0
 40
0.0
 40
0.0
 40
0.25
 40
0.25
 40
0.25
 40
0.25
 40
0.5
 40
0.5
 40
0.5
 40
0.5
 40
1.0
 40
1.0
 40
1.0
 40
1.0
 10
-4.6452
 20
-6.7743
 30
0.0
 10
-4.6452
 20
-6.7743
 30
0.0
 10
-4.6452
 20
-5.39
 30
0.0
 10
-4.6452
 20
-5.39
 30
0.0
 10
-4.6452
 20
-5.39
 30
0.0
 10
-4.6452
 20
-5.39
 30
0.0
 10
-4.6452
 20
-5.3829
 30
0.0
 10
-4.6452
 20
-5.3829
 30
0.0
 10
-4.6452
 20
-5.3829
 30
0.0
 10
-4.6452
 20
-5.3829
 30
0.0
 10
-4.6452
 20
-6.7743
 30
0.0
 10
-4.6452
 20
-6.7743
 30
0.0
  0
SPLINE
  5
8F
330
1F
100
AcDbEntity
  8
ROUND
 62
   250
100
AcDbSpline
210
0.0
220
0.0
230
1.0
 70
    27
 71
     3
 72
    16
 73
    12
 74
     0
 42
0.0000000001
 43
0.0000000001
 40
0.0
 40
0.0
 40
0.0
 40
0.0
 40
0.25
 40
0.25
 40
0.25
 40
0.25
 40
0.5
 40
0.5
 40
0.5
 40
0.5
 40
1.0
 40
1.0
 40
1.0
 40
1.0
 10
-4.0207
 20
-6.7743
 30
0.0
 10
-4.0207
 20
-6.7743
 30
0.0
 10
-4.0207
 20
-5.3907
 30
0.0
 10
-4.0207
 20
-5.3907
 30
0.0
 10
-4.0207
 20
-5.3907
 30
0.0
 10
-4.0207
 20
-5.3907
 30
0.0
 10
-4.0207
 20
-5.3829
 30
0.0
 10
-4.0207
 20
-5.3829
 30
0.0
 10
-4.0207
 20
-5.3829
 30
0.0
 10
-4.0207
 20
-5.3829
 30
0.0
 10
-4.0207
 20
-6.7743
 30
0.0
 10
-4.0207
 20
-6.7743
 30
0.0
  0
SPLINE
  5
90
330
1F
100
AcDbEntity
  8
ROUND
 62
   250
100
AcDbSpline
210
0.0
220
0.0
230
1.0
 70
    27
 71
     3
 72
    16
 73
    12
 74
     0
 42
0.0000000001
 43
0.0000000001
 40
0.0
 40
0.0
 40
0.0
 40
0.0
 40
0.25
 40
0.25
 40
0.25
 40
0.25
 40
0.5
 40
0.5
 40
0.5
 40
0.5
 40
1.0
 40
1.0
 40
1.0
 40
1.0
 10
-3.415
 20
-6.7743
 30
0.0
 10
-3.415
 20
-6.7743
 30
0.0
 10
-3.415
 20
-5.3913
 30
0.0
 10
-3.415
 20
-5.3913
 30
0.0
 10
-3.415
 20
-5.3913
 30
0.0
 10
-3.415
 20
-5.3913
 30
0.0
 10
-3.415
 20
-5.3829
 30
0.0
 10
-3.415
 20
-5.3829
 30
0.0
 10
-3.415
 20
-5.3829
 30
0.0
 10
-3.415
 20
-5.3829
 30
0.0
 10
-3.415
 20
-6.7743
 30
0.0
 10
-3.415
 20
-6.7743
 30
0.0
  0
SPLINE
  5
91
330
1F
100
AcDbEntity
  8
ROUND
 62
   250
100
AcDbSpline
210
0.0
220
0.0
230
1.0
 70
    27
 71
     3
 72
    16
 73
    12
 74
     0
 42
0.0000000001
 43
0.0000000001
 40
0.0
 40
0.0
 40
0.0
 40
0.0
 40
0.25
 40
0.25
 40
0.25
 40
0.25
 40
0.5
 40
0.5
 40
0.5
 40
0.5
 40
1.0
 40
1.0
 40
1.0
 40
1.0
 10
-2.8349
 20
-6.7743
 30
0.0
 10
-2.8349
 20
-6.7743
 30
0.0
 10
-2.8349
 20
-5.3919
 30
0.0
 10
-2.8349
 20
-5.3919
 30
0.0
 10
-2.8349
 20
-5.3919
 30
0.0
 10
-2.8349
 20
-5.3919
 30
0.0
 10
-2.8349
 20
-5.3829
 30
0.0
 10
-2.8349
 20
-5.3829
 30
0.0
 10
-2.8349
 20
-5.3829
 30
0.0
 10
-2.8349
 20
-5.3829
 30
0.0
 10
-2.8349
 20
-6.7743
 30
0.0
 10
-2.8349
 20
-6.7743
 30
0.0
  0
SPLINE
  5
92
330
1F
100
AcDbEntity
  8
ROUND
 62
   250
100
AcDbSpline
210
0.0
220
0.0
230
1.0
 70
    27
 71
     3
 72
    12
 73
     8
 74
     0
 42
0.0000000001
 43
0.0000000001
 40
0.0
 40
0.0
 40
0.0
 40
0.0
 40
0.3333333333333333
 40
0.3333333333333333
 40
0.3333333333333333
 40
0.3333333333333333
 40
1.0
 40
1.0
 40
1.0
 40
1.0
 10
-11.8661
 20
-6.7743
 30
0.0
 10
-11.8661
 20
-6.7743
 30
0.0
 10
-11.8661
 20
-5.3829
 30
0.0
 10
-11.8661
 20
-5.3829
 30
0.0
 10
-11.8661
 20
-5.3829
 30
0.0
 10
-11.8661
 20
-5.3829
 30
0.0
 10
-11.8661
 20
-6.7743
 30
0.0
 10
-11.8661
 20
-6.7743
 30
0.0
  0
SPLINE
  5
93
330
1F
100
AcDbEntity
  8
ROUND
 62
   250
100
AcDbSpline
210
0.0
220
0.0
230
1.0
 70
    11
 71
     3
 72
    20
 73
    16
 74
     0
 42
0.0000000001
 43
0.0000000001
 40
0.0
 40
0.0
 40
0.0
 40
0.0
 40
0.2
 40
0.2
 40
0.2
 40
0.2
 40
0.4
 40
0.4
 40
0.4
 40
0.4
 40
0.6
 40
0.6
 40
0.6
 40
0.6
 40
1.0
 40
1.0
 40
1.0
 40
1.0
 10
-22.0432
 20
6.7269
 30
0.0
 10
-22.0432
 20
6.7269
 30
0.0
 10
-22.0432
 20
6.18
 30
0.0
 10
-22.0432
 20
6.18
 30
0.0
 10
-22.0432
 20
6.18
 30
0.0
 10
-22.0432
 20
6.18
 30
0.0
 10
-33.9958
 20
6.18
 30
0.0
 10
-33.9958
 20
6.18
 30
0.0
 10
-33.9958
 20
6.18
 30
0.0
 10
-33.9958
 20
6.18
 30
0.0
 10
-33.9958
 20
6.7269
 30
0.0
 10
-33.9958
 20
6.7269
 30
0.0
 10
-33.9958
 20
6.7269
 30
0.0
 10
-33.9958
 20
6.7269
 30
0.0
 10
-22.0432
 20
6.7269
 30
0.0
 10
-22.0432
 20
6.7269
 30
0.0
  0
SPLINE
  5
94
330
1F
100
AcDbEntity
  8
ROUND
 62
   250
100
AcDbSpline
210
0.0
220
0.0
230
1.0
 70
     8
 71
     3
 72
     8
 73
     4
 74
     0
 42
0.0000000001
 43
0.0000000001
 40
0.0
 40
0.0
 40
0.0
 40
0.0
 40
1.0
 40
1.0
 40
1.0
 40
1.0
 10
-33.3174
 20
8.9355
 30
0.0
 10
-33.702
 20
8.9355
 30
0.0
 10
-34.0137
 20
8.6238
 30
0.0
 10
-34.0137
 20
8.2392
 30
0.0
  0
SPLINE
  5
95
330
1F
100
AcDbEntity
  8
ROUND
 62
   250
100
AcDbSpline
210
0.0
220
0.0
230
1.0
 70
     8
 71
     3
 72
   124
 73
   120
 74
     0
 42
0.0000000001
 43
0.0000000001
 40
0.0
 40
0.0
 40
0.0
 40
0.0
 40
0.032258064516129
 40
0.032258064516129
 40
0.032258064516129
 40
0.032258064516129
 40
0.0645161290322581
 40
0.0645161290322581
 40
0.0645161290322581
 40
0.0645161290322581
 40
0.0967741935483871
 40
0.0967741935483871
 40
0.0967741935483871
 40
0.0967741935483871
 40
0.1290322580645161
 40
0.1290322580645161
 40
0.1290322580645161
 40
0.1290322580645161
 40
0.1612903225806452
 40
0.1612903225806452
 40
0.1612903225806452
 40
0.1612903225806452
 40
0.1935483870967742
 40
0.1935483870967742
 40
0.1935483870967742
 40
0.1935483870967742
 40
0.2258064516129032
 40
0.2258064516129032
 40
0.2258064516129032
 40
0.2258064516129032
 40
0.2580645161290323
 40
0.2580645161290323
 40
0.2580645161290323
 40
0.2580645161290323
 40
0.2903225806451613
 40
0.2903225806451613
 40
0.2903225806451613
 40
0.2903225806451613
 40
0.3225806451612903
 40
0.3225806451612903
 40
0.3225806451612903
 40
0.3225806451612903
 40
0.3548387096774194
 40
0.3548387096774194
 40
0.3548387096774194
 40
0.3548387096774194
 40
0.3870967741935484
 40
0.3870967741935484
 40
0.3870967741935484
 40
0.3870967741935484
 40
0.4193548387096774
 40
0.4193548387096774
 40
0.4193548387096774
 40
0.4193548387096774
 40
0.4516129032258064
 40
0.4516129032258064
 40
0.4516129032258064
 40
0.4516129032258064
 40
0.4838709677419355
 40
0.4838709677419355
 40
0.4838709677419355
 40
0.4838709677419355
 40
0.5161290322580645
 40
0.5161290322580645
 40
0.5161290322580645
 40
0.5161290322580645
 40
0.5483870967741935
 40
0.5483870967741935
 40
0.5483870967741935
 40
0.5483870967741935
 40
0.5806451612903226
 40
0.5806451612903226
 40
0.5806451612903226
 40
0.5806451612903226
 40
0.6129032258064516
 40
0.6129032258064516
 40
0.6129032258064516
 40
0.6129032258064516
 40
0.6451612903225806
 40
0.6451612903225806
 40
0.6451612903225806
 40
0.6451612903225806
 40
0.6774193548387096
 40
0.6774193548387096
 40
0.6774193548387096
 40
0.6774193548387096
 40
0.7096774193548387
 40
0.7096774193548387
 40
0.7096774193548387
 40
0.7096774193548387
 40
0.7419354838709677
 40
0.7419354838709677
 40
0.7419354838709677
 40
0.7419354838709677
 40
0.7741935483870968
 40
0.7741935483870968
 40
0.7741935483870968
 40
0.7741935483870968
 40
0.8064516129032258
 40
0.8064516129032258
 40
0.8064516129032258
 40
0.8064516129032258
 40
0.8387096774193549
 40
0.8387096774193549
 40
0.8387096774193549
 40
0.8387096774193549
 40
0.8709677419354839
 40
0.8709677419354839
 40
0.8709677419354839
 40
0.8709677419354839
 40
0.9032258064516129
 40
0.9032258064516129
 40
0.9032258064516129
 40
0.9032258064516129
 40
0.9354838709677419
 40
0.9354838709677419
 40
0.9354838709677419
 40
0.9354838709677419
 40
1.0
 40
1.0
 40
1.0
 40
1.0
 10
-34.0137
 20
8.2392
 30
0.0
 10
-34.0137
 20
8.2392
 30
0.0
 10
-34.0223
 20
8.0997
 30
0.0
 10
-34.0223
 20
8.0997
 30
0.0
 10
-34.0223
 20
8.0997
 30
0.0
 10
-34.0223
 20
8.0997
 30
0.0
 10
-33.2391
 20
8.0989
 30
0.0
 10
-33.2391
 20
8.0989
 30
0.0
 10
-33.2391
 20
8.0989
 30
0.0
 10
-33.2391
 20
8.0989
 30
0.0
 10
-32.874
 20
8.0985
 30
0.0
 10
-32.874
 20
8.0985
 30
0.0
 10
-32.874
 20
8.0985
 30
0.0
 10
-32.874
 20
8.0985
 30
0.0
 10
-32.4551
 20
8.098
 30
0.0
 10
-32.4551
 20
8.098
 30
0.0
 10
-32.4551
 20
8.098
 30
0.0
 10
-32.4551
 20
8.098
 30
0.0
 10
-31.9891
 20
8.0975
 30
0.0
 10
-31.9891
 20
8.0975
 30
0.0
 10
-31.9891
 20
8.0975
 30
0.0
 10
-31.9891
 20
8.0975
 30
0.0
 10
-31.4785
 20
8.097
 30
0.0
 10
-31.4785
 20
8.097
 30
0.0
 10
-31.4785
 20
8.097
 30
0.0
 10
-31.4785
 20
8.097
 30
0.0
 10
-30.9301
 20
8.0964
 30
0.0
 10
-30.9301
 20
8.0964
 30
0.0
 10
-30.9301
 20
8.0964
 30
0.0
 10
-30.9301
 20
8.0964
 30
0.0
 10
-30.3511
 20
8.0958
 30
0.0
 10
-30.3511
 20
8.0958
 30
0.0
 10
-30.3511
 20
8.0958
 30
0.0
 10
-30.3511
 20
8.0958
 30
0.0
 10
-29.745
 20
8.0951
 30
0.0
 10
-29.745
 20
8.0951
 30
0.0
 10
-29.745
 20
8.0951
 30
0.0
 10
-29.745
 20
8.0951
 30
0.0
 10
-29.1205
 20
8.0945
 30
0.0
 10
-29.1205
 20
8.0945
 30
0.0
 10
-29.1205
 20
8.0945
 30
0.0
 10
-29.1205
 20
8.0945
 30
0.0
 10
-28.4853
 20
8.0938
 30
0.0
 10
-28.4853
 20
8.0938
 30
0.0
 10
-28.4853
 20
8.0938
 30
0.0
 10
-28.4853
 20
8.0938
 30
0.0
 10
-27.5652
 20
8.0928
 30
0.0
 10
-27.5652
 20
8.0928
 30
0.0
 10
-27.5652
 20
8.0928
 30
0.0
 10
-27.5652
 20
8.0928
 30
0.0
 10
-26.9299
 20
8.0921
 30
0.0
 10
-26.9299
 20
8.0921
 30
0.0
 10
-26.9299
 20
8.0921
 30
0.0
 10
-26.9299
 20
8.0921
 30
0.0
 10
-26.3054
 20
8.0914
 30
0.0
 10
-26.3054
 20
8.0914
 30
0.0
 10
-26.3054
 20
8.0914
 30
0.0
 10
-26.3054
 20
8.0914
 30
0.0
 10
-25.6997
 20
8.0908
 30
0.0
 10
-25.6997
 20
8.0908
 30
0.0
 10
-25.6997
 20
8.0908
 30
0.0
 10
-25.6997
 20
8.0908
 30
0.0
 10
-25.1196
 20
8.0902
 30
0.0
 10
-25.1196
 20
8.0902
 30
0.0
 10
-25.1196
 20
8.0902
 30
0.0
 10
-25.1196
 20
8.0902
 30
0.0
 10
-24.5717
 20
8.0896
 30
0.0
 10
-24.5717
 20
8.0896
 30
0.0
 10
-24.5717
 20
8.0896
 30
0.0
 10
-24.5717
 20
8.0896
 30
0.0
 10
-24.0619
 20
8.089
 30
0.0
 10
-24.0619
 20
8.089
 30
0.0
 10
-24.0619
 20
8.089
 30
0.0
 10
-24.0619
 20
8.089
 30
0.0
 10
-23.5945
 20
8.0885
 30
0.0
 10
-23.5945
 20
8.0885
 30
0.0
 10
-23.5945
 20
8.0885
 30
0.0
 10
-23.5945
 20
8.0885
 30
0.0
 10
-23.1766
 20
8.0881
 30
0.0
 10
-23.1766
 20
8.0881
 30
0.0
 10
-23.1766
 20
8.0881
 30
0.0
 10
-23.1766
 20
8.0881
 30
0.0
 10
-22.8127
 20
8.0877
 30
0.0
 10
-22.8127
 20
8.0877
 30
0.0
 10
-22.8127
 20
8.0877
 30
0.0
 10
-22.8127
 20
8.0877
 30
0.0
 10
-22.3556
 20
8.0872
 30
0.0
 10
-22.3556
 20
8.0872
 30
0.0
 10
-22.3556
 20
8.0872
 30
0.0
 10
-22.3556
 20
8.0872
 30
0.0
 10
-21.968
 20
8.0868
 30
0.0
 10
-21.968
 20
8.0868
 30
0.0
 10
-21.968
 20
8.0868
 30
0.0
 10
-21.968
 20
8.0868
 30
0.0
 10
-21.9808
 20
8.3317
 30
0.0
 10
-21.9808
 20
8.3317
 30
0.0
 10
-21.9808
 20
8.3317
 30
0.0
 10
-21.9808
 20
8.3317
 30
0.0
 10
-22.0709
 20
8.5637
 30
0.0
 10
-22.0709
 20
8.5637
 30
0.0
 10
-22.0709
 20
8.5637
 30
0.0
 10
-22.0709
 20
8.5637
 30
0.0
 10
-22.1995
 20
8.7313
 30
0.0
 10
-22.1995
 20
8.7313
 30
0.0
 10
-22.1995
 20
8.7313
 30
0.0
 10
-22.1995
 20
8.7313
 30
0.0
 10
-22.444
 20
8.8731
 30
0.0
 10
-22.444
 20
8.8731
 30
0.0
 10
-22.444
 20
8.8731
 30
0.0
 10
-22.444
 20
8.8731
 30
0.0
 10
-22.5726
 20
8.9376
 30
0.0
 10
-22.5726
 20
8.9376
 30
0.0
 10
-22.5726
 20
8.9376
 30
0.0
 10
-22.5726
 20
8.9376
 30
0.0
 10
-22.6627
 20
8.9376
 30
0.0
 10
-22.6627
 20
8.9376
 30
0.0
 10
-22.6627
 20
8.9376
 30
0.0
 10
-22.6627
 20
8.9376
 30
0.0
 10
-33.3174
 20
8.9355
 30
0.0
 10
-33.3174
 20
8.9355
 30
0.0
  0
SPLINE
  5
96
330
1F
100
AcDbEntity
  8
ROUND
 62
   250
100
AcDbSpline
210
0.0
220
0.0
230
1.0
 70
    27
 71
     3
 72
    12
 73
     8
 74
     0
 42
0.0000000001
 43
0.0000000001
 40
0.0
 40
0.0
 40
0.0
 40
0.0
 40
0.3333333333333333
 40
0.3333333333333333
 40
0.3333333333333333
 40
0.3333333333333333
 40
1.0
 40
1.0
 40
1.0
 40
1.0
 10
-21.9003
 20
6.7078
 30
0.0
 10
-21.9003
 20
6.7078
 30
0.0
 10
-21.9003
 20
8.0992
 30
0.0
 10
-21.9003
 20
8.0992
 30
0.0
 10
-21.9003
 20
8.0992
 30
0.0
 10
-21.9003
 20
8.0992
 30
0.0
 10
-21.9003
 20
6.7078
 30
0.0
 10
-21.9003
 20
6.7078
 30
0.0
  0
SPLINE
  5
97
330
1F
100
AcDbEntity
  8
ROUND
 62
   250
100
AcDbSpline
210
0.0
220
0.0
230
1.0
 70
    27
 71
     3
 72
    16
 73
    12
 74
     0
 42
0.0000000001
 43
0.0000000001
 40
0.0
 40
0.0
 40
0.0
 40
0.0
 40
0.25
 40
0.25
 40
0.25
 40
0.25
 40
0.5
 40
0.5
 40
0.5
 40
0.5
 40
1.0
 40
1.0
 40
1.0
 40
1.0
 10
-24.0619
 20
6.7078
 30
0.0
 10
-24.0619
 20
6.7078
 30
0.0
 10
-24.0619
 20
8.089
 30
0.0
 10
-24.0619
 20
8.089
 30
0.0
 10
-24.0619
 20
8.089
 30
0.0
 10
-24.0619
 20
8.089
 30
0.0
 10
-24.0619
 20
8.0992
 30
0.0
 10
-24.0619
 20
8.0992
 30
0.0
 10
-24.0619
 20
8.0992
 30
0.0
 10
-24.0619
 20
8.0992
 30
0.0
 10
-24.0619
 20
6.7078
 30
0.0
 10
-24.0619
 20
6.7078
 30
0.0
  0
SPLINE
  5
98
330
1F
100
AcDbEntity
  8
ROUND
 62
   250
100
AcDbSpline
210
0.0
220
0.0
230
1.0
 70
    27
 71
     3
 72
    16
 73
    12
 74
     0
 42
0.0000000001
 43
0.0000000001
 40
0.0
 40
0.0
 40
0.0
 40
0.0
 40
0.25
 40
0.25
 40
0.25
 40
0.25
 40
0.5
 40
0.5
 40
0.5
 40
0.5
 40
1.0
 40
1.0
 40
1.0
 40
1.0
 10
-23.5945
 20
6.7078
 30
0.0
 10
-23.5945
 20
6.7078
 30
0.0
 10
-23.5945
 20
8.0885
 30
0.0
 10
-23.5945
 20
8.0885
 30
0.0
 10
-23.5945
 20
8.0885
 30
0.0
 10
-23.5945
 20
8.0885
 30
0.0
 10
-23.5945
 20
8.0992
 30
0.0
 10
-23.5945
 20
8.0992
 30
0.0
 10
-23.5945
 20
8.0992
 30
0.0
 10
-23.5945
 20
8.0992
 30
0.0
 10
-23.5945
 20
6.7078
 30
0.0
 10
-23.5945
 20
6.7078
 30
0.0
  0
SPLINE
  5
99
330
1F
100
AcDbEntity
  8
ROUND
 62
   250
100
AcDbSpline
210
0.0
220
0.0
230
1.0
 70
    27
 71
     3
 72
    16
 73
    12
 74
     0
 42
0.0000000001
 43
0.0000000001
 40
0.0
 40
0.0
 40
0.0
 40
0.0
 40
0.25
 40
0.25
 40
0.25
 40
0.25
 40
0.5
 40
0.5
 40
0.5
 40
0.5
 40
1.0
 40
1.0
 40
1.0
 40
1.0
 10
-23.1766
 20
6.7078
 30
0.0
 10
-23.1766
 20
6.7078
 30
0.0
 10
-23.1766
 20
8.0881
 30
0.0
 10
-23.1766
 20
8.0881
 30
0.0
 10
-23.1766
 20
8.0881
 30
0.0
 10
-23.1766
 20
8.0881
 30
0.0
 10
-23.1766
 20
8.0992
 30
0.0
 10
-23.1766
 20
8.0992
 30
0.0
 10
-23.1766
 20
8.0992
 30
0.0
 10
-23.1766
 20
8.0992
 30
0.0
 10
-23.1766
 20
6.7078
 30
0.0
 10
-23.1766
 20
6.7078
 30
0.0
  0
SPLINE
  5
9A
330
1F
100
AcDbEntity
  8
ROUND
 62
   250
100
AcDbSpline
210
0.0
220
0.0
230
1.0
 70
    27
 71
     3
 72
    16
 73
    12
 74
     0
 42
0.0000000001
 43
0.0000000001
 40
0.0
 40
0.0
 40
0.0
 40
0.0
 40
0.25
 40
0.25
 40
0.25
 40
0.25
 40
0.5
 40
0.5
 40
0.5
 40
0.5
 40
1.0
 40
1.0
 40
1.0
 40
1.0
 10
-22.8127
 20
6.7078
 30
0.0
 10
-22.8127
 20
6.7078
 30
0.0
 10
-22.8127
 20
8.0877
 30
0.0
 10
-22.8127
 20
8.0877
 30
0.0
 10
-22.8127
 20
8.0877
 30
0.0
 10
-22.8127
 20
8.0877
 30
0.0
 10
-22.8127
 20
8.0992
 30
0.0
 10
-22.8127
 20
8.0992
 30
0.0
 10
-22.8127
 20
8.0992
 30
0.0
 10
-22.8127
 20
8.0992
 30
0.0
 10
-22.8127
 20
6.7078
 30
0.0
 10
-22.8127
 20
6.7078
 30
0.0
  0
SPLINE
  5
9B
330
1F
100
AcDbEntity
  8
ROUND
 62
   250
100
AcDbSpline
210
0.0
220
0.0
230
1.0
 70
    27
 71
     3
 72
    16
 73
    12
 74
     0
 42
0.0000000001
 43
0.0000000001
 40
0.0
 40
0.0
 40
0.0
 40
0.0
 40
0.25
 40
0.25
 40
0.25
 40
0.25
 40
0.5
 40
0.5
 40
0.5
 40
0.5
 40
1.0
 40
1.0
 40
1.0
 40
1.0
 10
-22.3556
 20
6.7078
 30
0.0
 10
-22.3556
 20
6.7078
 30
0.0
 10
-22.3556
 20
8.0872
 30
0.0
 10
-22.3556
 20
8.0872
 30
0.0
 10
-22.3556
 20
8.0872
 30
0.0
 10
-22.3556
 20
8.0872
 30
0.0
 10
-22.3556
 20
8.0992
 30
0.0
 10
-22.3556
 20
8.0992
 30
0.0
 10
-22.3556
 20
8.0992
 30
0.0
 10
-22.3556
 20
8.0992
 30
0.0
 10
-22.3556
 20
6.7078
 30
0.0
 10
-22.3556
 20
6.7078
 30
0.0
  0
SPLINE
  5
9C
330
1F
100
AcDbEntity
  8
ROUND
 62
   250
100
AcDbSpline
210
0.0
220
0.0
230
1.0
 70
    27
 71
     3
 72
    16
 73
    12
 74
     0
 42
0.0000000001
 43
0.0000000001
 40
0.0
 40
0.0
 40
0.0
 40
0.0
 40
0.25
 40
0.25
 40
0.25
 40
0.25
 40
0.5
 40
0.5
 40
0.5
 40
0.5
 40
1.0
 40
1.0
 40
1.0
 40
1.0
 10
-24.5717
 20
6.7078
 30
0.0
 10
-24.5717
 20
6.7078
 30
0.0
 10
-24.5717
 20
8.0896
 30
0.0
 10
-24.5717
 20
8.0896
 30
0.0
 10
-24.5717
 20
8.0896
 30
0.0
 10
-24.5717
 20
8.0896
 30
0.0
 10
-24.5717
 20
8.0992
 30
0.0
 10
-24.5717
 20
8.0992
 30
0.0
 10
-24.5717
 20
8.0992
 30
0.0
 10
-24.5717
 20
8.0992
 30
0.0
 10
-24.5717
 20
6.7078
 30
0.0
 10
-24.5717
 20
6.7078
 30
0.0
  0
SPLINE
  5
9D
330
1F
100
AcDbEntity
  8
ROUND
 62
   250
100
AcDbSpline
210
0.0
220
0.0
230
1.0
 70
    27
 71
     3
 72
    12
 73
     8
 74
     0
 42
0.0000000001
 43
0.0000000001
 40
0.0
 40
0.0
 40
0.0
 40
0.0
 40
0.3333333333333333
 40
0.3333333333333333
 40
0.3333333333333333
 40
0.3333333333333333
 40
1.0
 40
1.0
 40
1.0
 40
1.0
 10
-33.6944
 20
6.7078
 30
0.0
 10
-33.6944
 20
6.7078
 30
0.0
 10
-33.6944
 20
8.0992
 30
0.0
 10
-33.6944
 20
8.0992
 30
0.0
 10
-33.6944
 20
8.0992
 30
0.0
 10
-33.6944
 20
8.0992
 30
0.0
 10
-33.6944
 20
6.7078
 30
0.0
 10
-33.6944
 20
6.7078
 30
0.0
  0
SPLINE
  5
9E
330
1F
100
AcDbEntity
  8
ROUND
 62
   250
100
AcDbSpline
210
0.0
220
0.0
230
1.0
 70
    27
 71
     3
 72
    16
 73
    12
 74
     0
 42
0.0000000001
 43
0.0000000001
 40
0.0
 40
0.0
 40
0.0
 40
0.0
 40
0.25
 40
0.25
 40
0.25
 40
0.25
 40
0.5
 40
0.5
 40
0.5
 40
0.5
 40
1.0
 40
1.0
 40
1.0
 40
1.0
 10
-33.2391
 20
6.7078
 30
0.0
 10
-33.2391
 20
6.7078
 30
0.0
 10
-33.2391
 20
8.0989
 30
0.0
 10
-33.2391
 20
8.0989
 30
0.0
 10
-33.2391
 20
8.0989
 30
0.0
 10
-33.2391
 20
8.0989
 30
0.0
 10
-33.2391
 20
8.0992
 30
0.0
 10
-33.2391
 20
8.0992
 30
0.0
 10
-33.2391
 20
8.0992
 30
0.0
 10
-33.2391
 20
8.0992
 30
0.0
 10
-33.2391
 20
6.7078
 30
0.0
 10
-33.2391
 20
6.7078
 30
0.0
  0
SPLINE
  5
9F
330
1F
100
AcDbEntity
  8
ROUND
 62
   250
100
AcDbSpline
210
0.0
220
0.0
230
1.0
 70
    27
 71
     3
 72
    16
 73
    12
 74
     0
 42
0.0000000001
 43
0.0000000001
 40
0.0
 40
0.0
 40
0.0
 40
0.0
 40
0.25
 40
0.25
 40
0.25
 40
0.25
 40
0.5
 40
0.5
 40
0.5
 40
0.5
 40
1.0
 40
1.0
 40
1.0
 40
1.0
 10
-32.874
 20
6.7078
 30
0.0
 10
-32.874
 20
6.7078
 30
0.0
 10
-32.874
 20
8.0985
 30
0.0
 10
-32.874
 20
8.0985
 30
0.0
 10
-32.874
 20
8.0985
 30
0.0
 10
-32.874
 20
8.0985
 30
0.0
 10
-32.874
 20
8.0992
 30
0.0
 10
-32.874
 20
8.0992
 30
0.0
 10
-32.874
 20
8.0992
 30
0.0
 10
-32.874
 20
8.0992
 30
0.0
 10
-32.874
 20
6.7078
 30
0.0
 10
-32.874
 20
6.7078
 30
0.0
  0
SPLINE
  5
A0
330
1F
100
AcDbEntity
  8
ROUND
 62
   250
100
AcDbSpline
210
0.0
220
0.0
230
1.0
 70
    27
 71
     3
 72
    16
 73
    12
 74
     0
 42
0.0000000001
 43
0.0000000001
 40
0.0
 40
0.0
 40
0.0
 40
0.0
 40
0.25
 40
0.25
 40
0.25
 40
0.25
 40
0.5
 40
0.5
 40
0.5
 40
0.5
 40
1.0
 40
1.0
 40
1.0
 40
1.0
 10
-32.4551
 20
6.7078
 30
0.0
 10
-32.4551
 20
6.7078
 30
0.0
 10
-32.4551
 20
8.098
 30
0.0
 10
-32.4551
 20
8.098
 30
0.0
 10
-32.4551
 20
8.098
 30
0.0
 10
-32.4551
 20
8.098
 30
0.0
 10
-32.4551
 20
8.0992
 30
0.0
 10
-32.4551
 20
8.0992
 30
0.0
 10
-32.4551
 20
8.0992
 30
0.0
 10
-32.4551
 20
8.0992
 30
0.0
 10
-32.4551
 20
6.7078
 30
0.0
 10
-32.4551
 20
6.7078
 30
0.0
  0
SPLINE
  5
A1
330
1F
100
AcDbEntity
  8
ROUND
 62
   250
100
AcDbSpline
210
0.0
220
0.0
230
1.0
 70
    27
 71
     3
 72
    16
 73
    12
 74
     0
 42
0.0000000001
 43
0.0000000001
 40
0.0
 40
0.0
 40
0.0
 40
0.0
 40
0.25
 40
0.25
 40
0.25
 40
0.25
 40
0.5
 40
0.5
 40
0.5
 40
0.5
 40
1.0
 40
1.0
 40
1.0
 40
1.0
 10
-31.9891
 20
6.7078
 30
0.0
 10
-31.9891
 20
6.7078
 30
0.0
 10
-31.9891
 20
8.0975
 30
0.0
 10
-31.9891
 20
8.0975
 30
0.0
 10
-31.9891
 20
8.0975
 30
0.0
 10
-31.9891
 20
8.0975
 30
0.0
 10
-31.9891
 20
8.0992
 30
0.0
 10
-31.9891
 20
8.0992
 30
0.0
 10
-31.9891
 20
8.0992
 30
0.0
 10
-31.9891
 20
8.0992
 30
0.0
 10
-31.9891
 20
6.7078
 30
0.0
 10
-31.9891
 20
6.7078
 30
0.0
  0
SPLINE
  5
A2
330
1F
100
AcDbEntity
  8
ROUND
 62
   250
100
AcDbSpline
210
0.0
220
0.0
230
1.0
 70
    27
 71
     3
 72
    16
 73
    12
 74
     0
 42
0.0000000001
 43
0.0000000001
 40
0.0
 40
0.0
 40
0.0
 40
0.0
 40
0.25
 40
0.25
 40
0.25
 40
0.25
 40
0.5
 40
0.5
 40
0.5
 40
0.5
 40
1.0
 40
1.0
 40
1.0
 40
1.0
 10
-31.4785
 20
6.7078
 30
0.0
 10
-31.4785
 20
6.7078
 30
0.0
 10
-31.4785
 20
8.097
 30
0.0
 10
-31.4785
 20
8.097
 30
0.0
 10
-31.4785
 20
8.097
 30
0.0
 10
-31.4785
 20
8.097
 30
0.0
 10
-31.4785
 20
8.0992
 30
0.0
 10
-31.4785
 20
8.0992
 30
0.0
 10
-31.4785
 20
8.0992
 30
0.0
 10
-31.4785
 20
8.0992
 30
0.0
 10
-31.4785
 20
6.7078
 30
0.0
 10
-31.4785
 20
6.7078
 30
0.0
  0
SPLINE
  5
A3
330
1F
100
AcDbEntity
  8
ROUND
 62
   250
100
AcDbSpline
210
0.0
220
0.0
230
1.0
 70
    27
 71
     3
 72
    16
 73
    12
 74
     0
 42
0.0000000001
 43
0.0000000001
 40
0.0
 40
0.0
 40
0.0
 40
0.0
 40
0.25
 40
0.25
 40
0.25
 40
0.25
 40
0.5
 40
0.5
 40
0.5
 40
0.5
 40
1.0
 40
1.0
 40
1.0
 40
1.0
 10
-30.9301
 20
6.7078
 30
0.0
 10
-30.9301
 20
6.7078
 30
0.0
 10
-30.9301
 20
8.0964
 30
0.0
 10
-30.9301
 20
8.0964
 30
0.0
 10
-30.9301
 20
8.0964
 30
0.0
 10
-30.9301
 20
8.0964
 30
0.0
 10
-30.9301
 20
8.0992
 30
0.0
 10
-30.9301
 20
8.0992
 30
0.0
 10
-30.9301
 20
8.0992
 30
0.0
 10
-30.9301
 20
8.0992
 30
0.0
 10
-30.9301
 20
6.7078
 30
0.0
 10
-30.9301
 20
6.7078
 30
0.0
  0
SPLINE
  5
A4
330
1F
100
AcDbEntity
  8
ROUND
 62
   250
100
AcDbSpline
210
0.0
220
0.0
230
1.0
 70
    27
 71
     3
 72
    16
 73
    12
 74
     0
 42
0.0000000001
 43
0.0000000001
 40
0.0
 40
0.0
 40
0.0
 40
0.0
 40
0.25
 40
0.25
 40
0.25
 40
0.25
 40
0.5
 40
0.5
 40
0.5
 40
0.5
 40
1.0
 40
1.0
 40
1.0
 40
1.0
 10
-30.3511
 20
6.7078
 30
0.0
 10
-30.3511
 20
6.7078
 30
0.0
 10
-30.3511
 20
8.0958
 30
0.0
 10
-30.3511
 20
8.0958
 30
0.0
 10
-30.3511
 20
8.0958
 30
0.0
 10
-30.3511
 20
8.0958
 30
0.0
 10
-30.3511
 20
8.0992
 30
0.0
 10
-30.3511
 20
8.0992
 30
0.0
 10
-30.3511
 20
8.0992
 30
0.0
 10
-30.3511
 20
8.0992
 30
0.0
 10
-30.3511
 20
6.7078
 30
0.0
 10
-30.3511
 20
6.7078
 30
0.0
  0
SPLINE
  5
A5
330
1F
100
AcDbEntity
  8
ROUND
 62
   250
100
AcDbSpline
210
0.0
220
0.0
230
1.0
 70
    27
 71
     3
 72
    16
 73
    12
 74
     0
 42
0.0000000001
 43
0.0000000001
 40
0.0
 40
0.0
 40
0.0
 40
0.0
 40
0.25
 40
0.25
 40
0.25
 40
0.25
 40
0.5
 40
0.5
 40
0.5
 40
0.5
 40
1.0
 40
1.0
 40
1.0
 40
1.0
 10
-29.745
 20
6.7078
 30
0.0
 10
-29.745
 20
6.7078
 30
0.0
 10
-29.745
 20
8.0951
 30
0.0
 10
-29.745
 20
8.0951
 30
0.0
 10
-29.745
 20
8.0951
 30
0.0
 10
-29.745
 20
8.0951
 30
0.0
 10
-29.745
 20
8.0992
 30
0.0
 10
-29.745
 20
8.0992
 30
0.0
 10
-29.745
 20
8.0992
 30
0.0
 10
-29.745
 20
8.0992
 30
0.0
 10
-29.745
 20
6.7078
 30
0.0
 10
-29.745
 20
6.7078
 30
0.0
  0
SPLINE
  5
A6
330
1F
100
AcDbEntity
  8
ROUND
 62
   250
100
AcDbSpline
210
0.0
220
0.0
230
1.0
 70
    27
 71
     3
 72
    16
 73
    12
 74
     0
 42
0.0000000001
 43
0.0000000001
 40
0.0
 40
0.0
 40
0.0
 40
0.0
 40
0.25
 40
0.25
 40
0.25
 40
0.25
 40
0.5
 40
0.5
 40
0.5
 40
0.5
 40
1.0
 40
1.0
 40
1.0
 40
1.0
 10
-29.1205
 20
6.7078
 30
0.0
 10
-29.1205
 20
6.7078
 30
0.0
 10
-29.1205
 20
8.0945
 30
0.0
 10
-29.1205
 20
8.0945
 30
0.0
 10
-29.1205
 20
8.0945
 30
0.0
 10
-29.1205
 20
8.0945
 30
0.0
 10
-29.1205
 20
8.0992
 30
0.0
 10
-29.1205
 20
8.0992
 30
0.0
 10
-29.1205
 20
8.0992
 30
0.0
 10
-29.1205
 20
8.0992
 30
0.0
 10
-29.1205
 20
6.7078
 30
0.0
 10
-29.1205
 20
6.7078
 30
0.0
  0
SPLINE
  5
A7
330
1F
100
AcDbEntity
  8
ROUND
 62
   250
100
AcDbSpline
210
0.0
220
0.0
230
1.0
 70
    27
 71
     3
 72
    16
 73
    12
 74
     0
 42
0.0000000001
 43
0.0000000001
 40
0.0
 40
0.0
 40
0.0
 40
0.0
 40
0.25
 40
0.25
 40
0.25
 40
0.25
 40
0.5
 40
0.5
 40
0.5
 40
0.5
 40
1.0
 40
1.0
 40
1.0
 40
1.0
 10
-28.4853
 20
6.7078
 30
0.0
 10
-28.4853
 20
6.7078
 30
0.0
 10
-28.4853
 20
8.0938
 30
0.0
 10
-28.4853
 20
8.0938
 30
0.0
 10
-28.4853
 20
8.0938
 30
0.0
 10
-28.4853
 20
8.0938
 30
0.0
 10
-28.4853
 20
8.0992
 30
0.0
 10
-28.4853
 20
8.0992
 30
0.0
 10
-28.4853
 20
8.0992
 30
0.0
 10
-28.4853
 20
8.0992
 30
0.0
 10
-28.4853
 20
6.7078
 30
0.0
 10
-28.4853
 20
6.7078
 30
0.0
  0
SPLINE
  5
A8
330
1F
100
AcDbEntity
  8
ROUND
 62
   250
100
AcDbSpline
210
0.0
220
0.0
230
1.0
 70
    27
 71
     3
 72
    16
 73
    12
 74
     0
 42
0.0000000001
 43
0.0000000001
 40
0.0
 40
0.0
 40
0.0
 40
0.0
 40
0.25
 40
0.25
 40
0.25
 40
0.25
 40
0.5
 40
0.5
 40
0.5
 40
0.5
 40
1.0
 40
1.0
 40
1.0
 40
1.0
 10
-27.5652
 20
6.7078
 30
0.0
 10
-27.5652
 20
6.7078
 30
0.0
 10
-27.5652
 20
8.0928
 30
0.0
 10
-27.5652
 20
8.0928
 30
0.0
 10
-27.5652
 20
8.0928
 30
0.0
 10
-27.5652
 20
8.0928
 30
0.0
 10
-27.5652
 20
8.0992
 30
0.0
 10
-27.5652
 20
8.0992
 30
0.0
 10
-27.5652
 20
8.0992
 30
0.0
 10
-27.5652
 20
8.0992
 30
0.0
 10
-27.5652
 20
6.7078
 30
0.0
 10
-27.5652
 20
6.7078
 30
0.0
  0
SPLINE
  5
A9
330
1F
100
AcDbEntity
  8
ROUND
 62
   250
100
AcDbSpline
210
0.0
220
0.0
230
1.0
 70
    27
 71
     3
 72
    16
 73
    12
 74
     0
 42
0.0000000001
 43
0.0000000001
 40
0.0
 40
0.0
 40
0.0
 40
0.0
 40
0.25
 40
0.25
 40
0.25
 40
0.25
 40
0.5
 40
0.5
 40
0.5
 40
0.5
 40
1.0
 40
1.0
 40
1.0
 40
1.0
 10
-26.9299
 20
6.7078
 30
0.0
 10
-26.9299
 20
6.7078
 30
0.0
 10
-26.9299
 20
8.0921
 30
0.0
 10
-26.9299
 20
8.0921
 30
0.0
 10
-26.9299
 20
8.0921
 30
0.0
 10
-26.9299
 20
8.0921
 30
0.0
 10
-26.9299
 20
8.0992
 30
0.0
 10
-26.9299
 20
8.0992
 30
0.0
 10
-26.9299
 20
8.0992
 30
0.0
 10
-26.9299
 20
8.0992
 30
0.0
 10
-26.9299
 20
6.7078
 30
0.0
 10
-26.9299
 20
6.7078
 30
0.0
  0
SPLINE
  5
AA
330
1F
100
AcDbEntity
  8
ROUND
 62
   250
100
AcDbSpline
210
0.0
220
0.0
230
1.0
 70
    27
 71
     3
 72
    16
 73
    12
 74
     0
 42
0.0000000001
 43
0.0000000001
 40
0.0
 40
0.0
 40
0.0
 40
0.0
 40
0.25
 40
0.25
 40
0.25
 40
0.25
 40
0.5
 40
0.5
 40
0.5
 40
0.5
 40
1.0
 40
1.0
 40
1.0
 40
1.0
 10
-26.3054
 20
6.7078
 30
0.0
 10
-26.3054
 20
6.7078
 30
0.0
 10
-26.3054
 20
8.0914
 30
0.0
 10
-26.3054
 20
8.0914
 30
0.0
 10
-26.3054
 20
8.0914
 30
0.0
 10
-26.3054
 20
8.0914
 30
0.0
 10
-26.3054
 20
8.0992
 30
0.0
 10
-26.3054
 20
8.0992
 30
0.0
 10
-26.3054
 20
8.0992
 30
0.0
 10
-26.3054
 20
8.0992
 30
0.0
 10
-26.3054
 20
6.7078
 30
0.0
 10
-26.3054
 20
6.7078
 30
0.0
  0
SPLINE
  5
AB
330
1F
100
AcDbEntity
  8
ROUND
 62
   250
100
AcDbSpline
210
0.0
220
0.0
230
1.0
 70
    27
 71
     3
 72
    16
 73
    12
 74
     0
 42
0.0000000001
 43
0.0000000001
 40
0.0
 40
0.0
 40
0.0
 40
0.0
 40
0.25
 40
0.25
 40
0.25
 40
0.25
 40
0.5
 40
0.5
 40
0.5
 40
0.5
 40
1.0
 40
1.0
 40
1.0
 40
1.0
 10
-25.6997
 20
6.7078
 30
0.0
 10
-25.6997
 20
6.7078
 30
0.0
 10
-25.6997
 20
8.0908
 30
0.0
 10
-25.6997
 20
8.0908
 30
0.0
 10
-25.6997
 20
8.0908
 30
0.0
 10
-25.6997
 20
8.0908
 30
0.0
 10
-25.6997
 20
8.0992
 30
0.0
 10
-25.6997
 20
8.0992
 30
0.0
 10
-25.6997
 20
8.0992
 30
0.0
 10
-25.6997
 20
8.0992
 30
0.0
 10
-25.6997
 20
6.7078
 30
0.0
 10
-25.6997
 20
6.7078
 30
0.0
  0
SPLINE
  5
AC
330
1F
100
AcDbEntity
  8
ROUND
 62
   250
100
AcDbSpline
210
0.0
220
0.0
230
1.0
 70
    27
 71
     3
 72
    16
 73
    12
 74
     0
 42
0.0000000001
 43
0.0000000001
 40
0.0
 40
0.0
 40
0.0
 40
0.0
 40
0.25
 40
0.25
 40
0.25
 40
0.25
 40
0.5
 40
0.5
 40
0.5
 40
0.5
 40
1.0
 40
1.0
 40
1.0
 40
1.0
 10
-25.1196
 20
6.7078
 30
0.0
 10
-25.1196
 20
6.7078
 30
0.0
 10
-25.1196
 20
8.0902
 30
0.0
 10
-25.1196
 20
8.0902
 30
0.0
 10
-25.1196
 20
8.0902
 30
0.0
 10
-25.1196
 20
8.0902
 30
0.0
 10
-25.1196
 20
8.0992
 30
0.0
 10
-25.1196
 20
8.0992
 30
0.0
 10
-25.1196
 20
8.0992
 30
0.0
 10
-25.1196
 20
8.0992
 30
0.0
 10
-25.1196
 20
6.7078
 30
0.0
 10
-25.1196
 20
6.7078
 30
0.0
  0
SPLINE
  5
AD
330
1F
100
AcDbEntity
  8
ROUND
 62
   250
100
AcDbSpline
210
0.0
220
0.0
230
1.0
 70
    27
 71
     3
 72
    12
 73
     8
 74
     0
 42
0.0000000001
 43
0.0000000001
 40
0.0
 40
0.0
 40
0.0
 40
0.0
 40
0.3333333333333333
 40
0.3333333333333333
 40
0.3333333333333333
 40
0.3333333333333333
 40
1.0
 40
1.0
 40
1.0
 40
1.0
 10
-34.1508
 20
6.7078
 30
0.0
 10
-34.1508
 20
6.7078
 30
0.0
 10
-34.1508
 20
8.0992
 30
0.0
 10
-34.1508
 20
8.0992
 30
0.0
 10
-34.1508
 20
8.0992
 30
0.0
 10
-34.1508
 20
8.0992
 30
0.0
 10
-34.1508
 20
6.7078
 30
0.0
 10
-34.1508
 20
6.7078
 30
0.0
  0
SPLINE
  5
AE
330
1F
100
AcDbEntity
  8
ROUND
 62
   250
100
AcDbSpline
210
0.0
220
0.0
230
1.0
 70
    11
 71
     3
 72
    20
 73
    16
 74
     0
 42
0.0000000001
 43
0.0000000001
 40
0.0
 40
0.0
 40
0.0
 40
0.0
 40
0.2
 40
0.2
 40
0.2
 40
0.2
 40
0.4
 40
0.4
 40
0.4
 40
0.4
 40
0.6
 40
0.6
 40
0.6
 40
0.6
 40
1.0
 40
1.0
 40
1.0
 40
1.0
 10
-33.9838
 20
19.8674
 30
0.0
 10
-33.9838
 20
19.8674
 30
0.0
 10
-33.9838
 20
20.4143
 30
0.0
 10
-33.9838
 20
20.4143
 30
0.0
 10
-33.9838
 20
20.4143
 30
0.0
 10
-33.9838
 20
20.4143
 30
0.0
 10
-22.0312
 20
20.4143
 30
0.0
 10
-22.0312
 20
20.4143
 30
0.0
 10
-22.0312
 20
20.4143
 30
0.0
 10
-22.0312
 20
20.4143
 30
0.0
 10
-22.0312
 20
19.8674
 30
0.0
 10
-22.0312
 20
19.8674
 30
0.0
 10
-22.0312
 20
19.8674
 30
0.0
 10
-22.0312
 20
19.8674
 30
0.0
 10
-33.9838
 20
19.8674
 30
0.0
 10
-33.9838
 20
19.8674
 30
0.0
  0
SPLINE
  5
AF
330
1F
100
AcDbEntity
  8
ROUND
 62
   250
100
AcDbSpline
210
0.0
220
0.0
230
1.0
 70
     8
 71
     3
 72
     8
 73
     4
 74
     0
 42
0.0000000001
 43
0.0000000001
 40
0.0
 40
0.0
 40
0.0
 40
0.0
 40
1.0
 40
1.0
 40
1.0
 40
1.0
 10
-22.7096
 20
17.6588
 30
0.0
 10
-22.325
 20
17.6588
 30
0.0
 10
-22.0133
 20
17.9705
 30
0.0
 10
-22.0133
 20
18.3551
 30
0.0
  0
SPLINE
  5
B0
330
1F
100
AcDbEntity
  8
ROUND
 62
   250
100
AcDbSpline
210
0.0
220
0.0
230
1.0
 70
     8
 71
     3
 72
   124
 73
   120
 74
     0
 42
0.0000000001
 43
0.0000000001
 40
0.0
 40
0.0
 40
0.0
 40
0.0
 40
0.032258064516129
 40
0.032258064516129
 40
0.032258064516129
 40
0.032258064516129
 40
0.0645161290322581
 40
0.0645161290322581
 40
0.0645161290322581
 40
0.0645161290322581
 40
0.0967741935483871
 40
0.0967741935483871
 40
0.0967741935483871
 40
0.0967741935483871
 40
0.1290322580645161
 40
0.1290322580645161
 40
0.1290322580645161
 40
0.1290322580645161
 40
0.1612903225806452
 40
0.1612903225806452
 40
0.1612903225806452
 40
0.1612903225806452
 40
0.1935483870967742
 40
0.1935483870967742
 40
0.1935483870967742
 40
0.1935483870967742
 40
0.2258064516129032
 40
0.2258064516129032
 40
0.2258064516129032
 40
0.2258064516129032
 40
0.2580645161290323
 40
0.2580645161290323
 40
0.2580645161290323
 40
0.2580645161290323
 40
0.2903225806451613
 40
0.2903225806451613
 40
0.2903225806451613
 40
0.2903225806451613
 40
0.3225806451612903
 40
0.3225806451612903
 40
0.3225806451612903
 40
0.3225806451612903
 40
0.3548387096774194
 40
0.3548387096774194
 40
0.3548387096774194
 40
0.3548387096774194
 40
0.3870967741935484
 40
0.3870967741935484
 40
0.3870967741935484
 40
0.3870967741935484
 40
0.4193548387096774
 40
0.4193548387096774
 40
0.4193548387096774
 40
0.4193548387096774
 40
0.4516129032258064
 40
0.4516129032258064
 40
0.4516129032258064
 40
0.4516129032258064
 40
0.4838709677419355
 40
0.4838709677419355
 40
0.4838709677419355
 40
0.4838709677419355
 40
0.5161290322580645
 40
0.5161290322580645
 40
0.5161290322580645
 40
0.5161290322580645
 40
0.5483870967741935
 40
0.5483870967741935
 40
0.5483870967741935
 40
0.5483870967741935
 40
0.5806451612903226
 40
0.5806451612903226
 40
0.5806451612903226
 40
0.5806451612903226
 40
0.6129032258064516
 40
0.6129032258064516
 40
0.6129032258064516
 40
0.6129032258064516
 40
0.6451612903225806
 40
0.6451612903225806
 40
0.6451612903225806
 40
0.6451612903225806
 40
0.6774193548387096
 40
0.6774193548387096
 40
0.6774193548387096
 40
0.6774193548387096
 40
0.7096774193548387
 40
0.7096774193548387
 40
0.7096774193548387
 40
0.7096774193548387
 40
0.7419354838709677
 40
0.7419354838709677
 40
0.7419354838709677
 40
0.7419354838709677
 40
0.7741935483870968
 40
0.7741935483870968
 40
0.7741935483870968
 40
0.7741935483870968
 40
0.8064516129032258
 40
0.8064516129032258
 40
0.8064516129032258
 40
0.8064516129032258
 40
0.8387096774193549
 40
0.8387096774193549
 40
0.8387096774193549
 40
0.8387096774193549
 40
0.8709677419354839
 40
0.8709677419354839
 40
0.8709677419354839
 40
0.8709677419354839
 40
0.9032258064516129
 40
0.9032258064516129
 40
0.9032258064516129
 40
0.9032258064516129
 40
0.9354838709677419
 40
0.9354838709677419
 40
0.9354838709677419
 40
0.9354838709677419
 40
1.0
 40
1.0
 40
1.0
 40
1.0
 10
-22.0133
 20
18.3551
 30
0.0
 10
-22.0133
 20
18.3551
 30
0.0
 10
-22.0047
 20
18.4946
 30
0.0
 10
-22.0047
 20
18.4946
 30
0.0
 10
-22.0047
 20
18.4946
 30
0.0
 10
-22.0047
 20
18.4946
 30
0.0
 10
-22.7879
 20
18.4954
 30
0.0
 10
-22.7879
 20
18.4954
 30
0.0
 10
-22.7879
 20
18.4954
 30
0.0
 10
-22.7879
 20
18.4954
 30
0.0
 10
-23.153
 20
18.4958
 30
0.0
 10
-23.153
 20
18.4958
 30
0.0
 10
-23.153
 20
18.4958
 30
0.0
 10
-23.153
 20
18.4958
 30
0.0
 10
-23.5719
 20
18.4963
 30
0.0
 10
-23.5719
 20
18.4963
 30
0.0
 10
-23.5719
 20
18.4963
 30
0.0
 10
-23.5719
 20
18.4963
 30
0.0
 10
-24.0379
 20
18.4968
 30
0.0
 10
-24.0379
 20
18.4968
 30
0.0
 10
-24.0379
 20
18.4968
 30
0.0
 10
-24.0379
 20
18.4968
 30
0.0
 10
-24.5485
 20
18.4973
 30
0.0
 10
-24.5485
 20
18.4973
 30
0.0
 10
-24.5485
 20
18.4973
 30
0.0
 10
-24.5485
 20
18.4973
 30
0.0
 10
-25.0969
 20
18.4979
 30
0.0
 10
-25.0969
 20
18.4979
 30
0.0
 10
-25.0969
 20
18.4979
 30
0.0
 10
-25.0969
 20
18.4979
 30
0.0
 10
-25.6759
 20
18.4985
 30
0.0
 10
-25.6759
 20
18.4985
 30
0.0
 10
-25.6759
 20
18.4985
 30
0.0
 10
-25.6759
 20
18.4985
 30
0.0
 10
-26.282
 20
18.4992
 30
0.0
 10
-26.282
 20
18.4992
 30
0.0
 10
-26.282
 20
18.4992
 30
0.0
 10
-26.282
 20
18.4992
 30
0.0
 10
-26.9065
 20
18.4998
 30
0.0
 10
-26.9065
 20
18.4998
 30
0.0
 10
-26.9065
 20
18.4998
 30
0.0
 10
-26.9065
 20
18.4998
 30
0.0
 10
-27.5417
 20
18.5005
 30
0.0
 10
-27.5417
 20
18.5005
 30
0.0
 10
-27.5417
 20
18.5005
 30
0.0
 10
-27.5417
 20
18.5005
 30
0.0
 10
-28.4618
 20
18.5015
 30
0.0
 10
-28.4618
 20
18.5015
 30
0.0
 10
-28.4618
 20
18.5015
 30
0.0
 10
-28.4618
 20
18.5015
 30
0.0
 10
-29.0971
 20
18.5022
 30
0.0
 10
-29.0971
 20
18.5022
 30
0.0
 10
-29.0971
 20
18.5022
 30
0.0
 10
-29.0971
 20
18.5022
 30
0.0
 10
-29.7216
 20
18.5029
 30
0.0
 10
-29.7216
 20
18.5029
 30
0.0
 10
-29.7216
 20
18.5029
 30
0.0
 10
-29.7216
 20
18.5029
 30
0.0
 10
-30.3273
 20
18.5035
 30
0.0
 10
-30.3273
 20
18.5035
 30
0.0
 10
-30.3273
 20
18.5035
 30
0.0
 10
-30.3273
 20
18.5035
 30
0.0
 10
-30.9074
 20
18.5041
 30
0.0
 10
-30.9074
 20
18.5041
 30
0.0
 10
-30.9074
 20
18.5041
 30
0.0
 10
-30.9074
 20
18.5041
 30
0.0
 10
-31.4553
 20
18.5047
 30
0.0
 10
-31.4553
 20
18.5047
 30
0.0
 10
-31.4553
 20
18.5047
 30
0.0
 10
-31.4553
 20
18.5047
 30
0.0
 10
-31.9651
 20
18.5053
 30
0.0
 10
-31.9651
 20
18.5053
 30
0.0
 10
-31.9651
 20
18.5053
 30
0.0
 10
-31.9651
 20
18.5053
 30
0.0
 10
-32.4325
 20
18.5058
 30
0.0
 10
-32.4325
 20
18.5058
 30
0.0
 10
-32.4325
 20
18.5058
 30
0.0
 10
-32.4325
 20
18.5058
 30
0.0
 10
-32.8504
 20
18.5062
 30
0.0
 10
-32.8504
 20
18.5062
 30
0.0
 10
-32.8504
 20
18.5062
 30
0.0
 10
-32.8504
 20
18.5062
 30
0.0
 10
-33.2143
 20
18.5066
 30
0.0
 10
-33.2143
 20
18.5066
 30
0.0
 10
-33.2143
 20
18.5066
 30
0.0
 10
-33.2143
 20
18.5066
 30
0.0
 10
-33.6714
 20
18.5071
 30
0.0
 10
-33.6714
 20
18.5071
 30
0.0
 10
-33.6714
 20
18.5071
 30
0.0
 10
-33.6714
 20
18.5071
 30
0.0
 10
-34.059
 20
18.5075
 30
0.0
 10
-34.059
 20
18.5075
 30
0.0
 10
-34.059
 20
18.5075
 30
0.0
 10
-34.059
 20
18.5075
 30
0.0
 10
-34.0462
 20
18.2626
 30
0.0
 10
-34.0462
 20
18.2626
 30
0.0
 10
-34.0462
 20
18.2626
 30
0.0
 10
-34.0462
 20
18.2626
 30
0.0
 10
-33.9561
 20
18.0306
 30
0.0
 10
-33.9561
 20
18.0306
 30
0.0
 10
-33.9561
 20
18.0306
 30
0.0
 10
-33.9561
 20
18.0306
 30
0.0
 10
-33.8275
 20
17.863
 30
0.0
 10
-33.8275
 20
17.863
 30
0.0
 10
-33.8275
 20
17.863
 30
0.0
 10
-33.8275
 20
17.863
 30
0.0
 10
-33.583
 20
17.7212
 30
0.0
 10
-33.583
 20
17.7212
 30
0.0
 10
-33.583
 20
17.7212
 30
0.0
 10
-33.583
 20
17.7212
 30
0.0
 10
-33.4544
 20
17.6567
 30
0.0
 10
-33.4544
 20
17.6567
 30
0.0
 10
-33.4544
 20
17.6567
 30
0.0
 10
-33.4544
 20
17.6567
 30
0.0
 10
-33.3643
 20
17.6567
 30
0.0
 10
-33.3643
 20
17.6567
 30
0.0
 10
-33.3643
 20
17.6567
 30
0.0
 10
-33.3643
 20
17.6567
 30
0.0
 10
-22.7096
 20
17.6588
 30
0.0
 10
-22.7096
 20
17.6588
 30
0.0
  0
SPLINE
  5
B1
330
1F
100
AcDbEntity
  8
ROUND
 62
   250
100
AcDbSpline
210
0.0
220
0.0
230
1.0
 70
    27
 71
     3
 72
    12
 73
     8
 74
     0
 42
0.0000000001
 43
0.0000000001
 40
0.0
 40
0.0
 40
0.0
 40
0.0
 40
0.3333333333333333
 40
0.3333333333333333
 40
0.3333333333333333
 40
0.3333333333333333
 40
1.0
 40
1.0
 40
1.0
 40
1.0
 10
-34.1267
 20
19.8865
 30
0.0
 10
-34.1267
 20
19.8865
 30
0.0
 10
-34.1267
 20
18.4951
 30
0.0
 10
-34.1267
 20
18.4951
 30
0.0
 10
-34.1267
 20
18.4951
 30
0.0
 10
-34.1267
 20
18.4951
 30
0.0
 10
-34.1267
 20
19.8865
 30
0.0
 10
-34.1267
 20
19.8865
 30
0.0
  0
SPLINE
  5
B2
330
1F
100
AcDbEntity
  8
ROUND
 62
   250
100
AcDbSpline
210
0.0
220
0.0
230
1.0
 70
    27
 71
     3
 72
    16
 73
    12
 74
     0
 42
0.0000000001
 43
0.0000000001
 40
0.0
 40
0.0
 40
0.0
 40
0.0
 40
0.25
 40
0.25
 40
0.25
 40
0.25
 40
0.5
 40
0.5
 40
0.5
 40
0.5
 40
1.0
 40
1.0
 40
1.0
 40
1.0
 10
-31.9651
 20
19.8865
 30
0.0
 10
-31.9651
 20
19.8865
 30
0.0
 10
-31.9651
 20
18.5053
 30
0.0
 10
-31.9651
 20
18.5053
 30
0.0
 10
-31.9651
 20
18.5053
 30
0.0
 10
-31.9651
 20
18.5053
 30
0.0
 10
-31.9651
 20
18.4951
 30
0.0
 10
-31.9651
 20
18.4951
 30
0.0
 10
-31.9651
 20
18.4951
 30
0.0
 10
-31.9651
 20
18.4951
 30
0.0
 10
-31.9651
 20
19.8865
 30
0.0
 10
-31.9651
 20
19.8865
 30
0.0
  0
SPLINE
  5
B3
330
1F
100
AcDbEntity
  8
ROUND
 62
   250
100
AcDbSpline
210
0.0
220
0.0
230
1.0
 70
    27
 71
     3
 72
    16
 73
    12
 74
     0
 42
0.0000000001
 43
0.0000000001
 40
0.0
 40
0.0
 40
0.0
 40
0.0
 40
0.25
 40
0.25
 40
0.25
 40
0.25
 40
0.5
 40
0.5
 40
0.5
 40
0.5
 40
1.0
 40
1.0
 40
1.0
 40
1.0
 10
-32.4325
 20
19.8865
 30
0.0
 10
-32.4325
 20
19.8865
 30
0.0
 10
-32.4325
 20
18.5058
 30
0.0
 10
-32.4325
 20
18.5058
 30
0.0
 10
-32.4325
 20
18.5058
 30
0.0
 10
-32.4325
 20
18.5058
 30
0.0
 10
-32.4325
 20
18.4951
 30
0.0
 10
-32.4325
 20
18.4951
 30
0.0
 10
-32.4325
 20
18.4951
 30
0.0
 10
-32.4325
 20
18.4951
 30
0.0
 10
-32.4325
 20
19.8865
 30
0.0
 10
-32.4325
 20
19.8865
 30
0.0
  0
SPLINE
  5
B4
330
1F
100
AcDbEntity
  8
ROUND
 62
   250
100
AcDbSpline
210
0.0
220
0.0
230
1.0
 70
    27
 71
     3
 72
    16
 73
    12
 74
     0
 42
0.0000000001
 43
0.0000000001
 40
0.0
 40
0.0
 40
0.0
 40
0.0
 40
0.25
 40
0.25
 40
0.25
 40
0.25
 40
0.5
 40
0.5
 40
0.5
 40
0.5
 40
1.0
 40
1.0
 40
1.0
 40
1.0
 10
-32.8504
 20
19.8865
 30
0.0
 10
-32.8504
 20
19.8865
 30
0.0
 10
-32.8504
 20
18.5062
 30
0.0
 10
-32.8504
 20
18.5062
 30
0.0
 10
-32.8504
 20
18.5062
 30
0.0
 10
-32.8504
 20
18.5062
 30
0.0
 10
-32.8504
 20
18.4951
 30
0.0
 10
-32.8504
 20
18.4951
 30
0.0
 10
-32.8504
 20
18.4951
 30
0.0
 10
-32.8504
 20
18.4951
 30
0.0
 10
-32.8504
 20
19.8865
 30
0.0
 10
-32.8504
 20
19.8865
 30
0.0
  0
SPLINE
  5
B5
330
1F
100
AcDbEntity
  8
ROUND
 62
   250
100
AcDbSpline
210
0.0
220
0.0
230
1.0
 70
    27
 71
     3
 72
    16
 73
    12
 74
     0
 42
0.0000000001
 43
0.0000000001
 40
0.0
 40
0.0
 40
0.0
 40
0.0
 40
0.25
 40
0.25
 40
0.25
 40
0.25
 40
0.5
 40
0.5
 40
0.5
 40
0.5
 40
1.0
 40
1.0
 40
1.0
 40
1.0
 10
-33.2143
 20
19.8865
 30
0.0
 10
-33.2143
 20
19.8865
 30
0.0
 10
-33.2143
 20
18.5066
 30
0.0
 10
-33.2143
 20
18.5066
 30
0.0
 10
-33.2143
 20
18.5066
 30
0.0
 10
-33.2143
 20
18.5066
 30
0.0
 10
-33.2143
 20
18.4951
 30
0.0
 10
-33.2143
 20
18.4951
 30
0.0
 10
-33.2143
 20
18.4951
 30
0.0
 10
-33.2143
 20
18.4951
 30
0.0
 10
-33.2143
 20
19.8865
 30
0.0
 10
-33.2143
 20
19.8865
 30
0.0
  0
SPLINE
  5
B6
330
1F
100
AcDbEntity
  8
ROUND
 62
   250
100
AcDbSpline
210
0.0
220
0.0
230
1.0
 70
    27
 71
     3
 72
    16
 73
    12
 74
     0
 42
0.0000000001
 43
0.0000000001
 40
0.0
 40
0.0
 40
0.0
 40
0.0
 40
0.25
 40
0.25
 40
0.25
 40
0.25
 40
0.5
 40
0.5
 40
0.5
 40
0.5
 40
1.0
 40
1.0
 40
1.0
 40
1.0
 10
-33.6714
 20
19.8865
 30
0.0
 10
-33.6714
 20
19.8865
 30
0.0
 10
-33.6714
 20
18.5071
 30
0.0
 10
-33.6714
 20
18.5071
 30
0.0
 10
-33.6714
 20
18.5071
 30
0.0
 10
-33.6714
 20
18.5071
 30
0.0
 10
-33.6714
 20
18.4951
 30
0.0
 10
-33.6714
 20
18.4951
 30
0.0
 10
-33.6714
 20
18.4951
 30
0.0
 10
-33.6714
 20
18.4951
 30
0.0
 10
-33.6714
 20
19.8865
 30
0.0
 10
-33.6714
 20
19.8865
 30
0.0
  0
SPLINE
  5
B7
330
1F
100
AcDbEntity
  8
ROUND
 62
   250
100
AcDbSpline
210
0.0
220
0.0
230
1.0
 70
    27
 71
     3
 72
    16
 73
    12
 74
     0
 42
0.0000000001
 43
0.0000000001
 40
0.0
 40
0.0
 40
0.0
 40
0.0
 40
0.25
 40
0.25
 40
0.25
 40
0.25
 40
0.5
 40
0.5
 40
0.5
 40
0.5
 40
1.0
 40
1.0
 40
1.0
 40
1.0
 10
-31.4553
 20
19.8865
 30
0.0
 10
-31.4553
 20
19.8865
 30
0.0
 10
-31.4553
 20
18.5047
 30
0.0
 10
-31.4553
 20
18.5047
 30
0.0
 10
-31.4553
 20
18.5047
 30
0.0
 10
-31.4553
 20
18.5047
 30
0.0
 10
-31.4553
 20
18.4951
 30
0.0
 10
-31.4553
 20
18.4951
 30
0.0
 10
-31.4553
 20
18.4951
 30
0.0
 10
-31.4553
 20
18.4951
 30
0.0
 10
-31.4553
 20
19.8865
 30
0.0
 10
-31.4553
 20
19.8865
 30
0.0
  0
SPLINE
  5
B8
330
1F
100
AcDbEntity
  8
ROUND
 62
   250
100
AcDbSpline
210
0.0
220
0.0
230
1.0
 70
    27
 71
     3
 72
    12
 73
     8
 74
     0
 42
0.0000000001
 43
0.0000000001
 40
0.0
 40
0.0
 40
0.0
 40
0.0
 40
0.3333333333333333
 40
0.3333333333333333
 40
0.3333333333333333
 40
0.3333333333333333
 40
1.0
 40
1.0
 40
1.0
 40
1.0
 10
-22.3326
 20
19.8865
 30
0.0
 10
-22.3326
 20
19.8865
 30
0.0
 10
-22.3326
 20
18.4951
 30
0.0
 10
-22.3326
 20
18.4951
 30
0.0
 10
-22.3326
 20
18.4951
 30
0.0
 10
-22.3326
 20
18.4951
 30
0.0
 10
-22.3326
 20
19.8865
 30
0.0
 10
-22.3326
 20
19.8865
 30
0.0
  0
SPLINE
  5
B9
330
1F
100
AcDbEntity
  8
ROUND
 62
   250
100
AcDbSpline
210
0.0
220
0.0
230
1.0
 70
    27
 71
     3
 72
    16
 73
    12
 74
     0
 42
0.0000000001
 43
0.0000000001
 40
0.0
 40
0.0
 40
0.0
 40
0.0
 40
0.25
 40
0.25
 40
0.25
 40
0.25
 40
0.5
 40
0.5
 40
0.5
 40
0.5
 40
1.0
 40
1.0
 40
1.0
 40
1.0
 10
-22.7879
 20
19.8865
 30
0.0
 10
-22.7879
 20
19.8865
 30
0.0
 10
-22.7879
 20
18.4954
 30
0.0
 10
-22.7879
 20
18.4954
 30
0.0
 10
-22.7879
 20
18.4954
 30
0.0
 10
-22.7879
 20
18.4954
 30
0.0
 10
-22.7879
 20
18.4951
 30
0.0
 10
-22.7879
 20
18.4951
 30
0.0
 10
-22.7879
 20
18.4951
 30
0.0
 10
-22.7879
 20
18.4951
 30
0.0
 10
-22.7879
 20
19.8865
 30
0.0
 10
-22.7879
 20
19.8865
 30
0.0
  0
SPLINE
  5
BA
330
1F
100
AcDbEntity
  8
ROUND
 62
   250
100
AcDbSpline
210
0.0
220
0.0
230
1.0
 70
    27
 71
     3
 72
    16
 73
    12
 74
     0
 42
0.0000000001
 43
0.0000000001
 40
0.0
 40
0.0
 40
0.0
 40
0.0
 40
0.25
 40
0.25
 40
0.25
 40
0.25
 40
0.5
 40
0.5
 40
0.5
 40
0.5
 40
1.0
 40
1.0
 40
1.0
 40
1.0
 10
-23.153
 20
19.8865
 30
0.0
 10
-23.153
 20
19.8865
 30
0.0
 10
-23.153
 20
18.4958
 30
0.0
 10
-23.153
 20
18.4958
 30
0.0
 10
-23.153
 20
18.4958
 30
0.0
 10
-23.153
 20
18.4958
 30
0.0
 10
-23.153
 20
18.4951
 30
0.0
 10
-23.153
 20
18.4951
 30
0.0
 10
-23.153
 20
18.4951
 30
0.0
 10
-23.153
 20
18.4951
 30
0.0
 10
-23.153
 20
19.8865
 30
0.0
 10
-23.153
 20
19.8865
 30
0.0
  0
SPLINE
  5
BB
330
1F
100
AcDbEntity
  8
ROUND
 62
   250
100
AcDbSpline
210
0.0
220
0.0
230
1.0
 70
    27
 71
     3
 72
    16
 73
    12
 74
     0
 42
0.0000000001
 43
0.0000000001
 40
0.0
 40
0.0
 40
0.0
 40
0.0
 40
0.25
 40
0.25
 40
0.25
 40
0.25
 40
0.5
 40
0.5
 40
0.5
 40
0.5
 40
1.0
 40
1.0
 40
1.0
 40
1.0
 10
-23.5719
 20
19.8865
 30
0.0
 10
-23.5719
 20
19.8865
 30
0.0
 10
-23.5719
 20
18.4963
 30
0.0
 10
-23.5719
 20
18.4963
 30
0.0
 10
-23.5719
 20
18.4963
 30
0.0
 10
-23.5719
 20
18.4963
 30
0.0
 10
-23.5719
 20
18.4951
 30
0.0
 10
-23.5719
 20
18.4951
 30
0.0
 10
-23.5719
 20
18.4951
 30
0.0
 10
-23.5719
 20
18.4951
 30
0.0
 10
-23.5719
 20
19.8865
 30
0.0
 10
-23.5719
 20
19.8865
 30
0.0
  0
SPLINE
  5
BC
330
1F
100
AcDbEntity
  8
ROUND
 62
   250
100
AcDbSpline
210
0.0
220
0.0
230
1.0
 70
    27
 71
     3
 72
    16
 73
    12
 74
     0
 42
0.0000000001
 43
0.0000000001
 40
0.0
 40
0.0
 40
0.0
 40
0.0
 40
0.25
 40
0.25
 40
0.25
 40
0.25
 40
0.5
 40
0.5
 40
0.5
 40
0.5
 40
1.0
 40
1.0
 40
1.0
 40
1.0
 10
-24.0379
 20
19.8865
 30
0.0
 10
-24.0379
 20
19.8865
 30
0.0
 10
-24.0379
 20
18.4968
 30
0.0
 10
-24.0379
 20
18.4968
 30
0.0
 10
-24.0379
 20
18.4968
 30
0.0
 10
-24.0379
 20
18.4968
 30
0.0
 10
-24.0379
 20
18.4951
 30
0.0
 10
-24.0379
 20
18.4951
 30
0.0
 10
-24.0379
 20
18.4951
 30
0.0
 10
-24.0379
 20
18.4951
 30
0.0
 10
-24.0379
 20
19.8865
 30
0.0
 10
-24.0379
 20
19.8865
 30
0.0
  0
SPLINE
  5
BD
330
1F
100
AcDbEntity
  8
ROUND
 62
   250
100
AcDbSpline
210
0.0
220
0.0
230
1.0
 70
    27
 71
     3
 72
    16
 73
    12
 74
     0
 42
0.0000000001
 43
0.0000000001
 40
0.0
 40
0.0
 40
0.0
 40
0.0
 40
0.25
 40
0.25
 40
0.25
 40
0.25
 40
0.5
 40
0.5
 40
0.5
 40
0.5
 40
1.0
 40
1.0
 40
1.0
 40
1.0
 10
-24.5485
 20
19.8865
 30
0.0
 10
-24.5485
 20
19.8865
 30
0.0
 10
-24.5485
 20
18.4973
 30
0.0
 10
-24.5485
 20
18.4973
 30
0.0
 10
-24.5485
 20
18.4973
 30
0.0
 10
-24.5485
 20
18.4973
 30
0.0
 10
-24.5485
 20
18.4951
 30
0.0
 10
-24.5485
 20
18.4951
 30
0.0
 10
-24.5485
 20
18.4951
 30
0.0
 10
-24.5485
 20
18.4951
 30
0.0
 10
-24.5485
 20
19.8865
 30
0.0
 10
-24.5485
 20
19.8865
 30
0.0
  0
SPLINE
  5
BE
330
1F
100
AcDbEntity
  8
ROUND
 62
   250
100
AcDbSpline
210
0.0
220
0.0
230
1.0
 70
    27
 71
     3
 72
    16
 73
    12
 74
     0
 42
0.0000000001
 43
0.0000000001
 40
0.0
 40
0.0
 40
0.0
 40
0.0
 40
0.25
 40
0.25
 40
0.25
 40
0.25
 40
0.5
 40
0.5
 40
0.5
 40
0.5
 40
1.0
 40
1.0
 40
1.0
 40
1.0
 10
-25.0969
 20
19.8865
 30
0.0
 10
-25.0969
 20
19.8865
 30
0.0
 10
-25.0969
 20
18.4979
 30
0.0
 10
-25.0969
 20
18.4979
 30
0.0
 10
-25.0969
 20
18.4979
 30
0.0
 10
-25.0969
 20
18.4979
 30
0.0
 10
-25.0969
 20
18.4951
 30
0.0
 10
-25.0969
 20
18.4951
 30
0.0
 10
-25.0969
 20
18.4951
 30
0.0
 10
-25.0969
 20
18.4951
 30
0.0
 10
-25.0969
 20
19.8865
 30
0.0
 10
-25.0969
 20
19.8865
 30
0.0
  0
SPLINE
  5
BF
330
1F
100
AcDbEntity
  8
ROUND
 62
   250
100
AcDbSpline
210
0.0
220
0.0
230
1.0
 70
    27
 71
     3
 72
    16
 73
    12
 74
     0
 42
0.0000000001
 43
0.0000000001
 40
0.0
 40
0.0
 40
0.0
 40
0.0
 40
0.25
 40
0.25
 40
0.25
 40
0.25
 40
0.5
 40
0.5
 40
0.5
 40
0.5
 40
1.0
 40
1.0
 40
1.0
 40
1.0
 10
-25.6759
 20
19.8865
 30
0.0
 10
-25.6759
 20
19.8865
 30
0.0
 10
-25.6759
 20
18.4985
 30
0.0
 10
-25.6759
 20
18.4985
 30
0.0
 10
-25.6759
 20
18.4985
 30
0.0
 10
-25.6759
 20
18.4985
 30
0.0
 10
-25.6759
 20
18.4951
 30
0.0
 10
-25.6759
 20
18.4951
 30
0.0
 10
-25.6759
 20
18.4951
 30
0.0
 10
-25.6759
 20
18.4951
 30
0.0
 10
-25.6759
 20
19.8865
 30
0.0
 10
-25.6759
 20
19.8865
 30
0.0
  0
SPLINE
  5
C0
330
1F
100
AcDbEntity
  8
ROUND
 62
   250
100
AcDbSpline
210
0.0
220
0.0
230
1.0
 70
    27
 71
     3
 72
    16
 73
    12
 74
     0
 42
0.0000000001
 43
0.0000000001
 40
0.0
 40
0.0
 40
0.0
 40
0.0
 40
0.25
 40
0.25
 40
0.25
 40
0.25
 40
0.5
 40
0.5
 40
0.5
 40
0.5
 40
1.0
 40
1.0
 40
1.0
 40
1.0
 10
-26.282
 20
19.8865
 30
0.0
 10
-26.282
 20
19.8865
 30
0.0
 10
-26.282
 20
18.4992
 30
0.0
 10
-26.282
 20
18.4992
 30
0.0
 10
-26.282
 20
18.4992
 30
0.0
 10
-26.282
 20
18.4992
 30
0.0
 10
-26.282
 20
18.4951
 30
0.0
 10
-26.282
 20
18.4951
 30
0.0
 10
-26.282
 20
18.4951
 30
0.0
 10
-26.282
 20
18.4951
 30
0.0
 10
-26.282
 20
19.8865
 30
0.0
 10
-26.282
 20
19.8865
 30
0.0
  0
SPLINE
  5
C1
330
1F
100
AcDbEntity
  8
ROUND
 62
   250
100
AcDbSpline
210
0.0
220
0.0
230
1.0
 70
    27
 71
     3
 72
    16
 73
    12
 74
     0
 42
0.0000000001
 43
0.0000000001
 40
0.0
 40
0.0
 40
0.0
 40
0.0
 40
0.25
 40
0.25
 40
0.25
 40
0.25
 40
0.5
 40
0.5
 40
0.5
 40
0.5
 40
1.0
 40
1.0
 40
1.0
 40
1.0
 10
-26.9065
 20
19.8865
 30
0.0
 10
-26.9065
 20
19.8865
 30
0.0
 10
-26.9065
 20
18.4998
 30
0.0
 10
-26.9065
 20
18.4998
 30
0.0
 10
-26.9065
 20
18.4998
 30
0.0
 10
-26.9065
 20
18.4998
 30
0.0
 10
-26.9065
 20
18.4951
 30
0.0
 10
-26.9065
 20
18.4951
 30
0.0
 10
-26.9065
 20
18.4951
 30
0.0
 10
-26.9065
 20
18.4951
 30
0.0
 10
-26.9065
 20
19.8865
 30
0.0
 10
-26.9065
 20
19.8865
 30
0.0
  0
SPLINE
  5
C2
330
1F
100
AcDbEntity
  8
ROUND
 62
   250
100
AcDbSpline
210
0.0
220
0.0
230
1.0
 70
    27
 71
     3
 72
    16
 73
    12
 74
     0
 42
0.0000000001
 43
0.0000000001
 40
0.0
 40
0.0
 40
0.0
 40
0.0
 40
0.25
 40
0.25
 40
0.25
 40
0.25
 40
0.5
 40
0.5
 40
0.5
 40
0.5
 40
1.0
 40
1.0
 40
1.0
 40
1.0
 10
-27.5417
 20
19.8865
 30
0.0
 10
-27.5417
 20
19.8865
 30
0.0
 10
-27.5417
 20
18.5005
 30
0.0
 10
-27.5417
 20
18.5005
 30
0.0
 10
-27.5417
 20
18.5005
 30
0.0
 10
-27.5417
 20
18.5005
 30
0.0
 10
-27.5417
 20
18.4951
 30
0.0
 10
-27.5417
 20
18.4951
 30
0.0
 10
-27.5417
 20
18.4951
 30
0.0
 10
-27.5417
 20
18.4951
 30
0.0
 10
-27.5417
 20
19.8865
 30
0.0
 10
-27.5417
 20
19.8865
 30
0.0
  0
SPLINE
  5
C3
330
1F
100
AcDbEntity
  8
ROUND
 62
   250
100
AcDbSpline
210
0.0
220
0.0
230
1.0
 70
    27
 71
     3
 72
    16
 73
    12
 74
     0
 42
0.0000000001
 43
0.0000000001
 40
0.0
 40
0.0
 40
0.0
 40
0.0
 40
0.25
 40
0.25
 40
0.25
 40
0.25
 40
0.5
 40
0.5
 40
0.5
 40
0.5
 40
1.0
 40
1.0
 40
1.0
 40
1.0
 10
-28.4618
 20
19.8865
 30
0.0
 10
-28.4618
 20
19.8865
 30
0.0
 10
-28.4618
 20
18.5015
 30
0.0
 10
-28.4618
 20
18.5015
 30
0.0
 10
-28.4618
 20
18.5015
 30
0.0
 10
-28.4618
 20
18.5015
 30
0.0
 10
-28.4618
 20
18.4951
 30
0.0
 10
-28.4618
 20
18.4951
 30
0.0
 10
-28.4618
 20
18.4951
 30
0.0
 10
-28.4618
 20
18.4951
 30
0.0
 10
-28.4618
 20
19.8865
 30
0.0
 10
-28.4618
 20
19.8865
 30
0.0
  0
SPLINE
  5
C4
330
1F
100
AcDbEntity
  8
ROUND
 62
   250
100
AcDbSpline
210
0.0
220
0.0
230
1.0
 70
    27
 71
     3
 72
    16
 73
    12
 74
     0
 42
0.0000000001
 43
0.0000000001
 40
0.0
 40
0.0
 40
0.0
 40
0.0
 40
0.25
 40
0.25
 40
0.25
 40
0.25
 40
0.5
 40
0.5
 40
0.5
 40
0.5
 40
1.0
 40
1.0
 40
1.0
 40
1.0
 10
-29.0971
 20
19.8865
 30
0.0
 10
-29.0971
 20
19.8865
 30
0.0
 10
-29.0971
 20
18.5022
 30
0.0
 10
-29.0971
 20
18.5022
 30
0.0
 10
-29.0971
 20
18.5022
 30
0.0
 10
-29.0971
 20
18.5022
 30
0.0
 10
-29.0971
 20
18.4951
 30
0.0
 10
-29.0971
 20
18.4951
 30
0.0
 10
-29.0971
 20
18.4951
 30
0.0
 10
-29.0971
 20
18.4951
 30
0.0
 10
-29.0971
 20
19.8865
 30
0.0
 10
-29.0971
 20
19.8865
 30
0.0
  0
SPLINE
  5
C5
330
1F
100
AcDbEntity
  8
ROUND
 62
   250
100
AcDbSpline
210
0.0
220
0.0
230
1.0
 70
    27
 71
     3
 72
    16
 73
    12
 74
     0
 42
0.0000000001
 43
0.0000000001
 40
0.0
 40
0.0
 40
0.0
 40
0.0
 40
0.25
 40
0.25
 40
0.25
 40
0.25
 40
0.5
 40
0.5
 40
0.5
 40
0.5
 40
1.0
 40
1.0
 40
1.0
 40
1.0
 10
-29.7216
 20
19.8865
 30
0.0
 10
-29.7216
 20
19.8865
 30
0.0
 10
-29.7216
 20
18.5029
 30
0.0
 10
-29.7216
 20
18.5029
 30
0.0
 10
-29.7216
 20
18.5029
 30
0.0
 10
-29.7216
 20
18.5029
 30
0.0
 10
-29.7216
 20
18.4951
 30
0.0
 10
-29.7216
 20
18.4951
 30
0.0
 10
-29.7216
 20
18.4951
 30
0.0
 10
-29.7216
 20
18.4951
 30
0.0
 10
-29.7216
 20
19.8865
 30
0.0
 10
-29.7216
 20
19.8865
 30
0.0
  0
SPLINE
  5
C6
330
1F
100
AcDbEntity
  8
ROUND
 62
   250
100
AcDbSpline
210
0.0
220
0.0
230
1.0
 70
    27
 71
     3
 72
    16
 73
    12
 74
     0
 42
0.0000000001
 43
0.0000000001
 40
0.0
 40
0.0
 40
0.0
 40
0.0
 40
0.25
 40
0.25
 40
0.25
 40
0.25
 40
0.5
 40
0.5
 40
0.5
 40
0.5
 40
1.0
 40
1.0
 40
1.0
 40
1.0
 10
-30.3273
 20
19.8865
 30
0.0
 10
-30.3273
 20
19.8865
 30
0.0
 10
-30.3273
 20
18.5035
 30
0.0
 10
-30.3273
 20
18.5035
 30
0.0
 10
-30.3273
 20
18.5035
 30
0.0
 10
-30.3273
 20
18.5035
 30
0.0
 10
-30.3273
 20
18.4951
 30
0.0
 10
-30.3273
 20
18.4951
 30
0.0
 10
-30.3273
 20
18.4951
 30
0.0
 10
-30.3273
 20
18.4951
 30
0.0
 10
-30.3273
 20
19.8865
 30
0.0
 10
-30.3273
 20
19.8865
 30
0.0
  0
SPLINE
  5
C7
330
1F
100
AcDbEntity
  8
ROUND
 62
   250
100
AcDbSpline
210
0.0
220
0.0
230
1.0
 70
    27
 71
     3
 72
    16
 73
    12
 74
     0
 42
0.0000000001
 43
0.0000000001
 40
0.0
 40
0.0
 40
0.0
 40
0.0
 40
0.25
 40
0.25
 40
0.25
 40
0.25
 40
0.5
 40
0.5
 40
0.5
 40
0.5
 40
1.0
 40
1.0
 40
1.0
 40
1.0
 10
-30.9074
 20
19.8865
 30
0.0
 10
-30.9074
 20
19.8865
 30
0.0
 10
-30.9074
 20
18.5041
 30
0.0
 10
-30.9074
 20
18.5041
 30
0.0
 10
-30.9074
 20
18.5041
 30
0.0
 10
-30.9074
 20
18.5041
 30
0.0
 10
-30.9074
 20
18.4951
 30
0.0
 10
-30.9074
 20
18.4951
 30
0.0
 10
-30.9074
 20
18.4951
 30
0.0
 10
-30.9074
 20
18.4951
 30
0.0
 10
-30.9074
 20
19.8865
 30
0.0
 10
-30.9074
 20
19.8865
 30
0.0
  0
SPLINE
  5
C8
330
1F
100
AcDbEntity
  8
ROUND
 62
   250
100
AcDbSpline
210
0.0
220
0.0
230
1.0
 70
    27
 71
     3
 72
    12
 73
     8
 74
     0
 42
0.0000000001
 43
0.0000000001
 40
0.0
 40
0.0
 40
0.0
 40
0.0
 40
0.3333333333333333
 40
0.3333333333333333
 40
0.3333333333333333
 40
0.3333333333333333
 40
1.0
 40
1.0
 40
1.0
 40
1.0
 10
-21.8762
 20
19.8865
 30
0.0
 10
-21.8762
 20
19.8865
 30
0.0
 10
-21.8762
 20
18.4951
 30
0.0
 10
-21.8762
 20
18.4951
 30
0.0
 10
-21.8762
 20
18.4951
 30
0.0
 10
-21.8762
 20
18.4951
 30
0.0
 10
-21.8762
 20
19.8865
 30
0.0
 10
-21.8762
 20
19.8865
 30
0.0
  0
SPLINE
  5
C9
330
1F
100
AcDbEntity
  8
ROUND
 62
   250
100
AcDbSpline
210
0.0
220
0.0
230
1.0
 70
    24
 71
     3
 72
     8
 73
     4
 74
     0
 42
0.0000000001
 43
0.0000000001
 40
0.0
 40
0.0
 40
0.0
 40
0.0
 40
1.0
 40
1.0
 40
1.0
 40
1.0
 10
-28.0235
 20
27.0554
 30
0.0
 10
-28.0235
 20
27.0554
 30
0.0
 10
-28.0235
 20
29.4087
 30
0.0
 10
-28.0235
 20
29.4087
 30
0.0
  0
SPLINE
  5
CA
330
1F
100
AcDbEntity
  8
ROUND
 62
   250
100
AcDbSpline
210
0.0
220
0.0
230
1.0
 70
    24
 71
     3
 72
     8
 73
     4
 74
     0
 42
0.0000000001
 43
0.0000000001
 40
0.0
 40
0.0
 40
0.0
 40
0.0
 40
1.0
 40
1.0
 40
1.0
 40
1.0
 10
44.3955
 20
11.5308
 30
0.0
 10
44.3955
 20
11.5308
 30
0.0
 10
44.3955
 20
30.3679
 30
0.0
 10
44.3955
 20
30.3679
 30
0.0
  0
SPLINE
  5
CB
330
1F
100
AcDbEntity
  8
ROUND
 62
   250
100
AcDbSpline
210
0.0
220
0.0
230
1.0
 70
    24
 71
     3
 72
     8
 73
     4
 74
     0
 42
0.0000000001
 43
0.0000000001
 40
0.0
 40
0.0
 40
0.0
 40
0.0
 40
1.0
 40
1.0
 40
1.0
 40
1.0
 10
44.396
 20
29.1292
 30
0.0
 10
44.396
 20
29.1292
 30
0.0
 10
-26.4855
 20
29.1292
 30
0.0
 10
-26.4855
 20
29.1292
 30
0.0
  0
SPLINE
  5
CC
330
1F
100
AcDbEntity
  8
ROUND
 62
   250
100
AcDbSpline
210
0.0
220
0.0
230
1.0
 70
    24
 71
     3
 72
     8
 73
     4
 74
     0
 42
0.0000000001
 43
0.0000000001
 40
0.0
 40
0.0
 40
0.0
 40
0.0
 40
1.0
 40
1.0
 40
1.0
 40
1.0
 10
-33.5941
 20
21.2378
 30
0.0
 10
-33.5941
 20
21.2378
 30
0.0
 10
-33.5941
 20
24.6066
 30
0.0
 10
-33.5941
 20
24.6066
 30
0.0
  0
SPLINE
  5
CD
330
1F
100
AcDbEntity
  8
ROUND
 62
   250
100
AcDbSpline
210
0.0
220
0.0
230
1.0
 70
    24
 71
     3
 72
     8
 73
     4
 74
     0
 42
0.0000000001
 43
0.0000000001
 40
0.0
 40
0.0
 40
0.0
 40
0.0
 40
1.0
 40
1.0
 40
1.0
 40
1.0
 10
-22.4523
 20
21.298
 30
0.0
 10
-22.4523
 20
21.298
 30
0.0
 10
-22.4523
 20
24.6066
 30
0.0
 10
-22.4523
 20
24.6066
 30
0.0
  0
SPLINE
  5
CE
330
1F
100
AcDbEntity
  8
ROUND
 62
   250
100
AcDbSpline
210
0.0
220
0.0
230
1.0
 70
    24
 71
     3
 72
     8
 73
     4
 74
     0
 42
0.0000000001
 43
0.0000000001
 40
0.0
 40
0.0
 40
0.0
 40
0.0
 40
1.0
 40
1.0
 40
1.0
 40
1.0
 10
-18.954
 20
23.5835
 30
0.0
 10
-18.954
 20
23.5835
 30
0.0
 10
-36.9397
 20
23.5835
 30
0.0
 10
-36.9397
 20
23.5835
 30
0.0
  0
SPLINE
  5
CF
330
1F
100
AcDbEntity
  8
ROUND
 62
   250
100
AcDbSpline
210
0.0
220
0.0
230
1.0
 70
    24
 71
     3
 72
     8
 73
     4
 74
     0
 42
0.0000000001
 43
0.0000000001
 40
0.0
 40
0.0
 40
0.0
 40
0.0
 40
1.0
 40
1.0
 40
1.0
 40
1.0
 10
-34.7977
 20
20.3822
 30
0.0
 10
-34.7977
 20
20.3822
 30
0.0
 10
-42.7692
 20
20.3822
 30
0.0
 10
-42.7692
 20
20.3822
 30
0.0
  0
SPLINE
  5
D0
330
1F
100
AcDbEntity
  8
ROUND
 62
   250
100
AcDbSpline
210
0.0
220
0.0
230
1.0
 70
    24
 71
     3
 72
     8
 73
     4
 74
     0
 42
0.0000000001
 43
0.0000000001
 40
0.0
 40
0.0
 40
0.0
 40
0.0
 40
1.0
 40
1.0
 40
1.0
 40
1.0
 10
-4.0664
 20
5.2023
 30
0.0
 10
-4.0664
 20
5.2023
 30
0.0
 10
-42.9368
 20
5.2023
 30
0.0
 10
-42.9368
 20
5.2023
 30
0.0
  0
SPLINE
  5
D1
330
1F
100
AcDbEntity
  8
ROUND
 62
   250
100
AcDbSpline
210
0.0
220
0.0
230
1.0
 70
    24
 71
     3
 72
     8
 73
     4
 74
     0
 42
0.0000000001
 43
0.0000000001
 40
0.0
 40
0.0
 40
0.0
 40
0.0
 40
1.0
 40
1.0
 40
1.0
 40
1.0
 10
-22.0167
 20
-24.4618
 30
0.0
 10
-22.0167
 20
-24.4618
 30
0.0
 10
-42.8496
 20
-24.4618
 30
0.0
 10
-42.8496
 20
-24.4618
 30
0.0
  0
SPLINE
  5
D2
330
1F
100
AcDbEntity
  8
ROUND
 62
   250
100
AcDbSpline
210
0.0
220
0.0
230
1.0
 70
    24
 71
     3
 72
     8
 73
     4
 74
     0
 42
0.0000000001
 43
0.0000000001
 40
0.0
 40
0.0
 40
0.0
 40
0.0
 40
1.0
 40
1.0
 40
1.0
 40
1.0
 10
-42.1653
 20
-24.4625
 30
0.0
 10
-42.1653
 20
-24.4625
 30
0.0
 10
-42.1653
 20
19.9621
 30
0.0
 10
-42.1653
 20
19.9621
 30
0.0
  0
SPLINE
  5
D3
330
1F
100
AcDbEntity
  8
ROUND
 62
   250
100
AcDbSpline
210
0.0
220
0.0
230
1.0
 70
    24
 71
     3
 72
     8
 73
     4
 74
     0
 42
0.0000000001
 43
0.0000000001
 40
0.0
 40
0.0
 40
0.0
 40
0.0
 40
1.0
 40
1.0
 40
1.0
 40
1.0
 10
-28.0234
 20
-16.2195
 30
0.0
 10
-28.0234
 20
-16.2195
 30
0.0
 10
-28.0234
 20
-31.629
 30
0.0
 10
-28.0234
 20
-31.629
 30
0.0
  0
SPLINE
  5
D4
330
1F
100
AcDbEntity
  8
ROUND
 62
   250
100
AcDbSpline
210
0.0
220
0.0
230
1.0
 70
    24
 71
     3
 72
     8
 73
     4
 74
     0
 42
0.0000000001
 43
0.0000000001
 40
0.0
 40
0.0
 40
0.0
 40
0.0
 40
1.0
 40
1.0
 40
1.0
 40
1.0
 10
-5.7405
 20
-13.6697
 30
0.0
 10
-5.7405
 20
-13.6697
 30
0.0
 10
-5.7405
 20
-31.7914
 30
0.0
 10
-5.7405
 20
-31.7914
 30
0.0
  0
SPLINE
  5
D5
330
1F
100
AcDbEntity
  8
ROUND
 62
   250
100
AcDbSpline
210
0.0
220
0.0
230
1.0
 70
    24
 71
     3
 72
     8
 73
     4
 74
     0
 42
0.0000000001
 43
0.0000000001
 40
0.0
 40
0.0
 40
0.0
 40
0.0
 40
1.0
 40
1.0
 40
1.0
 40
1.0
 10
-28.023
 20
-30.8535
 30
0.0
 10
-28.023
 20
-30.8535
 30
0.0
 10
-6.1972
 20
-30.8535
 30
0.0
 10
-6.1972
 20
-30.8535
 30
0.0
  0
SPLINE
  5
D6
330
1F
100
AcDbEntity
  8
ROUND
 62
   250
100
AcDbSpline
210
0.0
220
0.0
230
1.0
 70
    24
 71
     3
 72
     8
 73
     4
 74
     0
 42
0.0000000001
 43
0.0000000001
 40
0.0
 40
0.0
 40
0.0
 40
0.0
 40
1.0
 40
1.0
 40
1.0
 40
1.0
 10
17.2325
 20
-3.3696
 30
0.0
 10
17.2325
 20
-3.3696
 30
0.0
 10
17.2325
 20
19.231
 30
0.0
 10
17.2325
 20
19.231
 30
0.0
  0
SPLINE
  5
D7
330
1F
100
AcDbEntity
  8
ROUND
 62
   250
100
AcDbSpline
210
0.0
220
0.0
230
1.0
 70
    24
 71
     3
 72
     8
 73
     4
 74
     0
 42
0.0000000001
 43
0.0000000001
 40
0.0
 40
0.0
 40
0.0
 40
0.0
 40
1.0
 40
1.0
 40
1.0
 40
1.0
 10
-32.4798
 20
17.5969
 30
0.0
 10
-32.4798
 20
17.5969
 30
0.0
 10
-32.4798
 20
8.9623
 30
0.0
 10
-32.4798
 20
8.9623
 30
0.0
  0
SPLINE
  5
D8
330
1F
100
AcDbEntity
  8
ROUND
 62
   250
100
AcDbSpline
210
0.0
220
0.0
230
1.0
 70
    24
 71
     3
 72
     8
 73
     4
 74
     0
 42
0.0000000001
 43
0.0000000001
 40
0.0
 40
0.0
 40
0.0
 40
0.0
 40
1.0
 40
1.0
 40
1.0
 40
1.0
 10
-23.5667
 20
17.5969
 30
0.0
 10
-23.5667
 20
17.5969
 30
0.0
 10
-23.5667
 20
8.9623
 30
0.0
 10
-23.5667
 20
8.9623
 30
0.0
  0
SPLINE
  5
D9
330
1F
100
AcDbEntity
  8
ROUND
 62
   250
100
AcDbSpline
210
0.0
220
0.0
230
1.0
 70
     8
 71
     3
 72
    16
 73
    12
 74
     0
 42
0.0000000001
 43
0.0000000001
 40
0.0
 40
0.0
 40
0.0
 40
0.0
 40
0.25
 40
0.25
 40
0.25
 40
0.25
 40
0.5
 40
0.5
 40
0.5
 40
0.5
 40
1.0
 40
1.0
 40
1.0
 40
1.0
 10
31.5514
 20
9.6558
 30
0.0
 10
31.5514
 20
9.6558
 30
0.0
 10
44.3957
 20
9.6586
 30
0.0
 10
44.3957
 20
9.6586
 30
0.0
 10
44.3957
 20
9.6586
 30
0.0
 10
44.3957
 20
9.6586
 30
0.0
 10
44.3957
 20
0.7456
 30
0.0
 10
44.3957
 20
0.7456
 30
0.0
 10
44.3957
 20
0.7456
 30
0.0
 10
44.3957
 20
0.7456
 30
0.0
 10
31.5514
 20
0.7623
 30
0.0
 10
31.5514
 20
0.7623
 30
0.0
  0
SPLINE
  5
DA
330
1F
100
AcDbEntity
  8
ROUND
 62
   250
100
AcDbSpline
210
0.0
220
0.0
230
1.0
 70
     8
 71
     3
 72
    12
 73
     8
 74
     0
 42
0.0000000001
 43
0.0000000001
 40
0.0
 40
0.0
 40
0.0
 40
0.0
 40
0.3333333333333333
 40
0.3333333333333333
 40
0.3333333333333333
 40
0.3333333333333333
 40
1.0
 40
1.0
 40
1.0
 40
1.0
 10
3.7297
 20
0.7456
 30
0.0
 10
0.9607
 20
0.7456
 30
0.0
 10
-1.2839
 20
-1.4991
 30
0.0
 10
-1.2839
 20
-4.268
 30
0.0
 10
-1.2839
 20
-4.268
 30
0.0
 10
-1.2839
 20
-4.268
 30
0.0
 10
-1.29
 20
-4.5305
 30
0.0
 10
-1.29
 20
-4.5305
 30
0.0
  0
SPLINE
  5
DB
330
1F
100
AcDbEntity
  8
ROUND
 62
   250
100
AcDbSpline
210
0.0
220
0.0
230
1.0
 70
     8
 71
     3
 72
    12
 73
     8
 74
     0
 42
0.0000000001
 43
0.0000000001
 40
0.0
 40
0.0
 40
0.0
 40
0.0
 40
0.3333333333333333
 40
0.3333333333333333
 40
0.3333333333333333
 40
0.3333333333333333
 40
1.0
 40
1.0
 40
1.0
 40
1.0
 10
3.7297
 20
9.6586
 30
0.0
 10
-3.9619
 20
9.6586
 30
0.0
 10
-10.1971
 20
3.4235
 30
0.0
 10
-10.1971
 20
-4.268
 30
0.0
 10
-10.1971
 20
-4.268
 30
0.0
 10
-10.1971
 20
-4.268
 30
0.0
 10
-10.1976
 20
-4.5655
 30
0.0
 10
-10.1976
 20
-4.5655
 30
0.0
  0
SPLINE
  5
DC
330
1F
100
AcDbEntity
  8
ROUND
 62
   250
100
AcDbSpline
210
0.0
220
0.0
230
1.0
 70
    27
 71
     3
 72
    12
 73
     8
 74
     0
 42
0.0000000001
 43
0.0000000001
 40
0.0
 40
0.0
 40
0.0
 40
0.0
 40
0.3333333333333333
 40
0.3333333333333333
 40
0.3333333333333333
 40
0.3333333333333333
 40
1.0
 40
1.0
 40
1.0
 40
1.0
 10
28.0817
 20
9.6588
 30
0.0
 10
28.0817
 20
9.6588
 30
0.0
 10
3.7299
 20
9.6588
 30
0.0
 10
3.7299
 20
9.6588
 30
0.0
 10
3.7299
 20
9.6588
 30
0.0
 10
3.7299
 20
9.6588
 30
0.0
 10
28.0817
 20
9.6588
 30
0.0
 10
28.0817
 20
9.6588
 30
0.0
  0
SPLINE
  5
DD
330
1F
100
AcDbEntity
  8
ROUND
 62
   250
100
AcDbSpline
210
0.0
220
0.0
230
1.0
 70
    27
 71
     3
 72
    12
 73
     8
 74
     0
 42
0.0000000001
 43
0.0000000001
 40
0.0
 40
0.0
 40
0.0
 40
0.0
 40
0.3333333333333333
 40
0.3333333333333333
 40
0.3333333333333333
 40
0.3333333333333333
 40
1.0
 40
1.0
 40
1.0
 40
1.0
 10
28.0328
 20
0.7453
 30
0.0
 10
28.0328
 20
0.7453
 30
0.0
 10
3.7299
 20
0.7453
 30
0.0
 10
3.7299
 20
0.7453
 30
0.0
 10
3.7299
 20
0.7453
 30
0.0
 10
3.7299
 20
0.7453
 30
0.0
 10
28.0328
 20
0.7453
 30
0.0
 10
28.0328
 20
0.7453
 30
0.0
  0
SPLINE
  5
DE
330
1F
100
AcDbEntity
  8
ROUND
 62
   250
100
AcDbSpline
210
0.0
220
0.0
230
1.0
 70
     8
 71
     3
 72
    24
 73
    20
 74
     0
 42
0.0000000001
 43
0.0000000001
 40
0.0
 40
0.0
 40
0.0
 40
0.0
 40
0.1666666666666667
 40
0.1666666666666667
 40
0.1666666666666667
 40
0.1666666666666667
 40
0.3333333333333333
 40
0.3333333333333333
 40
0.3333333333333333
 40
0.3333333333333333
 40
0.5
 40
0.5
 40
0.5
 40
0.5
 40
0.6666666666666666
 40
0.6666666666666666
 40
0.6666666666666666
 40
0.6666666666666666
 40
1.0
 40
1.0
 40
1.0
 40
1.0
 10
-33.5721
 20
6.2096
 30
0.0
 10
-33.5721
 20
6.2096
 30
0.0
 10
-33.5883
 20
5.9185
 30
0.0
 10
-33.5883
 20
5.9185
 30
0.0
 10
-33.5883
 20
5.9185
 30
0.0
 10
-33.5883
 20
5.9185
 30
0.0
 10
-32.9673
 20
5.62
 30
0.0
 10
-32.9673
 20
5.62
 30
0.0
 10
-32.9673
 20
5.62
 30
0.0
 10
-32.9673
 20
5.62
 30
0.0
 10
-23.0793
 20
5.62
 30
0.0
 10
-23.0793
 20
5.62
 30
0.0
 10
-23.0793
 20
5.62
 30
0.0
 10
-23.0793
 20
5.62
 30
0.0
 10
-22.4533
 20
5.9347
 30
0.0
 10
-22.4533
 20
5.9347
 30
0.0
 10
-22.4533
 20
5.9347
 30
0.0
 10
-22.4533
 20
5.9347
 30
0.0
 10
-22.4533
 20
6.1772
 30
0.0
 10
-22.4533
 20
6.1772
 30
0.0
  0
SPLINE
  5
DF
330
1F
100
AcDbEntity
  8
ROUND
 62
   250
100
AcDbSpline
210
0.0
220
0.0
230
1.0
 70
     8
 71
     3
 72
    16
 73
    12
 74
     0
 42
0.0000000001
 43
0.0000000001
 40
0.0
 40
0.0
 40
0.0
 40
0.0
 40
0.25
 40
0.25
 40
0.25
 40
0.25
 40
0.5
 40
0.5
 40
0.5
 40
0.5
 40
1.0
 40
1.0
 40
1.0
 40
1.0
 10
-32.4798
 20
-8.8638
 30
0.0
 10
-32.4798
 20
-17.4784
 30
0.0
 10
-25.4964
 20
-24.4618
 30
0.0
 10
-16.8819
 20
-24.4618
 30
0.0
 10
-16.8819
 20
-24.4618
 30
0.0
 10
-8.2674
 20
-24.4618
 30
0.0
 10
-1.2839
 20
-17.4784
 30
0.0
 10
-1.2839
 20
-8.8638
 30
0.0
 10
-1.2839
 20
-8.8638
 30
0.0
 10
-1.2839
 20
-8.8638
 30
0.0
 10
-1.2644
 20
-8.6355
 30
0.0
 10
-1.2644
 20
-8.6355
 30
0.0
  0
SPLINE
  5
E0
330
1F
100
AcDbEntity
  8
ROUND
 62
   250
100
AcDbSpline
210
0.0
220
0.0
230
1.0
 70
     8
 71
     3
 72
    12
 73
     8
 74
     0
 42
0.0000000001
 43
0.0000000001
 40
0.0
 40
0.0
 40
0.0
 40
0.0
 40
0.3333333333333333
 40
0.3333333333333333
 40
0.3333333333333333
 40
0.3333333333333333
 40
1.0
 40
1.0
 40
1.0
 40
1.0
 10
-23.5638
 20
-8.7134
 30
0.0
 10
-23.5638
 20
-12.4054
 30
0.0
 10
-20.533
 20
-15.3983
 30
0.0
 10
-16.841
 20
-15.3983
 30
0.0
 10
-16.841
 20
-15.3983
 30
0.0
 10
-13.1491
 20
-15.3983
 30
0.0
 10
-10.1562
 20
-12.4054
 30
0.0
 10
-10.1562
 20
-8.7134
 30
0.0
  0
SPLINE
  5
E1
330
1F
100
AcDbEntity
  8
ROUND
 62
   250
100
AcDbSpline
210
0.0
220
0.0
230
1.0
 70
     8
 71
     3
 72
    24
 73
    20
 74
     0
 42
0.0000000001
 43
0.0000000001
 40
0.0
 40
0.0
 40
0.0
 40
0.0
 40
0.1666666666666667
 40
0.1666666666666667
 40
0.1666666666666667
 40
0.1666666666666667
 40
0.3333333333333333
 40
0.3333333333333333
 40
0.3333333333333333
 40
0.3333333333333333
 40
0.5
 40
0.5
 40
0.5
 40
0.5
 40
0.6666666666666666
 40
0.6666666666666666
 40
0.6666666666666666
 40
0.6666666666666666
 40
1.0
 40
1.0
 40
1.0
 40
1.0
 10
-32.9448
 20
5.6352
 30
0.0
 10
-32.9448
 20
5.6352
 30
0.0
 10
-32.9661
 20
-2.7962
 30
0.0
 10
-32.9661
 20
-2.7962
 30
0.0
 10
-32.9661
 20
-2.7962
 30
0.0
 10
-32.9661
 20
-2.7962
 30
0.0
 10
-32.4798
 20
-3.2932
 30
0.0
 10
-32.4798
 20
-3.2932
 30
0.0
 10
-32.4798
 20
-3.2932
 30
0.0
 10
-32.4798
 20
-3.2932
 30
0.0
 10
-23.5667
 20
-3.2932
 30
0.0
 10
-23.5667
 20
-3.2932
 30
0.0
 10
-23.5667
 20
-3.2932
 30
0.0
 10
-23.5667
 20
-3.2932
 30
0.0
 10
-23.0821
 20
-2.7535
 30
0.0
 10
-23.0821
 20
-2.7535
 30
0.0
 10
-23.0821
 20
-2.7535
 30
0.0
 10
-23.0821
 20
-2.7535
 30
0.0
 10
-23.1034
 20
5.5925
 30
0.0
 10
-23.1034
 20
5.5925
 30
0.0
  0
SPLINE
  5
E2
330
1F
100
AcDbEntity
  8
ROUND
 62
   250
100
AcDbSpline
210
0.0
220
0.0
230
1.0
 70
    27
 71
     3
 72
    12
 73
     8
 74
     0
 42
0.0000000001
 43
0.0000000001
 40
0.0
 40
0.0
 40
0.0
 40
0.0
 40
0.3333333333333333
 40
0.3333333333333333
 40
0.3333333333333333
 40
0.3333333333333333
 40
1.0
 40
1.0
 40
1.0
 40
1.0
 10
-32.4797
 20
-8.8635
 30
0.0
 10
-32.4797
 20
-8.8635
 30
0.0
 10
-32.4797
 20
-3.293
 30
0.0
 10
-32.4797
 20
-3.293
 30
0.0
 10
-32.4797
 20
-3.293
 30
0.0
 10
-32.4797
 20
-3.293
 30
0.0
 10
-32.4797
 20
-8.8635
 30
0.0
 10
-32.4797
 20
-8.8635
 30
0.0
  0
SPLINE
  5
E3
330
1F
100
AcDbEntity
  8
ROUND
 62
   250
100
AcDbSpline
210
0.0
220
0.0
230
1.0
 70
    27
 71
     3
 72
    12
 73
     8
 74
     0
 42
0.0000000001
 43
0.0000000001
 40
0.0
 40
0.0
 40
0.0
 40
0.0
 40
0.3333333333333333
 40
0.3333333333333333
 40
0.3333333333333333
 40
0.3333333333333333
 40
1.0
 40
1.0
 40
1.0
 40
1.0
 10
-23.5669
 20
-8.8635
 30
0.0
 10
-23.5669
 20
-8.8635
 30
0.0
 10
-23.5669
 20
-3.293
 30
0.0
 10
-23.5669
 20
-3.293
 30
0.0
 10
-23.5669
 20
-3.293
 30
0.0
 10
-23.5669
 20
-3.293
 30
0.0
 10
-23.5669
 20
-8.8635
 30
0.0
 10
-23.5669
 20
-8.8635
 30
0.0
  0
SPLINE
  5
E4
330
1F
100
AcDbEntity
  8
ROUND
  6
NEW_LINE1
 62
   250
100
AcDbSpline
210
0.0
220
0.0
230
1.0
 70
    24
 71
     3
 72
     8
 73
     4
 74
     0
 42
0.0000000001
 43
0.0000000001
 40
0.0
 40
0.0
 40
0.0
 40
0.0
 40
1.0
 40
1.0
 40
1.0
 40
1.0
 10
-28.023
 20
21.8922
 30
0.0
 10
-28.023
 20
21.8922
 30
0.0
 10
-28.023
 20
-14.7942
 30
0.0
 10
-28.023
 20
-14.7942
 30
0.0
  0
SPLINE
  5
E6
330
1F
100
AcDbEntity
  8
ROUND
  6
NEW_LINE2
 62
   250
100
AcDbSpline
210
0.0
220
0.0
230
1.0
 70
    24
 71
     3
 72
     8
 73
     4
 74
     0
 42
0.0000000001
 43
0.0000000001
 40
0.0
 40
0.0
 40
0.0
 40
0.0
 40
1.0
 40
1.0
 40
1.0
 40
1.0
 10
-5.7406
 20
-12.2892
 30
0.0
 10
-5.7406
 20
-12.2892
 30
0.0
 10
-5.7406
 20
0.2346
 30
0.0
 10
-5.7406
 20
0.2346
 30
0.0
  0
SPLINE
  5
E8
330
1F
100
AcDbEntity
  8
ROUND
  6
NEW_LINE3
 62
   250
100
AcDbSpline
210
0.0
220
0.0
230
1.0
 70
    24
 71
     3
 72
     8
 73
     4
 74
     0
 42
0.0000000001
 43
0.0000000001
 40
0.0
 40
0.0
 40
0.0
 40
0.0
 40
1.0
 40
1.0
 40
1.0
 40
1.0
 10
3.1726
 20
5.2022
 30
0.0
 10
3.1726
 20
5.2022
 30
0.0
 10
44.9527
 20
5.2022
 30
0.0
 10
44.9527
 20
5.2022
 30
0.0
  0
SPLINE
  5
EA
330
1F
100
AcDbEntity
  8
ROUND
 62
   250
100
AcDbSpline
210
0.0
220
0.0
230
1.0
 70
     8
 71
     3
 72
    40
 73
    36
 74
     0
 42
0.0000000001
 43
0.0000000001
 40
0.0
 40
0.0
 40
0.0
 40
0.0
 40
0.1
 40
0.1
 40
0.1
 40
0.1
 40
0.2
 40
0.2
 40
0.2
 40
0.2
 40
0.3
 40
0.3
 40
0.3
 40
0.3
 40
0.4
 40
0.4
 40
0.4
 40
0.4
 40
0.5
 40
0.5
 40
0.5
 40
0.5
 40
0.6
 40
0.6
 40
0.6
 40
0.6
 40
0.7
 40
0.7
 40
0.7
 40
0.7
 40
0.8
 40
0.8
 40
0.8
 40
0.8
 40
1.0
 40
1.0
 40
1.0
 40
1.0
 10
-11.3174
 20
-7.3337
 30
0.0
 10
-11.3174
 20
-7.3337
 30
0.0
 10
-11.3174
 20
-7.8826
 30
0.0
 10
-11.3174
 20
-7.8826
 30
0.0
 10
-11.3174
 20
-7.8826
 30
0.0
 10
-11.3174
 20
-7.8826
 30
0.0
 10
-10.5718
 20
-8.2942
 30
0.0
 10
-10.5718
 20
-8.2942
 30
0.0
 10
-10.5718
 20
-8.2942
 30
0.0
 10
-10.5718
 20
-8.2942
 30
0.0
 10
-10.5003
 20
-8.3763
 30
0.0
 10
-10.5003
 20
-8.3763
 30
0.0
 10
-10.5003
 20
-8.3763
 30
0.0
 10
-10.5003
 20
-8.3763
 30
0.0
 10
-10.1971
 20
-8.7246
 30
0.0
 10
-10.1971
 20
-8.7246
 30
0.0
 10
-10.1971
 20
-8.7246
 30
0.0
 10
-10.1971
 20
-8.7246
 30
0.0
 10
-1.2839
 20
-8.7246
 30
0.0
 10
-1.2839
 20
-8.7246
 30
0.0
 10
-1.2839
 20
-8.7246
 30
0.0
 10
-1.2839
 20
-8.7246
 30
0.0
 10
-0.9877
 20
-8.3763
 30
0.0
 10
-0.9877
 20
-8.3763
 30
0.0
 10
-0.9877
 20
-8.3763
 30
0.0
 10
-0.9877
 20
-8.3763
 30
0.0
 10
-0.8882
 20
-8.2593
 30
0.0
 10
-0.8882
 20
-8.2593
 30
0.0
 10
-0.8882
 20
-8.2593
 30
0.0
 10
-0.8882
 20
-8.2593
 30
0.0
 10
-0.1358
 20
-7.8831
 30
0.0
 10
-0.1358
 20
-7.8831
 30
0.0
 10
-0.1358
 20
-7.8831
 30
0.0
 10
-0.1358
 20
-7.8831
 30
0.0
 10
-0.17
 20
-7.3359
 30
0.0
 10
-0.17
 20
-7.3359
 30
0.0
  0
SPLINE
  5
EB
330
1F
100
AcDbEntity
  8
ROUND
 62
   250
100
AcDbSpline
210
0.0
220
0.0
230
1.0
 70
    27
 71
     3
 72
    28
 73
    24
 74
     0
 42
0.0000000001
 43
0.0000000001
 40
0.0
 40
0.0
 40
0.0
 40
0.0
 40
0.1428571428571428
 40
0.1428571428571428
 40
0.1428571428571428
 40
0.1428571428571428
 40
0.2857142857142857
 40
0.2857142857142857
 40
0.2857142857142857
 40
0.2857142857142857
 40
0.4285714285714285
 40
0.4285714285714285
 40
0.4285714285714285
 40
0.4285714285714285
 40
0.5714285714285714
 40
0.5714285714285714
 40
0.5714285714285714
 40
0.5714285714285714
 40
0.7142857142857143
 40
0.7142857142857143
 40
0.7142857142857143
 40
0.7142857142857143
 40
1.0
 40
1.0
 40
1.0
 40
1.0
 10
-0.935
 20
-8.3763
 30
0.0
 10
-0.935
 20
-8.3763
 30
0.0
 10
-0.9877
 20
-8.3763
 30
0.0
 10
-0.9877
 20
-8.3763
 30
0.0
 10
-0.9877
 20
-8.3763
 30
0.0
 10
-0.9877
 20
-8.3763
 30
0.0
 10
-10.5003
 20
-8.3763
 30
0.0
 10
-10.5003
 20
-8.3763
 30
0.0
 10
-10.5003
 20
-8.3763
 30
0.0
 10
-10.5003
 20
-8.3763
 30
0.0
 10
-10.5449
 20
-8.3763
 30
0.0
 10
-10.5449
 20
-8.3763
 30
0.0
 10
-10.5449
 20
-8.3763
 30
0.0
 10
-10.5449
 20
-8.3763
 30
0.0
 10
-10.5003
 20
-8.3763
 30
0.0
 10
-10.5003
 20
-8.3763
 30
0.0
 10
-10.5003
 20
-8.3763
 30
0.0
 10
-10.5003
 20
-8.3763
 30
0.0
 10
-0.9877
 20
-8.3763
 30
0.0
 10
-0.9877
 20
-8.3763
 30
0.0
 10
-0.9877
 20
-8.3763
 30
0.0
 10
-0.9877
 20
-8.3763
 30
0.0
 10
-0.935
 20
-8.3763
 30
0.0
 10
-0.935
 20
-8.3763
 30
0.0
  0
SPLINE
  5
EC
330
1F
100
AcDbEntity
  8
ROUND
 62
   250
100
AcDbSpline
210
0.0
220
0.0
230
1.0
 70
    11
 71
     3
 72
    20
 73
    16
 74
     0
 42
0.0000000001
 43
0.0000000001
 40
0.0
 40
0.0
 40
0.0
 40
0.0
 40
0.2
 40
0.2
 40
0.2
 40
0.2
 40
0.4
 40
0.4
 40
0.4
 40
0.4
 40
0.6
 40
0.6
 40
0.6
 40
0.6
 40
1.0
 40
1.0
 40
1.0
 40
1.0
 10
41.3313
 20
29.5889
 30
0.0
 10
41.3313
 20
29.5889
 30
0.0
 10
44.3314
 20
29.1655
 30
0.0
 10
44.3314
 20
29.1655
 30
0.0
 10
44.3314
 20
29.1655
 30
0.0
 10
44.3314
 20
29.1655
 30
0.0
 10
44.3314
 20
29.0714
 30
0.0
 10
44.3314
 20
29.0714
 30
0.0
 10
44.3314
 20
29.0714
 30
0.0
 10
44.3314
 20
29.0714
 30
0.0
 10
41.3313
 20
28.6199
 30
0.0
 10
41.3313
 20
28.6199
 30
0.0
 10
41.3313
 20
28.6199
 30
0.0
 10
41.3313
 20
28.6199
 30
0.0
 10
41.3313
 20
29.5889
 30
0.0
 10
41.3313
 20
29.5889
 30
0.0
  0
SPLINE
  5
ED
330
1F
100
AcDbEntity
  8
ROUND
 62
   250
100
AcDbSpline
210
0.0
220
0.0
230
1.0
 70
    11
 71
     3
 72
    20
 73
    16
 74
     0
 42
0.0000000001
 43
0.0000000001
 40
0.0
 40
0.0
 40
0.0
 40
0.0
 40
0.2
 40
0.2
 40
0.2
 40
0.2
 40
0.4
 40
0.4
 40
0.4
 40
0.4
 40
0.6
 40
0.6
 40
0.6
 40
0.6
 40
1.0
 40
1.0
 40
1.0
 40
1.0
 10
-24.9855
 20
28.6447
 30
0.0
 10
-24.9855
 20
28.6447
 30
0.0
 10
-27.9855
 20
29.0681
 30
0.0
 10
-27.9855
 20
29.0681
 30
0.0
 10
-27.9855
 20
29.0681
 30
0.0
 10
-27.9855
 20
29.0681
 30
0.0
 10
-27.9855
 20
29.1622
 30
0.0
 10
-27.9855
 20
29.1622
 30
0.0
 10
-27.9855
 20
29.1622
 30
0.0
 10
-27.9855
 20
29.1622
 30
0.0
 10
-24.9855
 20
29.6137
 30
0.0
 10
-24.9855
 20
29.6137
 30
0.0
 10
-24.9855
 20
29.6137
 30
0.0
 10
-24.9855
 20
29.6137
 30
0.0
 10
-24.9855
 20
28.6447
 30
0.0
 10
-24.9855
 20
28.6447
 30
0.0
  0
ENDSEC
  0
SECTION
  2
OBJECTS
  0
DICTIONARY
  5
C
330
0
100
AcDbDictionary
  3
ACAD_GROUP
350
D
  3
ACAD_LAYOUT
350
1A
  3
ACAD_MATERIAL
350
3B
  3
ACAD_MLEADERSTYLE
350
110
  3
ACAD_MLINESTYLE
350
17
  3
ACAD_PLOTSETTINGS
350
19
  3
ACAD_VISUALSTYLE
350
2A
  3
ACDBHEADERROUNDTRIPXREC
350
EE
  3
ACDBVARIABLEDICTIONARY
350
10E
  0
DICTIONARY
  5
D
102
{ACAD_REACTORS
330
C
102
}
330
C
100
AcDbDictionary
  0
DICTIONARY
  5
1A
102
{ACAD_REACTORS
330
C
102
}
330
C
100
AcDbDictionary
  0
DICTIONARY
  5
3B
102
{ACAD_REACTORS
330
C
102
}
330
C
100
AcDbDictionary
  3
BYBLOCK
350
3D
  3
BYLAYER
350
3C
  3
GLOBAL
350
3E
  0
DICTIONARY
  5
110
102
{ACAD_REACTORS
330
C
102
}
330
C
100
AcDbDictionary
  0
DICTIONARY
  5
17
102
{ACAD_REACTORS
330
C
102
}
330
C
100
AcDbDictionary
  3
STANDARD
350
18
  0
DICTIONARY
  5
19
102
{ACAD_REACTORS
330
C
102
}
330
C
100
AcDbDictionary
  0
DICTIONARY
  5
2A
102
{ACAD_REACTORS
330
C
102
}
330
C
100
AcDbDictionary
  3
2DWIREFRAME
350
2F
  3
3D_HIDDEN
350
31
  3
3DWIREFRAME
350
30
  3
BASIC
350
32
  3
BRIGHTEN
350
36
  3
COLORCHANGE
350
3A
  3
CONCEPTUAL
350
34
  3
DIM
350
35
  3
FACEPATTERN
350
39
  3
FLAT
350
2B
  3
FLATWITHEDGES
350
2C
  3
GOURAUD
350
2D
  3
GOURAUDWITHEDGES
350
2E
  3
LINEPATTERN
350
38
  3
REALISTIC
350
33
  3
THICKEN
350
37
  0
DICTIONARY
  5
EE
102
{ACAD_REACTORS
330
C
102
}
330
C
100
AcDbDictionary
  3
CEPSNTYPE
350
F7
  3
DIMSTYLEDATA
350
10D
  3
FINGERPRINTGUID
350
F8
  3
HYPERLINKBASE
350
F1
  3
INSUNITS
350
F6
  3
LAYOUTDICT
350
F3
  3
LWETCUNION
350
F5
  3
PLOTSETDICT
350
F4
  3
PSVPSCALE
350
FA
  3
PUCSBASE
350
FD
  3
PUCSORGBACK
350
103
  3
PUCSORGBOTTOM
350
FF
  3
PUCSORGFRONT
350
102
  3
PUCSORGLEFT
350
100
  3
PUCSORGRIGHT
350
101
  3
PUCSORGTOP
350
FE
  3
PUCSORTHOREF
350
FB
  3
PUCSORTHOVIEW
350
FC
  3
STYLESHEET
350
F2
  3
TSTACKALIGN
350
EF
  3
TSTACKSIZE
350
F0
  3
UCSBASE
350
106
  3
UCSORGBACK
350
10C
  3
UCSORGBOTTOM
350
108
  3
UCSORGFRONT
350
10B
  3
UCSORGLEFT
350
109
  3
UCSORGRIGHT
350
10A
  3
UCSORGTOP
350
107
  3
UCSORTHOREF
350
104
  3
UCSORTHOVIEW
350
105
  3
VERSIONGUID
350
F9
  0
DICTIONARY
  5
10E
102
{ACAD_REACTORS
330
C
102
}
330
C
100
AcDbDictionary
  3
DIMASSOC
350
111
  3
HIDETEXT
350
112
  0
MATERIAL
  5
3D
102
{ACAD_REACTORS
330
3B
102
}
102
{ACAD_XDICTIONARY
360
115
102
}
330
3B
100
AcDbMaterial
  1
ByBlock
  0
MATERIAL
  5
3C
102
{ACAD_REACTORS
330
3B
102
}
102
{ACAD_XDICTIONARY
360
113
102
}
330
3B
100
AcDbMaterial
  1
ByLayer
  0
MATERIAL
  5
3E
102
{ACAD_REACTORS
330
3B
102
}
102
{ACAD_XDICTIONARY
360
117
102
}
330
3B
100
AcDbMaterial
  1
Global
  0
MLINESTYLE
  5
18
102
{ACAD_REACTORS
330
17
102
}
330
17
100
AcDbMlineStyle
  2
Standard
 70
     0
  3

 62
   256
 51
90.0
 52
90.0
 71
     2
 49
0.5
 62
   256
  6
BYLAYER
 49
-0.5
 62
   256
  6
BYLAYER
  0
ACAD_PROXY_OBJECT
  5
2F
102
{ACAD_REACTORS
330
2A
102
}
330
2A
100
AcDbProxyObject
 90
      499
 91
      501
 93
      436
310
42CC9915DA5C99599C985B595049028333333333333E3BF0000000000000FB0107901411070040501600405405064090741402480A0340
1001
ACAD
1000
AcDbSavedByObjectVersion
1070
     0
  0
ACAD_PROXY_OBJECT
  5
31
102
{ACAD_REACTORS
330
2A
102
}
330
2A
100
AcDbProxyObject
 90
      499
 91
      501
 93
      500
310
424CD108121A5919195B90640502408333333333333E3BF0000000000000FB01079024090700405020000000000001110200405405064090740C02480A0340
1001
ACAD
1000
AcDbSavedByObjectVersion
1070
     0
  0
ACAD_PROXY_OBJECT
  5
30
102
{ACAD_REACTORS
330
2A
102
}
330
2A
100
AcDbProxyObject
 90
      499
 91
      501
 93
      436
310
42CCD915DA5C99599C985B595059028333333333333E3BF0000000000000FB0107901411070040501600405405064090741402480A0340
1001
ACAD
1000
AcDbSavedByObjectVersion
1070
     0
  0
ACAD_PROXY_OBJECT
  5
32
102
{ACAD_REACTORS
330
2A
102
}
330
2A
100
AcDbProxyObject
 90
      499
 91
      501
 93
      388
310
4150985CDA58D07406404333333333333E3BF0000000000000FB0107A41107004050150841D405064090741402480A0350
1001
ACAD
1000
AcDbSavedByObjectVersion
1070
     0
  0
ACAD_PROXY_OBJECT
  5
36
102
{ACAD_REACTORS
330
2A
102
}
330
2A
100
AcDbProxyObject
 90
      499
 91
      501
 93
      428
310
42109C9A59DA1D195B90C409028333333333333E3BF0000000000000FB010790141107004050150841D405064090741402480A029950
1001
ACAD
1000
AcDbSavedByObjectVersion
1070
     0
  0
ACAD_PROXY_OBJECT
  5
3A
102
{ACAD_REACTORS
330
2A
102
}
330
2A
100
AcDbProxyObject
 90
      499
 91
      501
 93
      452
310
42D0DBDB1BDC90DA185B99D95104090240C333333333333E3BF0000000000000FB0108901411070040501508421405064090741402480A0350
1001
ACAD
1000
AcDbSavedByObjectVersion
1070
     0
  0
ACAD_PROXY_OBJECT
  5
34
102
{ACAD_REACTORS
330
2A
102
}
330
2A
100
AcDbProxyObject
 90
      499
 91
      501
 93
      500
310
4290DBDB98D95C1D1D585B10940D028333333333333E3BF0000000000000FB0107902409070040501000000000000111010841D405064090740C02480A0340
1001
ACAD
1000
AcDbSavedByObjectVersion
1070
     0
  0
ACAD_PROXY_OBJECT
  5
35
102
{ACAD_REACTORS
330
2A
102
}
330
2A
100
AcDbProxyObject
 90
      499
 91
      501
 93
      412
310
40D11A5B50B409028333333333333E3BF0000000000000FB010790141107004050150841D405064090741402480A02677FFFFFD0
1001
ACAD
1000
AcDbSavedByObjectVersion
1070
     0
  0
ACAD_PROXY_OBJECT
  5
39
102
{ACAD_REACTORS
330
2A
102
}
330
2A
100
AcDbProxyObject
 90
      499
 91
      501
 93
      444
310
42D19858D95C185D1D195C9B90F409028333333333333E3BF0000000000000FB010790141107004050150841D405064090741402480A0350
1001
ACAD
1000
AcDbSavedByObjectVersion
1070
     0
  0
ACAD_PROXY_OBJECT
  5
2B
102
{ACAD_REACTORS
330
2A
102
}
330
2A
100
AcDbProxyObject
 90
      499
 91
      501
 93
      388
310
41119B185D240901404333333333333E3BF0000000000000F9010740A41107004050150841D405064090741402480A1B50
1001
ACAD
1000
AcDbSavedByObjectVersion
1070
     0
  0
ACAD_PROXY_OBJECT
  5
2C
102
{ACAD_REACTORS
330
2A
102
}
330
2A
100
AcDbProxyObject
 90
      499
 91
      501
 93
      476
310
43519B185D15DA5D1A115919D95CD0140901404333333333333E3BF0000000000000F9010740901411070040501600405405064090741402480A1B50
1001
ACAD
1000
AcDbSavedByObjectVersion
1070
     0
  0
ACAD_PROXY_OBJECT
  5
2D
102
{ACAD_REACTORS
330
2A
102
}
330
2A
100
AcDbProxyObject
 90
      499
 91
      501
 93
      412
310
41D1DBDD5C985D5910240902404333333333333E3BF0000000000000F9010740A411070040501641D405064090741402480A1B50
1001
ACAD
1000
AcDbSavedByObjectVersion
1070
     0
  0
ACAD_PROXY_OBJECT
  5
2E
102
{ACAD_REACTORS
330
2A
102
}
330
2A
100
AcDbProxyObject
 90
      499
 91
      501
 93
      500
310
4411DBDD5C985D5915DA5D1A115919D95CD0340902404333333333333E3BF0000000000000F9010740901411070040501600405405064090741402480A1B50
1001
ACAD
1000
AcDbSavedByObjectVersion
1070
     0
  0
ACAD_PROXY_OBJECT
  5
38
102
{ACAD_REACTORS
330
2A
102
}
330
2A
100
AcDbProxyObject
 90
      499
 91
      501
 93
      444
310
42D31A5B995C185D1D195C9B90E409028333333333333E3BF0000000000000FB010790141107004050750841D405064090741402483A0350
1001
ACAD
1000
AcDbSavedByObjectVersion
1070
     0
  0
ACAD_PROXY_OBJECT
  5
33
102
{ACAD_REACTORS
330
2A
102
}
330
2A
100
AcDbProxyObject
 90
      499
 91
      501
 93
      420
310
425499585B1A5CDD1A58D08409028333333333333E3BF0000000000000FB01079019070040501508421405064090741402480A1B40
1001
ACAD
1000
AcDbSavedByObjectVersion
1070
     0
  0
ACAD_PROXY_OBJECT
  5
37
102
{ACAD_REACTORS
330
2A
102
}
330
2A
100
AcDbProxyObject
 90
      499
 91
      501
 93
      412
310
41D51A1A58DAD95B90D409028333333333333E3BF0000000000000FB010790141107004050150C41D405064090741402480A0350
1001
ACAD
1000
AcDbSavedByObjectVersion
1070
     0
  0
XRECORD
  5
F7
102
{ACAD_REACTORS
330
EE
102
}
330
EE
100
AcDbXrecord
 90
        0
  0
XRECORD
  5
10D
102
{ACAD_REACTORS
330
EE
102
}
330
EE
100
AcDbXrecord
1000
DSTYLE
1002
{
1070
   340
340
11
1002
}
  0
XRECORD
  5
F8
102
{ACAD_REACTORS
330
EE
102
}
330
EE
100
AcDbXrecord
  1
{9B53CF69-9FAD-4DC9-8798-21ED579BE91E}
  0
XRECORD
  5
F1
102
{ACAD_REACTORS
330
EE
102
}
330
EE
100
AcDbXrecord
  1

  0
XRECORD
  5
F6
102
{ACAD_REACTORS
330
EE
102
}
330
EE
100
AcDbXrecord
 90
        4
  0
XRECORD
  5
F3
102
{ACAD_REACTORS
330
EE
102
}
330
EE
100
AcDbXrecord
340
1A
  0
XRECORD
  5
F5
102
{ACAD_REACTORS
330
EE
102
}
330
EE
100
AcDbXrecord
 90
    10781
  0
XRECORD
  5
F4
102
{ACAD_REACTORS
330
EE
102
}
330
EE
100
AcDbXrecord
340
19
  0
XRECORD
  5
FA
102
{ACAD_REACTORS
330
EE
102
}
330
EE
100
AcDbXrecord
 40
0.0
  0
XRECORD
  5
FD
102
{ACAD_REACTORS
330
EE
102
}
330
EE
100
AcDbXrecord
340
0
  0
XRECORD
  5
103
102
{ACAD_REACTORS
330
EE
102
}
330
EE
100
AcDbXrecord
 10
0.0
 20
0.0
 30
0.0
  0
XRECORD
  5
FF
102
{ACAD_REACTORS
330
EE
102
}
330
EE
100
AcDbXrecord
 10
0.0
 20
0.0
 30
0.0
  0
XRECORD
  5
102
102
{ACAD_REACTORS
330
EE
102
}
330
EE
100
AcDbXrecord
 10
0.0
 20
0.0
 30
0.0
  0
XRECORD
  5
100
102
{ACAD_REACTORS
330
EE
102
}
330
EE
100
AcDbXrecord
 10
0.0
 20
0.0
 30
0.0
  0
XRECORD
  5
101
102
{ACAD_REACTORS
330
EE
102
}
330
EE
100
AcDbXrecord
 10
0.0
 20
0.0
 30
0.0
  0
XRECORD
  5
FE
102
{ACAD_REACTORS
330
EE
102
}
330
EE
100
AcDbXrecord
 10
0.0
 20
0.0
 30
0.0
  0
XRECORD
  5
FB
102
{ACAD_REACTORS
330
EE
102
}
330
EE
100
AcDbXrecord
340
0
  0
XRECORD
  5
FC
102
{ACAD_REACTORS
330
EE
102
}
330
EE
100
AcDbXrecord
 70
     0
  0
XRECORD
  5
F2
102
{ACAD_REACTORS
330
EE
102
}
330
EE
100
AcDbXrecord
  1

  0
XRECORD
  5
EF
102
{ACAD_REACTORS
330
EE
102
}
330
EE
100
AcDbXrecord
 90
        1
  0
XRECORD
  5
F0
102
{ACAD_REACTORS
330
EE
102
}
330
EE
100
AcDbXrecord
 90
       70
  0
XRECORD
  5
106
102
{ACAD_REACTORS
330
EE
102
}
330
EE
100
AcDbXrecord
340
0
  0
XRECORD
  5
10C
102
{ACAD_REACTORS
330
EE
102
}
330
EE
100
AcDbXrecord
 10
0.0
 20
0.0
 30
0.0
  0
XRECORD
  5
108
102
{ACAD_REACTORS
330
EE
102
}
330
EE
100
AcDbXrecord
 10
0.0
 20
0.0
 30
0.0
  0
XRECORD
  5
10B
102
{ACAD_REACTORS
330
EE
102
}
330
EE
100
AcDbXrecord
 10
0.0
 20
0.0
 30
0.0
  0
XRECORD
  5
109
102
{ACAD_REACTORS
330
EE
102
}
330
EE
100
AcDbXrecord
 10
0.0
 20
0.0
 30
0.0
  0
XRECORD
  5
10A
102
{ACAD_REACTORS
330
EE
102
}
330
EE
100
AcDbXrecord
 10
0.0
 20
0.0
 30
0.0
  0
XRECORD
  5
107
102
{ACAD_REACTORS
330
EE
102
}
330
EE
100
AcDbXrecord
 10
0.0
 20
0.0
 30
0.0
  0
XRECORD
  5
104
102
{ACAD_REACTORS
330
EE
102
}
330
EE
100
AcDbXrecord
340
0
  0
XRECORD
  5
105
102
{ACAD_REACTORS
330
EE
102
}
330
EE
100
AcDbXrecord
 70
     0
  0
XRECORD
  5
F9
102
{ACAD_REACTORS
330
EE
102
}
330
EE
100
AcDbXrecord
  1
{FAEB1C32-E019-11D5-929B-00C0DF256EC4}
  0
DICTIONARYVAR
  5
111
102
{ACAD_REACTORS
330
10E
102
}
330
10E
100
DictionaryVariables
280
     0
  1
2
  0
DICTIONARYVAR
  5
112
102
{ACAD_REACTORS
330
10E
102
}
330
10E
100
DictionaryVariables
280
     0
  1
1
  0
DICTIONARY
  5
115
330
3D
100
AcDbDictionary
280
     1
  3
ACAD_XREC_ROUNDTRIP
360
116
  0
DICTIONARY
  5
113
330
3C
100
AcDbDictionary
280
     1
  3
ACAD_XREC_ROUNDTRIP
360
114
  0
DICTIONARY
  5
117
330
3E
100
AcDbDictionary
280
     1
  3
ACAD_XREC_ROUNDTRIP
360
118
  0
XRECORD
  5
116
102
{ACAD_REACTORS
330
115
102
}
330
115
100
AcDbXrecord
102
MATERIAL
148
0.0
149
0.0
149
0.0
 93
        0
 94
      127
282
     0
 72
     1
 77
     1
171
     1
175
     1
179
     1
273
     0
  0
XRECORD
  5
114
102
{ACAD_REACTORS
330
113
102
}
330
113
100
AcDbXrecord
102
MATERIAL
148
0.0
149
0.0
149
0.0
 93
        0
 94
      127
282
     0
 72
     1
 77
     1
171
     1
175
     1
179
     1
273
     0
  0
XRECORD
  5
118
102
{ACAD_REACTORS
330
117
102
}
330
117
100
AcDbXrecord
102
MATERIAL
148
0.0
149
0.0
149
0.0
 93
        0
 94
      127
282
     0
 72
     1
 77
     1
171
     1
175
     1
179
     1
273
     0
  0
ENDSEC
  0
EOF
