  0
SECTION
  2
HEADER
  9
$ACADVER
  1
AC1014
  9
$ACADMAINTVER
 70
     9
  9
$DWGCODEPAGE
  3
ANSI_1250
  9
$INSBASE
 10
0.0
 20
0.0
 30
0.0
  9
$EXTMIN
 10
-39.9049
 20
-25.4502
 30
0.0
  9
$EXTMAX
 10
29.9049
 20
25.3797
 30
0.0
  9
$LIMMIN
 10
0.0
 20
0.0
  9
$LIMMAX
 10
12.0
 20
9.0
  9
$ORTHOMODE
 70
     0
  9
$REGENMODE
 70
     1
  9
$FILLMODE
 70
     1
  9
$QTEXTMODE
 70
     0
  9
$MIRRTEXT
 70
     1
  9
$DRAGMODE
 70
     2
  9
$LTSCALE
 40
1.0
  9
$OSMODE
 70
    37
  9
$ATTMODE
 70
     1
  9
$TEXTSIZE
 40
0.2
  9
$TRACEWID
 40
0.05
  9
$TEXTSTYLE
  7
STANDARD
  9
$CLAYER
  8
0
  9
$CELTYPE
  6
BYLAYER
  9
$CECOLOR
 62
   256
  9
$CELTSCALE
 40
1.0
  9
$DELOBJ
 70
     1
  9
$DISPSILH
 70
     0
  9
$DIMSCALE
 40
1.0
  9
$DIMASZ
 40
0.18
  9
$DIMEXO
 40
0.0625
  9
$DIMDLI
 40
0.38
  9
$DIMRND
 40
0.0
  9
$DIMDLE
 40
0.0
  9
$DIMEXE
 40
0.18
  9
$DIMTP
 40
0.0
  9
$DIMTM
 40
0.0
  9
$DIMTXT
 40
0.18
  9
$DIMCEN
 40
0.09
  9
$DIMTSZ
 40
0.0
  9
$DIMTOL
 70
     0
  9
$DIMLIM
 70
     0
  9
$DIMTIH
 70
     1
  9
$DIMTOH
 70
     1
  9
$DIMSE1
 70
     0
  9
$DIMSE2
 70
     0
  9
$DIMTAD
 70
     0
  9
$DIMZIN
 70
     0
  9
$DIMBLK
  1

  9
$DIMASO
 70
     1
  9
$DIMSHO
 70
     1
  9
$DIMPOST
  1

  9
$DIMAPOST
  1

  9
$DIMALT
 70
     0
  9
$DIMALTD
 70
     2
  9
$DIMALTF
 40
25.4
  9
$DIMLFAC
 40
1.0
  9
$DIMTOFL
 70
     0
  9
$DIMTVP
 40
0.0
  9
$DIMTIX
 70
     0
  9
$DIMSOXD
 70
     0
  9
$DIMSAH
 70
     0
  9
$DIMBLK1
  1

  9
$DIMBLK2
  1

  9
$DIMSTYLE
  2
STANDARD
  9
$DIMCLRD
 70
     0
  9
$DIMCLRE
 70
     0
  9
$DIMCLRT
 70
     0
  9
$DIMTFAC
 40
1.0
  9
$DIMGAP
 40
0.09
  9
$DIMJUST
 70
     0
  9
$DIMSD1
 70
     0
  9
$DIMSD2
 70
     0
  9
$DIMTOLJ
 70
     1
  9
$DIMTZIN
 70
     0
  9
$DIMALTZ
 70
     0
  9
$DIMALTTZ
 70
     0
  9
$DIMFIT
 70
     3
  9
$DIMUPT
 70
     0
  9
$DIMUNIT
 70
     2
  9
$DIMDEC
 70
     4
  9
$DIMTDEC
 70
     4
  9
$DIMALTU
 70
     2
  9
$DIMALTTD
 70
     2
  9
$DIMTXSTY
  7
STANDARD
  9
$DIMAUNIT
 70
     0
  9
$LUNITS
 70
     2
  9
$LUPREC
 70
     4
  9
$SKETCHINC
 40
0.1
  9
$FILLETRAD
 40
0.5
  9
$AUNITS
 70
     0
  9
$AUPREC
 70
     0
  9
$MENU
  1
.
  9
$ELEVATION
 40
0.0
  9
$PELEVATION
 40
0.0
  9
$THICKNESS
 40
0.0
  9
$LIMCHECK
 70
     0
  9
$CHAMFERA
 40
0.5
  9
$CHAMFERB
 40
0.5
  9
$CHAMFERC
 40
1.0
  9
$CHAMFERD
 40
0.0
  9
$SKPOLY
 70
     0
  9
$TDCREATE
 40
2456240.622861748
  9
$TDUPDATE
 40
2456240.622861759
  9
$TDINDWG
 40
0.0000000116
  9
$TDUSRTIMER
 40
0.0000000116
  9
$USRTIMER
 70
     1
  9
$ANGBASE
 50
0.0
  9
$ANGDIR
 70
     0
  9
$PDMODE
 70
     0
  9
$PDSIZE
 40
0.0
  9
$PLINEWID
 40
0.0
  9
$COORDS
 70
     1
  9
$SPLFRAME
 70
     0
  9
$SPLINETYPE
 70
     6
  9
$SPLINESEGS
 70
     8
  9
$ATTDIA
 70
     0
  9
$ATTREQ
 70
     1
  9
$HANDLING
 70
     1
  9
$HANDSEED
  5
119
  9
$SURFTAB1
 70
     6
  9
$SURFTAB2
 70
     6
  9
$SURFTYPE
 70
     6
  9
$SURFU
 70
     6
  9
$SURFV
 70
     6
  9
$UCSNAME
  2

  9
$UCSORG
 10
0.0
 20
0.0
 30
0.0
  9
$UCSXDIR
 10
1.0
 20
0.0
 30
0.0
  9
$UCSYDIR
 10
0.0
 20
1.0
 30
0.0
  9
$PUCSNAME
  2

  9
$PUCSORG
 10
0.0
 20
0.0
 30
0.0
  9
$PUCSXDIR
 10
1.0
 20
0.0
 30
0.0
  9
$PUCSYDIR
 10
0.0
 20
1.0
 30
0.0
  9
$USERI1
 70
     0
  9
$USERI2
 70
     0
  9
$USERI3
 70
     0
  9
$USERI4
 70
     0
  9
$USERI5
 70
     0
  9
$USERR1
 40
0.0
  9
$USERR2
 40
0.0
  9
$USERR3
 40
0.0
  9
$USERR4
 40
0.0
  9
$USERR5
 40
0.0
  9
$WORLDVIEW
 70
     1
  9
$SHADEDGE
 70
     3
  9
$SHADEDIF
 70
    70
  9
$TILEMODE
 70
     1
  9
$MAXACTVP
 70
    64
  9
$PINSBASE
 10
0.0
 20
0.0
 30
0.0
  9
$PLIMCHECK
 70
     0
  9
$PEXTMIN
 10
1.000000000000000E+20
 20
1.000000000000000E+20
 30
1.000000000000000E+20
  9
$PEXTMAX
 10
-1.000000000000000E+20
 20
-1.000000000000000E+20
 30
-1.000000000000000E+20
  9
$PLIMMIN
 10
0.0
 20
0.0
  9
$PLIMMAX
 10
12.0
 20
9.0
  9
$UNITMODE
 70
     0
  9
$VISRETAIN
 70
     1
  9
$PLINEGEN
 70
     0
  9
$PSLTSCALE
 70
     1
  9
$TREEDEPTH
 70
  3020
  9
$PICKSTYLE
 70
     1
  9
$CMLSTYLE
  2
STANDARD
  9
$CMLJUST
 70
     0
  9
$CMLSCALE
 40
1.0
  9
$PROXYGRAPHICS
 70
     1
  9
$MEASUREMENT
 70
     0
  0
ENDSEC
  0
SECTION
  2
CLASSES
  0
CLASS
  1
ACDBDICTIONARYWDFLT
  2
AcDbDictionaryWithDefault
  3
ObjectDBX Classes
 90
        0
280
     0
281
     0
  0
CLASS
  1
VISUALSTYLE
  2
AcDbVisualStyle
  3
ObjectDBX Classes
 90
     4095
280
     0
281
     0
  0
CLASS
  1
MATERIAL
  2
AcDbMaterial
  3
ObjectDBX Classes
 90
     1153
280
     0
281
     0
  0
CLASS
  1
DICTIONARYVAR
  2
AcDbDictionaryVar
  3
ObjectDBX Classes
 90
        0
280
     0
281
     0
  0
CLASS
  1
XRECORD
  2
AcDbXrecord
  3
AutoCAD 2000
 90
        0
280
     0
281
     0
  0
CLASS
  1
LWPOLYLINE
  2
AcDbPolyline
  3
AutoCAD 2000
 90
        0
280
     0
281
     1
  0
CLASS
  1
HATCH
  2
AcDbHatch
  3
AutoCAD 2000
 90
        0
280
     0
281
     1
  0
CLASS
  1
ACDBPLACEHOLDER
  2
AcDbPlaceHolder
  3
ObjectDBX Classes
 90
        0
280
     0
281
     0
  0
CLASS
  1
LAYOUT
  2
AcDbLayout
  3
ObjectDBX Classes
 90
        0
280
     0
281
     0
  0
ENDSEC
  0
SECTION
  2
TABLES
  0
TABLE
  2
VPORT
  5
8
330
0
100
AcDbSymbolTable
 70
     1
  0
VPORT
  5
29
330
8
100
AcDbSymbolTableRecord
100
AcDbViewportTableRecord
  2
*ACTIVE
 70
     0
 10
0.0
 20
0.0
 11
1.0
 21
1.0
 12
10.42990654205607
 22
4.5
 13
0.0
 23
0.0
 14
0.5
 24
0.5
 15
0.5
 25
0.5
 16
0.0
 26
0.0
 36
1.0
 17
0.0
 27
0.0
 37
0.0
 40
9.0
 41
1.972972972850329
 42
50.0
 43
0.0
 44
0.0
 50
0.0
 51
0.0
 71
     0
 72
   100
 73
     1
 74
     3
 75
     0
 76
     0
 77
     0
 78
     0
  0
ENDTAB
  0
TABLE
  2
LTYPE
  5
5
330
0
100
AcDbSymbolTable
 70
     3
  0
LTYPE
  5
14
330
5
100
AcDbSymbolTableRecord
100
AcDbLinetypeTableRecord
  2
BYBLOCK
 70
     0
  3

 72
    65
 73
     0
 40
0.0
  0
LTYPE
  5
15
330
5
100
AcDbSymbolTableRecord
100
AcDbLinetypeTableRecord
  2
BYLAYER
 70
     0
  3

 72
    65
 73
     0
 40
0.0
  0
LTYPE
  5
16
330
5
100
AcDbSymbolTableRecord
100
AcDbLinetypeTableRecord
  2
CONTINUOUS
 70
     0
  3
Solid line
 72
    65
 73
     0
 40
0.0
  0
LTYPE
  5
73
330
5
100
AcDbSymbolTableRecord
100
AcDbLinetypeTableRecord
  2
NEW_LINE1
 70
     0
  3

 72
    65
 73
     4
 40
1.2
 49
0.5
 74
     4
 75
     0
340
0
 46
1.0
 50
0.0
 44
0.0
 45
0.0
 49
-0.3
 74
     4
 75
     0
340
0
 46
1.0
 50
0.0
 44
0.0
 45
0.0
 49
0.1
 74
     4
 75
     0
340
0
 46
1.0
 50
0.0
 44
0.0
 45
0.0
 49
-0.3
 74
     4
 75
     0
340
0
 46
1.0
 50
0.0
 44
0.0
 45
0.0
  0
LTYPE
  5
75
330
5
100
AcDbSymbolTableRecord
100
AcDbLinetypeTableRecord
  2
NEW_LINE2
 70
     0
  3

 72
    65
 73
     4
 40
1.2
 49
0.5
 74
     4
 75
     0
340
0
 46
1.0
 50
0.0
 44
0.0
 45
0.0
 49
-0.3
 74
     4
 75
     0
340
0
 46
1.0
 50
0.0
 44
0.0
 45
0.0
 49
0.1
 74
     4
 75
     0
340
0
 46
1.0
 50
0.0
 44
0.0
 45
0.0
 49
-0.3
 74
     4
 75
     0
340
0
 46
1.0
 50
0.0
 44
0.0
 45
0.0
  0
ENDTAB
  0
TABLE
  2
LAYER
  5
2
330
0
100
AcDbSymbolTable
 70
     2
  0
LAYER
  5
10
330
2
100
AcDbSymbolTableRecord
100
AcDbLayerTableRecord
  2
0
 70
     0
 62
     7
  6
CONTINUOUS
  0
LAYER
  5
40
330
2
100
AcDbSymbolTableRecord
100
AcDbLayerTableRecord
  2
VRSTVA_1
 70
     0
 62
     7
  6
CONTINUOUS
  0
ENDTAB
  0
TABLE
  2
STYLE
  5
3
330
0
100
AcDbSymbolTable
 70
     1
  0
STYLE
  5
11
330
3
100
AcDbSymbolTableRecord
100
AcDbTextStyleTableRecord
  2
STANDARD
 70
     0
 40
0.0
 41
1.0
 50
0.0
 71
     0
 42
0.2
  3
txt
  4

  0
ENDTAB
  0
TABLE
  2
VIEW
  5
6
330
0
100
AcDbSymbolTable
 70
     0
  0
ENDTAB
  0
TABLE
  2
UCS
  5
7
330
0
100
AcDbSymbolTable
 70
     0
  0
ENDTAB
  0
TABLE
  2
APPID
  5
9
330
0
100
AcDbSymbolTable
 70
     2
  0
APPID
  5
12
330
9
100
AcDbSymbolTableRecord
100
AcDbRegAppTableRecord
  2
ACAD
 70
     0
  0
APPID
  5
3F
330
9
100
AcDbSymbolTableRecord
100
AcDbRegAppTableRecord
  2
ODA
 70
     0
  0
ENDTAB
  0
TABLE
  2
DIMSTYLE
  5
A
330
0
100
AcDbSymbolTable
 70
     1
  0
DIMSTYLE
105
27
330
A
100
AcDbSymbolTableRecord
100
AcDbDimStyleTableRecord
  2
STANDARD
 70
     0
  3

  4

  5

  6

  7

 40
1.0
 41
0.18
 42
0.0625
 43
0.38
 44
0.18
 45
0.0
 46
0.0
 47
0.0
 48
0.0
140
0.18
141
0.09
142
0.0
143
25.4
144
1.0
145
0.0
146
1.0
147
0.09
 71
     0
 72
     0
 73
     1
 74
     1
 75
     0
 76
     0
 77
     0
 78
     0
170
     0
171
     2
172
     0
173
     0
174
     0
175
     0
176
     0
177
     0
178
     0
270
     2
271
     4
272
     4
273
     2
274
     2
340
11
275
     0
280
     0
281
     0
282
     0
283
     1
284
     0
285
     0
286
     0
287
     3
288
     0
  0
ENDTAB
  0
TABLE
  2
BLOCK_RECORD
  5
1
330
0
100
AcDbSymbolTable
 70
     1
  0
BLOCK_RECORD
  5
1F
330
1
100
AcDbSymbolTableRecord
100
AcDbBlockTableRecord
  2
*MODEL_SPACE
  0
BLOCK_RECORD
  5
1B
330
1
100
AcDbSymbolTableRecord
100
AcDbBlockTableRecord
  2
*PAPER_SPACE
  0
ENDTAB
  0
ENDSEC
  0
SECTION
  2
BLOCKS
  0
BLOCK
  5
20
330
1F
100
AcDbEntity
  8
0
100
AcDbBlockBegin
  2
*MODEL_SPACE
 70
     0
 10
0.0
 20
0.0
 30
0.0
  3
*MODEL_SPACE
  1

  0
ENDBLK
  5
21
330
1F
100
AcDbEntity
  8
0
100
AcDbBlockEnd
  0
BLOCK
  5
1C
330
1B
100
AcDbEntity
 67
     1
  8
0
100
AcDbBlockBegin
  2
*PAPER_SPACE
 70
     0
 10
0.0
 20
0.0
 30
0.0
  3
*PAPER_SPACE
  1

  0
ENDBLK
  5
1D
330
1B
100
AcDbEntity
 67
     1
  8
0
100
AcDbBlockEnd
  0
ENDSEC
  0
SECTION
  2
ENTITIES
  0
SPLINE
  5
41
330
1F
100
AcDbEntity
  8
VRSTVA_1
100
AcDbSpline
210
0.0
220
0.0
230
1.0
 70
     8
 71
     3
 72
    28
 73
    24
 74
     0
 42
0.0000000001
 43
0.0000000001
 40
0.0
 40
0.0
 40
0.0
 40
0.0
 40
0.1428571428571428
 40
0.1428571428571428
 40
0.1428571428571428
 40
0.1428571428571428
 40
0.2857142857142857
 40
0.2857142857142857
 40
0.2857142857142857
 40
0.2857142857142857
 40
0.4285714285714285
 40
0.4285714285714285
 40
0.4285714285714285
 40
0.4285714285714285
 40
0.5714285714285714
 40
0.5714285714285714
 40
0.5714285714285714
 40
0.5714285714285714
 40
0.7142857142857143
 40
0.7142857142857143
 40
0.7142857142857143
 40
0.7142857142857143
 40
1.0
 40
1.0
 40
1.0
 40
1.0
 10
22.5722
 20
-4.4564
 30
0.0
 10
22.5722
 20
-4.4564
 30
0.0
 10
22.543
 20
-4.6152
 30
0.0
 10
22.543
 20
-4.6152
 30
0.0
 10
22.543
 20
-4.6152
 30
0.0
 10
22.543
 20
-4.6152
 30
0.0
 10
22.4571
 20
-4.766
 30
0.0
 10
22.4571
 20
-4.766
 30
0.0
 10
22.4571
 20
-4.766
 30
0.0
 10
22.4571
 20
-4.766
 30
0.0
 10
22.3203
 20
-4.8976
 30
0.0
 10
22.3203
 20
-4.8976
 30
0.0
 10
22.3203
 20
-4.8976
 30
0.0
 10
22.3203
 20
-4.8976
 30
0.0
 10
22.1419
 20
-4.9999
 30
0.0
 10
22.1419
 20
-4.9999
 30
0.0
 10
22.1419
 20
-4.9999
 30
0.0
 10
22.1419
 20
-4.9999
 30
0.0
 10
21.9344
 20
-5.0647
 30
0.0
 10
21.9344
 20
-5.0647
 30
0.0
 10
21.9344
 20
-5.0647
 30
0.0
 10
21.9344
 20
-5.0647
 30
0.0
 10
21.7119
 20
-5.0869
 30
0.0
 10
21.7119
 20
-5.0869
 30
0.0
  0
SPLINE
  5
42
330
1F
100
AcDbEntity
  8
VRSTVA_1
100
AcDbSpline
210
0.0
220
0.0
230
1.0
 70
     8
 71
     3
 72
    28
 73
    24
 74
     0
 42
0.0000000001
 43
0.0000000001
 40
0.0
 40
0.0
 40
0.0
 40
0.0
 40
0.1428571428571428
 40
0.1428571428571428
 40
0.1428571428571428
 40
0.1428571428571428
 40
0.2857142857142857
 40
0.2857142857142857
 40
0.2857142857142857
 40
0.2857142857142857
 40
0.4285714285714285
 40
0.4285714285714285
 40
0.4285714285714285
 40
0.4285714285714285
 40
0.5714285714285714
 40
0.5714285714285714
 40
0.5714285714285714
 40
0.5714285714285714
 40
0.7142857142857143
 40
0.7142857142857143
 40
0.7142857142857143
 40
0.7142857142857143
 40
1.0
 40
1.0
 40
1.0
 40
1.0
 10
22.5722
 20
-4.6085
 30
0.0
 10
22.5722
 20
-4.6085
 30
0.0
 10
22.5433
 20
-4.7664
 30
0.0
 10
22.5433
 20
-4.7664
 30
0.0
 10
22.5433
 20
-4.7664
 30
0.0
 10
22.5433
 20
-4.7664
 30
0.0
 10
22.4561
 20
-4.9194
 30
0.0
 10
22.4561
 20
-4.9194
 30
0.0
 10
22.4561
 20
-4.9194
 30
0.0
 10
22.4561
 20
-4.9194
 30
0.0
 10
22.3199
 20
-5.0501
 30
0.0
 10
22.3199
 20
-5.0501
 30
0.0
 10
22.3199
 20
-5.0501
 30
0.0
 10
22.3199
 20
-5.0501
 30
0.0
 10
22.1432
 20
-5.1517
 30
0.0
 10
22.1432
 20
-5.1517
 30
0.0
 10
22.1432
 20
-5.1517
 30
0.0
 10
22.1432
 20
-5.1517
 30
0.0
 10
21.933
 20
-5.2174
 30
0.0
 10
21.933
 20
-5.2174
 30
0.0
 10
21.933
 20
-5.2174
 30
0.0
 10
21.933
 20
-5.2174
 30
0.0
 10
21.7119
 20
-5.2393
 30
0.0
 10
21.7119
 20
-5.2393
 30
0.0
  0
SPLINE
  5
43
330
1F
100
AcDbEntity
  8
VRSTVA_1
100
AcDbSpline
210
0.0
220
0.0
230
1.0
 70
     8
 71
     3
 72
    28
 73
    24
 74
     0
 42
0.0000000001
 43
0.0000000001
 40
0.0
 40
0.0
 40
0.0
 40
0.0
 40
0.1428571428571428
 40
0.1428571428571428
 40
0.1428571428571428
 40
0.1428571428571428
 40
0.2857142857142857
 40
0.2857142857142857
 40
0.2857142857142857
 40
0.2857142857142857
 40
0.4285714285714285
 40
0.4285714285714285
 40
0.4285714285714285
 40
0.4285714285714285
 40
0.5714285714285714
 40
0.5714285714285714
 40
0.5714285714285714
 40
0.5714285714285714
 40
0.7142857142857143
 40
0.7142857142857143
 40
0.7142857142857143
 40
0.7142857142857143
 40
1.0
 40
1.0
 40
1.0
 40
1.0
 10
22.5722
 20
-21.1854
 30
0.0
 10
22.5722
 20
-21.1854
 30
0.0
 10
22.543
 20
-21.0267
 30
0.0
 10
22.543
 20
-21.0267
 30
0.0
 10
22.543
 20
-21.0267
 30
0.0
 10
22.543
 20
-21.0267
 30
0.0
 10
22.4571
 20
-20.8759
 30
0.0
 10
22.4571
 20
-20.8759
 30
0.0
 10
22.4571
 20
-20.8759
 30
0.0
 10
22.4571
 20
-20.8759
 30
0.0
 10
22.3203
 20
-20.7442
 30
0.0
 10
22.3203
 20
-20.7442
 30
0.0
 10
22.3203
 20
-20.7442
 30
0.0
 10
22.3203
 20
-20.7442
 30
0.0
 10
22.1419
 20
-20.6419
 30
0.0
 10
22.1419
 20
-20.6419
 30
0.0
 10
22.1419
 20
-20.6419
 30
0.0
 10
22.1419
 20
-20.6419
 30
0.0
 10
21.9344
 20
-20.5771
 30
0.0
 10
21.9344
 20
-20.5771
 30
0.0
 10
21.9344
 20
-20.5771
 30
0.0
 10
21.9344
 20
-20.5771
 30
0.0
 10
21.7119
 20
-20.5549
 30
0.0
 10
21.7119
 20
-20.5549
 30
0.0
  0
SPLINE
  5
44
330
1F
100
AcDbEntity
  8
VRSTVA_1
100
AcDbSpline
210
0.0
220
0.0
230
1.0
 70
     8
 71
     3
 72
    48
 73
    44
 74
     0
 42
0.0000000001
 43
0.0000000001
 40
0.0
 40
0.0
 40
0.0
 40
0.0
 40
0.0833333333333333
 40
0.0833333333333333
 40
0.0833333333333333
 40
0.0833333333333333
 40
0.1666666666666667
 40
0.1666666666666667
 40
0.1666666666666667
 40
0.1666666666666667
 40
0.25
 40
0.25
 40
0.25
 40
0.25
 40
0.3333333333333333
 40
0.3333333333333333
 40
0.3333333333333333
 40
0.3333333333333333
 40
0.4166666666666667
 40
0.4166666666666667
 40
0.4166666666666667
 40
0.4166666666666667
 40
0.5
 40
0.5
 40
0.5
 40
0.5
 40
0.5833333333333334
 40
0.5833333333333334
 40
0.5833333333333334
 40
0.5833333333333334
 40
0.6666666666666666
 40
0.6666666666666666
 40
0.6666666666666666
 40
0.6666666666666666
 40
0.75
 40
0.75
 40
0.75
 40
0.75
 40
0.8333333333333334
 40
0.8333333333333334
 40
0.8333333333333334
 40
0.8333333333333334
 40
1.0
 40
1.0
 40
1.0
 40
1.0
 10
12.59
 20
-22.2842
 30
0.0
 10
12.59
 20
-22.2842
 30
0.0
 10
12.6042
 20
-22.2738
 30
0.0
 10
12.6042
 20
-22.2738
 30
0.0
 10
12.6042
 20
-22.2738
 30
0.0
 10
12.6042
 20
-22.2738
 30
0.0
 10
12.6476
 20
-22.239
 30
0.0
 10
12.6476
 20
-22.239
 30
0.0
 10
12.6476
 20
-22.239
 30
0.0
 10
12.6476
 20
-22.239
 30
0.0
 10
12.7167
 20
-22.1729
 30
0.0
 10
12.7167
 20
-22.1729
 30
0.0
 10
12.7167
 20
-22.1729
 30
0.0
 10
12.7167
 20
-22.1729
 30
0.0
 10
12.8012
 20
-22.0671
 30
0.0
 10
12.8012
 20
-22.0671
 30
0.0
 10
12.8012
 20
-22.0671
 30
0.0
 10
12.8012
 20
-22.0671
 30
0.0
 10
12.8825
 20
-21.919
 30
0.0
 10
12.8825
 20
-21.919
 30
0.0
 10
12.8825
 20
-21.919
 30
0.0
 10
12.8825
 20
-21.919
 30
0.0
 10
12.9423
 20
-21.7364
 30
0.0
 10
12.9423
 20
-21.7364
 30
0.0
 10
12.9423
 20
-21.7364
 30
0.0
 10
12.9423
 20
-21.7364
 30
0.0
 10
12.9711
 20
-21.5326
 30
0.0
 10
12.9711
 20
-21.5326
 30
0.0
 10
12.9711
 20
-21.5326
 30
0.0
 10
12.9711
 20
-21.5326
 30
0.0
 10
12.9682
 20
-21.3204
 30
0.0
 10
12.9682
 20
-21.3204
 30
0.0
 10
12.9682
 20
-21.3204
 30
0.0
 10
12.9682
 20
-21.3204
 30
0.0
 10
12.9369
 20
-21.1084
 30
0.0
 10
12.9369
 20
-21.1084
 30
0.0
 10
12.9369
 20
-21.1084
 30
0.0
 10
12.9369
 20
-21.1084
 30
0.0
 10
12.8818
 20
-20.9012
 30
0.0
 10
12.8818
 20
-20.9012
 30
0.0
 10
12.8818
 20
-20.9012
 30
0.0
 10
12.8818
 20
-20.9012
 30
0.0
 10
12.8064
 20
-20.6998
 30
0.0
 10
12.8064
 20
-20.6998
 30
0.0
  0
SPLINE
  5
45
330
1F
100
AcDbEntity
  8
VRSTVA_1
100
AcDbSpline
210
0.0
220
0.0
230
1.0
 70
     8
 71
     3
 72
    12
 73
     8
 74
     0
 42
0.0000000001
 43
0.0000000001
 40
0.0
 40
0.0
 40
0.0
 40
0.0
 40
0.3333333333333333
 40
0.3333333333333333
 40
0.3333333333333333
 40
0.3333333333333333
 40
1.0
 40
1.0
 40
1.0
 40
1.0
 10
12.3971
 20
-22.3299
 30
0.0
 10
12.3971
 20
-22.3299
 30
0.0
 10
12.4064
 20
-22.3215
 30
0.0
 10
12.4064
 20
-22.3215
 30
0.0
 10
12.4064
 20
-22.3215
 30
0.0
 10
12.4064
 20
-22.3215
 30
0.0
 10
12.4349
 20
-22.2935
 30
0.0
 10
12.4349
 20
-22.2935
 30
0.0
  0
SPLINE
  5
46
330
1F
100
AcDbEntity
  8
VRSTVA_1
100
AcDbSpline
210
0.0
220
0.0
230
1.0
 70
     8
 71
     3
 72
    40
 73
    36
 74
     0
 42
0.0000000001
 43
0.0000000001
 40
0.0
 40
0.0
 40
0.0
 40
0.0
 40
0.1
 40
0.1
 40
0.1
 40
0.1
 40
0.2
 40
0.2
 40
0.2
 40
0.2
 40
0.3
 40
0.3
 40
0.3
 40
0.3
 40
0.4
 40
0.4
 40
0.4
 40
0.4
 40
0.5
 40
0.5
 40
0.5
 40
0.5
 40
0.6
 40
0.6
 40
0.6
 40
0.6
 40
0.7
 40
0.7
 40
0.7
 40
0.7
 40
0.8
 40
0.8
 40
0.8
 40
0.8
 40
1.0
 40
1.0
 40
1.0
 40
1.0
 10
12.4349
 20
-22.2935
 30
0.0
 10
12.4349
 20
-22.2935
 30
0.0
 10
12.4789
 20
-22.2403
 30
0.0
 10
12.4789
 20
-22.2403
 30
0.0
 10
12.4789
 20
-22.2403
 30
0.0
 10
12.4789
 20
-22.2403
 30
0.0
 10
12.53
 20
-22.1551
 30
0.0
 10
12.53
 20
-22.1551
 30
0.0
 10
12.53
 20
-22.1551
 30
0.0
 10
12.53
 20
-22.1551
 30
0.0
 10
12.5744
 20
-22.0362
 30
0.0
 10
12.5744
 20
-22.0362
 30
0.0
 10
12.5744
 20
-22.0362
 30
0.0
 10
12.5744
 20
-22.0362
 30
0.0
 10
12.5995
 20
-21.8895
 30
0.0
 10
12.5995
 20
-21.8895
 30
0.0
 10
12.5995
 20
-21.8895
 30
0.0
 10
12.5995
 20
-21.8895
 30
0.0
 10
12.5997
 20
-21.7259
 30
0.0
 10
12.5997
 20
-21.7259
 30
0.0
 10
12.5997
 20
-21.7259
 30
0.0
 10
12.5997
 20
-21.7259
 30
0.0
 10
12.5755
 20
-21.5557
 30
0.0
 10
12.5755
 20
-21.5557
 30
0.0
 10
12.5755
 20
-21.5557
 30
0.0
 10
12.5755
 20
-21.5557
 30
0.0
 10
12.5304
 20
-21.3857
 30
0.0
 10
12.5304
 20
-21.3857
 30
0.0
 10
12.5304
 20
-21.3857
 30
0.0
 10
12.5304
 20
-21.3857
 30
0.0
 10
12.4682
 20
-21.2194
 30
0.0
 10
12.4682
 20
-21.2194
 30
0.0
 10
12.4682
 20
-21.2194
 30
0.0
 10
12.4682
 20
-21.2194
 30
0.0
 10
12.3913
 20
-21.058
 30
0.0
 10
12.3913
 20
-21.058
 30
0.0
  0
SPLINE
  5
47
330
1F
100
AcDbEntity
  8
VRSTVA_1
100
AcDbSpline
210
0.0
220
0.0
230
1.0
 70
     8
 71
     3
 72
    20
 73
    16
 74
     0
 42
0.0000000001
 43
0.0000000001
 40
0.0
 40
0.0
 40
0.0
 40
0.0
 40
0.2
 40
0.2
 40
0.2
 40
0.2
 40
0.4
 40
0.4
 40
0.4
 40
0.4
 40
0.6
 40
0.6
 40
0.6
 40
0.6
 40
1.0
 40
1.0
 40
1.0
 40
1.0
 10
12.3913
 20
-21.058
 30
0.0
 10
12.3913
 20
-21.058
 30
0.0
 10
12.4387
 20
-20.9317
 30
0.0
 10
12.4387
 20
-20.9317
 30
0.0
 10
12.4387
 20
-20.9317
 30
0.0
 10
12.4387
 20
-20.9317
 30
0.0
 10
12.5322
 20
-20.8213
 30
0.0
 10
12.5322
 20
-20.8213
 30
0.0
 10
12.5322
 20
-20.8213
 30
0.0
 10
12.5322
 20
-20.8213
 30
0.0
 10
12.6601
 20
-20.7407
 30
0.0
 10
12.6601
 20
-20.7407
 30
0.0
 10
12.6601
 20
-20.7407
 30
0.0
 10
12.6601
 20
-20.7407
 30
0.0
 10
12.8064
 20
-20.6998
 30
0.0
 10
12.8064
 20
-20.6998
 30
0.0
  0
SPLINE
  5
48
330
1F
100
AcDbEntity
  8
VRSTVA_1
100
AcDbSpline
210
0.0
220
0.0
230
1.0
 70
     8
 71
     3
 72
    28
 73
    24
 74
     0
 42
0.0000000001
 43
0.0000000001
 40
0.0
 40
0.0
 40
0.0
 40
0.0
 40
0.1428571428571428
 40
0.1428571428571428
 40
0.1428571428571428
 40
0.1428571428571428
 40
0.2857142857142857
 40
0.2857142857142857
 40
0.2857142857142857
 40
0.2857142857142857
 40
0.4285714285714285
 40
0.4285714285714285
 40
0.4285714285714285
 40
0.4285714285714285
 40
0.5714285714285714
 40
0.5714285714285714
 40
0.5714285714285714
 40
0.5714285714285714
 40
0.7142857142857143
 40
0.7142857142857143
 40
0.7142857142857143
 40
0.7142857142857143
 40
1.0
 40
1.0
 40
1.0
 40
1.0
 10
21.7119
 20
-24.4031
 30
0.0
 10
21.7119
 20
-24.4031
 30
0.0
 10
21.9334
 20
-24.4052
 30
0.0
 10
21.9334
 20
-24.4052
 30
0.0
 10
21.9334
 20
-24.4052
 30
0.0
 10
21.9334
 20
-24.4052
 30
0.0
 10
22.1432
 20
-24.4111
 30
0.0
 10
22.1432
 20
-24.4111
 30
0.0
 10
22.1432
 20
-24.4111
 30
0.0
 10
22.1432
 20
-24.4111
 30
0.0
 10
22.3198
 20
-24.4191
 30
0.0
 10
22.3198
 20
-24.4191
 30
0.0
 10
22.3198
 20
-24.4191
 30
0.0
 10
22.3198
 20
-24.4191
 30
0.0
 10
22.4562
 20
-24.427
 30
0.0
 10
22.4562
 20
-24.427
 30
0.0
 10
22.4562
 20
-24.427
 30
0.0
 10
22.4562
 20
-24.427
 30
0.0
 10
22.5433
 20
-24.4329
 30
0.0
 10
22.5433
 20
-24.4329
 30
0.0
 10
22.5433
 20
-24.4329
 30
0.0
 10
22.5433
 20
-24.4329
 30
0.0
 10
22.5722
 20
-24.435
 30
0.0
 10
22.5722
 20
-24.435
 30
0.0
  0
SPLINE
  5
49
330
1F
100
AcDbEntity
  8
VRSTVA_1
100
AcDbSpline
210
0.0
220
0.0
230
1.0
 70
     8
 71
     3
 72
    28
 73
    24
 74
     0
 42
0.0000000001
 43
0.0000000001
 40
0.0
 40
0.0
 40
0.0
 40
0.0
 40
0.1428571428571428
 40
0.1428571428571428
 40
0.1428571428571428
 40
0.1428571428571428
 40
0.2857142857142857
 40
0.2857142857142857
 40
0.2857142857142857
 40
0.2857142857142857
 40
0.4285714285714285
 40
0.4285714285714285
 40
0.4285714285714285
 40
0.4285714285714285
 40
0.5714285714285714
 40
0.5714285714285714
 40
0.5714285714285714
 40
0.5714285714285714
 40
0.7142857142857143
 40
0.7142857142857143
 40
0.7142857142857143
 40
0.7142857142857143
 40
1.0
 40
1.0
 40
1.0
 40
1.0
 10
21.7119
 20
-24.6188
 30
0.0
 10
21.7119
 20
-24.6188
 30
0.0
 10
21.9344
 20
-24.6209
 30
0.0
 10
21.9344
 20
-24.6209
 30
0.0
 10
21.9344
 20
-24.6209
 30
0.0
 10
21.9344
 20
-24.6209
 30
0.0
 10
22.1419
 20
-24.6266
 30
0.0
 10
22.1419
 20
-24.6266
 30
0.0
 10
22.1419
 20
-24.6266
 30
0.0
 10
22.1419
 20
-24.6266
 30
0.0
 10
22.3202
 20
-24.6344
 30
0.0
 10
22.3202
 20
-24.6344
 30
0.0
 10
22.3202
 20
-24.6344
 30
0.0
 10
22.3202
 20
-24.6344
 30
0.0
 10
22.4571
 20
-24.6423
 30
0.0
 10
22.4571
 20
-24.6423
 30
0.0
 10
22.4571
 20
-24.6423
 30
0.0
 10
22.4571
 20
-24.6423
 30
0.0
 10
22.543
 20
-24.648
 30
0.0
 10
22.543
 20
-24.648
 30
0.0
 10
22.543
 20
-24.648
 30
0.0
 10
22.543
 20
-24.648
 30
0.0
 10
22.5722
 20
-24.6501
 30
0.0
 10
22.5722
 20
-24.6501
 30
0.0
  0
SPLINE
  5
4A
330
1F
100
AcDbEntity
  8
VRSTVA_1
100
AcDbSpline
210
0.0
220
0.0
230
1.0
 70
     8
 71
     3
 72
    28
 73
    24
 74
     0
 42
0.0000000001
 43
0.0000000001
 40
0.0
 40
0.0
 40
0.0
 40
0.0
 40
0.1428571428571428
 40
0.1428571428571428
 40
0.1428571428571428
 40
0.1428571428571428
 40
0.2857142857142857
 40
0.2857142857142857
 40
0.2857142857142857
 40
0.2857142857142857
 40
0.4285714285714285
 40
0.4285714285714285
 40
0.4285714285714285
 40
0.4285714285714285
 40
0.5714285714285714
 40
0.5714285714285714
 40
0.5714285714285714
 40
0.5714285714285714
 40
0.7142857142857143
 40
0.7142857142857143
 40
0.7142857142857143
 40
0.7142857142857143
 40
1.0
 40
1.0
 40
1.0
 40
1.0
 10
21.7119
 20
-21.7716
 30
0.0
 10
21.7119
 20
-21.7716
 30
0.0
 10
21.9344
 20
-21.7524
 30
0.0
 10
21.9344
 20
-21.7524
 30
0.0
 10
21.9344
 20
-21.7524
 30
0.0
 10
21.9344
 20
-21.7524
 30
0.0
 10
22.1419
 20
-21.6957
 30
0.0
 10
22.1419
 20
-21.6957
 30
0.0
 10
22.1419
 20
-21.6957
 30
0.0
 10
22.1419
 20
-21.6957
 30
0.0
 10
22.3203
 20
-21.6045
 30
0.0
 10
22.3203
 20
-21.6045
 30
0.0
 10
22.3203
 20
-21.6045
 30
0.0
 10
22.3203
 20
-21.6045
 30
0.0
 10
22.4571
 20
-21.4839
 30
0.0
 10
22.4571
 20
-21.4839
 30
0.0
 10
22.4571
 20
-21.4839
 30
0.0
 10
22.4571
 20
-21.4839
 30
0.0
 10
22.543
 20
-21.3412
 30
0.0
 10
22.543
 20
-21.3412
 30
0.0
 10
22.543
 20
-21.3412
 30
0.0
 10
22.543
 20
-21.3412
 30
0.0
 10
22.5722
 20
-21.1854
 30
0.0
 10
22.5722
 20
-21.1854
 30
0.0
  0
SPLINE
  5
4B
330
1F
100
AcDbEntity
  8
VRSTVA_1
100
AcDbSpline
210
0.0
220
0.0
230
1.0
 70
     8
 71
     3
 72
    12
 73
     8
 74
     0
 42
0.0000000001
 43
0.0000000001
 40
0.0
 40
0.0
 40
0.0
 40
0.0
 40
0.3333333333333333
 40
0.3333333333333333
 40
0.3333333333333333
 40
0.3333333333333333
 40
1.0
 40
1.0
 40
1.0
 40
1.0
 10
12.59
 20
-22.2842
 30
0.0
 10
12.59
 20
-22.2842
 30
0.0
 10
12.4731
 20
-22.3004
 30
0.0
 10
12.4731
 20
-22.3004
 30
0.0
 10
12.4731
 20
-22.3004
 30
0.0
 10
12.4731
 20
-22.3004
 30
0.0
 10
12.3971
 20
-22.3299
 30
0.0
 10
12.3971
 20
-22.3299
 30
0.0
  0
SPLINE
  5
4C
330
1F
100
AcDbEntity
  8
VRSTVA_1
100
AcDbSpline
210
0.0
220
0.0
230
1.0
 70
     8
 71
     3
 72
    28
 73
    24
 74
     0
 42
0.0000000001
 43
0.0000000001
 40
0.0
 40
0.0
 40
0.0
 40
0.0
 40
0.1428571428571428
 40
0.1428571428571428
 40
0.1428571428571428
 40
0.1428571428571428
 40
0.2857142857142857
 40
0.2857142857142857
 40
0.2857142857142857
 40
0.2857142857142857
 40
0.4285714285714285
 40
0.4285714285714285
 40
0.4285714285714285
 40
0.4285714285714285
 40
0.5714285714285714
 40
0.5714285714285714
 40
0.5714285714285714
 40
0.5714285714285714
 40
0.7142857142857143
 40
0.7142857142857143
 40
0.7142857142857143
 40
0.7142857142857143
 40
1.0
 40
1.0
 40
1.0
 40
1.0
 10
13.1088
 20
-2.9274
 30
0.0
 10
13.1088
 20
-2.9274
 30
0.0
 10
13.1103
 20
-2.962
 30
0.0
 10
13.1103
 20
-2.962
 30
0.0
 10
13.1103
 20
-2.962
 30
0.0
 10
13.1103
 20
-2.962
 30
0.0
 10
13.1476
 20
-3.1057
 30
0.0
 10
13.1476
 20
-3.1057
 30
0.0
 10
13.1476
 20
-3.1057
 30
0.0
 10
13.1476
 20
-3.1057
 30
0.0
 10
13.2315
 20
-3.2282
 30
0.0
 10
13.2315
 20
-3.2282
 30
0.0
 10
13.2315
 20
-3.2282
 30
0.0
 10
13.2315
 20
-3.2282
 30
0.0
 10
13.3521
 20
-3.3148
 30
0.0
 10
13.3521
 20
-3.3148
 30
0.0
 10
13.3521
 20
-3.3148
 30
0.0
 10
13.3521
 20
-3.3148
 30
0.0
 10
13.4949
 20
-3.3553
 30
0.0
 10
13.4949
 20
-3.3553
 30
0.0
 10
13.4949
 20
-3.3553
 30
0.0
 10
13.4949
 20
-3.3553
 30
0.0
 10
13.539
 20
-3.3575
 30
0.0
 10
13.539
 20
-3.3575
 30
0.0
  0
SPLINE
  5
4D
330
1F
100
AcDbEntity
  8
VRSTVA_1
100
AcDbSpline
210
0.0
220
0.0
230
1.0
 70
     8
 71
     3
 72
    28
 73
    24
 74
     0
 42
0.0000000001
 43
0.0000000001
 40
0.0
 40
0.0
 40
0.0
 40
0.0
 40
0.1428571428571428
 40
0.1428571428571428
 40
0.1428571428571428
 40
0.1428571428571428
 40
0.2857142857142857
 40
0.2857142857142857
 40
0.2857142857142857
 40
0.2857142857142857
 40
0.4285714285714285
 40
0.4285714285714285
 40
0.4285714285714285
 40
0.4285714285714285
 40
0.5714285714285714
 40
0.5714285714285714
 40
0.5714285714285714
 40
0.5714285714285714
 40
0.7142857142857143
 40
0.7142857142857143
 40
0.7142857142857143
 40
0.7142857142857143
 40
1.0
 40
1.0
 40
1.0
 40
1.0
 10
21.7119
 20
-20.4024
 30
0.0
 10
21.7119
 20
-20.4024
 30
0.0
 10
21.9334
 20
-20.4244
 30
0.0
 10
21.9334
 20
-20.4244
 30
0.0
 10
21.9334
 20
-20.4244
 30
0.0
 10
21.9334
 20
-20.4244
 30
0.0
 10
22.1432
 20
-20.49
 30
0.0
 10
22.1432
 20
-20.49
 30
0.0
 10
22.1432
 20
-20.49
 30
0.0
 10
22.1432
 20
-20.49
 30
0.0
 10
22.3198
 20
-20.5916
 30
0.0
 10
22.3198
 20
-20.5916
 30
0.0
 10
22.3198
 20
-20.5916
 30
0.0
 10
22.3198
 20
-20.5916
 30
0.0
 10
22.4562
 20
-20.7225
 30
0.0
 10
22.4562
 20
-20.7225
 30
0.0
 10
22.4562
 20
-20.7225
 30
0.0
 10
22.4562
 20
-20.7225
 30
0.0
 10
22.5433
 20
-20.8753
 30
0.0
 10
22.5433
 20
-20.8753
 30
0.0
 10
22.5433
 20
-20.8753
 30
0.0
 10
22.5433
 20
-20.8753
 30
0.0
 10
22.5722
 20
-21.0332
 30
0.0
 10
22.5722
 20
-21.0332
 30
0.0
  0
SPLINE
  5
4E
330
1F
100
AcDbEntity
  8
VRSTVA_1
100
AcDbSpline
210
0.0
220
0.0
230
1.0
 70
     8
 71
     3
 72
    68
 73
    64
 74
     0
 42
0.0000000001
 43
0.0000000001
 40
0.0
 40
0.0
 40
0.0
 40
0.0
 40
0.0588235294117647
 40
0.0588235294117647
 40
0.0588235294117647
 40
0.0588235294117647
 40
0.1176470588235294
 40
0.1176470588235294
 40
0.1176470588235294
 40
0.1176470588235294
 40
0.1764705882352941
 40
0.1764705882352941
 40
0.1764705882352941
 40
0.1764705882352941
 40
0.2352941176470588
 40
0.2352941176470588
 40
0.2352941176470588
 40
0.2352941176470588
 40
0.2941176470588235
 40
0.2941176470588235
 40
0.2941176470588235
 40
0.2941176470588235
 40
0.3529411764705883
 40
0.3529411764705883
 40
0.3529411764705883
 40
0.3529411764705883
 40
0.4117647058823529
 40
0.4117647058823529
 40
0.4117647058823529
 40
0.4117647058823529
 40
0.4705882352941176
 40
0.4705882352941176
 40
0.4705882352941176
 40
0.4705882352941176
 40
0.5294117647058824
 40
0.5294117647058824
 40
0.5294117647058824
 40
0.5294117647058824
 40
0.5882352941176471
 40
0.5882352941176471
 40
0.5882352941176471
 40
0.5882352941176471
 40
0.6470588235294118
 40
0.6470588235294118
 40
0.6470588235294118
 40
0.6470588235294118
 40
0.7058823529411765
 40
0.7058823529411765
 40
0.7058823529411765
 40
0.7058823529411765
 40
0.7647058823529411
 40
0.7647058823529411
 40
0.7647058823529411
 40
0.7647058823529411
 40
0.8235294117647058
 40
0.8235294117647058
 40
0.8235294117647058
 40
0.8235294117647058
 40
0.8823529411764706
 40
0.8823529411764706
 40
0.8823529411764706
 40
0.8823529411764706
 40
1.0
 40
1.0
 40
1.0
 40
1.0
 10
12.3913
 20
-21.058
 30
0.0
 10
12.3913
 20
-21.058
 30
0.0
 10
12.0048
 20
-20.0401
 30
0.0
 10
12.0048
 20
-20.0401
 30
0.0
 10
12.0048
 20
-20.0401
 30
0.0
 10
12.0048
 20
-20.0401
 30
0.0
 10
11.5992
 20
-18.8161
 30
0.0
 10
11.5992
 20
-18.8161
 30
0.0
 10
11.5992
 20
-18.8161
 30
0.0
 10
11.5992
 20
-18.8161
 30
0.0
 10
11.2271
 20
-17.4474
 30
0.0
 10
11.2271
 20
-17.4474
 30
0.0
 10
11.2271
 20
-17.4474
 30
0.0
 10
11.2271
 20
-17.4474
 30
0.0
 10
10.9321
 20
-15.9962
 30
0.0
 10
10.9321
 20
-15.9962
 30
0.0
 10
10.9321
 20
-15.9962
 30
0.0
 10
10.9321
 20
-15.9962
 30
0.0
 10
10.7407
 20
-14.5053
 30
0.0
 10
10.7407
 20
-14.5053
 30
0.0
 10
10.7407
 20
-14.5053
 30
0.0
 10
10.7407
 20
-14.5053
 30
0.0
 10
10.6661
 20
-13.0041
 30
0.0
 10
10.6661
 20
-13.0041
 30
0.0
 10
10.6661
 20
-13.0041
 30
0.0
 10
10.6661
 20
-13.0041
 30
0.0
 10
10.7115
 20
-11.5027
 30
0.0
 10
10.7115
 20
-11.5027
 30
0.0
 10
10.7115
 20
-11.5027
 30
0.0
 10
10.7115
 20
-11.5027
 30
0.0
 10
10.8749
 20
-10.008
 30
0.0
 10
10.8749
 20
-10.008
 30
0.0
 10
10.8749
 20
-10.008
 30
0.0
 10
10.8749
 20
-10.008
 30
0.0
 10
11.1465
 20
-8.5438
 30
0.0
 10
11.1465
 20
-8.5438
 30
0.0
 10
11.1465
 20
-8.5438
 30
0.0
 10
11.1465
 20
-8.5438
 30
0.0
 10
11.5031
 20
-7.15
 30
0.0
 10
11.5031
 20
-7.15
 30
0.0
 10
11.5031
 20
-7.15
 30
0.0
 10
11.5031
 20
-7.15
 30
0.0
 10
11.9054
 20
-5.8841
 30
0.0
 10
11.9054
 20
-5.8841
 30
0.0
 10
11.9054
 20
-5.8841
 30
0.0
 10
11.9054
 20
-5.8841
 30
0.0
 10
12.3014
 20
-4.8109
 30
0.0
 10
12.3014
 20
-4.8109
 30
0.0
 10
12.3014
 20
-4.8109
 30
0.0
 10
12.3014
 20
-4.8109
 30
0.0
 10
12.6419
 20
-3.9769
 30
0.0
 10
12.6419
 20
-3.9769
 30
0.0
 10
12.6419
 20
-3.9769
 30
0.0
 10
12.6419
 20
-3.9769
 30
0.0
 10
12.8982
 20
-3.3893
 30
0.0
 10
12.8982
 20
-3.3893
 30
0.0
 10
12.8982
 20
-3.3893
 30
0.0
 10
12.8982
 20
-3.3893
 30
0.0
 10
13.056
 20
-3.0416
 30
0.0
 10
13.056
 20
-3.0416
 30
0.0
 10
13.056
 20
-3.0416
 30
0.0
 10
13.056
 20
-3.0416
 30
0.0
 10
13.1088
 20
-2.9274
 30
0.0
 10
13.1088
 20
-2.9274
 30
0.0
  0
SPLINE
  5
4F
330
1F
100
AcDbEntity
  8
VRSTVA_1
100
AcDbSpline
210
0.0
220
0.0
230
1.0
 70
     8
 71
     3
 72
    68
 73
    64
 74
     0
 42
0.0000000001
 43
0.0000000001
 40
0.0
 40
0.0
 40
0.0
 40
0.0
 40
0.0588235294117647
 40
0.0588235294117647
 40
0.0588235294117647
 40
0.0588235294117647
 40
0.1176470588235294
 40
0.1176470588235294
 40
0.1176470588235294
 40
0.1176470588235294
 40
0.1764705882352941
 40
0.1764705882352941
 40
0.1764705882352941
 40
0.1764705882352941
 40
0.2352941176470588
 40
0.2352941176470588
 40
0.2352941176470588
 40
0.2352941176470588
 40
0.2941176470588235
 40
0.2941176470588235
 40
0.2941176470588235
 40
0.2941176470588235
 40
0.3529411764705883
 40
0.3529411764705883
 40
0.3529411764705883
 40
0.3529411764705883
 40
0.4117647058823529
 40
0.4117647058823529
 40
0.4117647058823529
 40
0.4117647058823529
 40
0.4705882352941176
 40
0.4705882352941176
 40
0.4705882352941176
 40
0.4705882352941176
 40
0.5294117647058824
 40
0.5294117647058824
 40
0.5294117647058824
 40
0.5294117647058824
 40
0.5882352941176471
 40
0.5882352941176471
 40
0.5882352941176471
 40
0.5882352941176471
 40
0.6470588235294118
 40
0.6470588235294118
 40
0.6470588235294118
 40
0.6470588235294118
 40
0.7058823529411765
 40
0.7058823529411765
 40
0.7058823529411765
 40
0.7058823529411765
 40
0.7647058823529411
 40
0.7647058823529411
 40
0.7647058823529411
 40
0.7647058823529411
 40
0.8235294117647058
 40
0.8235294117647058
 40
0.8235294117647058
 40
0.8235294117647058
 40
0.8823529411764706
 40
0.8823529411764706
 40
0.8823529411764706
 40
0.8823529411764706
 40
1.0
 40
1.0
 40
1.0
 40
1.0
 10
12.8064
 20
-20.6998
 30
0.0
 10
12.8064
 20
-20.6998
 30
0.0
 10
12.4112
 20
-19.7248
 30
0.0
 10
12.4112
 20
-19.7248
 30
0.0
 10
12.4112
 20
-19.7248
 30
0.0
 10
12.4112
 20
-19.7248
 30
0.0
 10
11.9971
 20
-18.5539
 30
0.0
 10
11.9971
 20
-18.5539
 30
0.0
 10
11.9971
 20
-18.5539
 30
0.0
 10
11.9971
 20
-18.5539
 30
0.0
 10
11.6173
 20
-17.2448
 30
0.0
 10
11.6173
 20
-17.2448
 30
0.0
 10
11.6173
 20
-17.2448
 30
0.0
 10
11.6173
 20
-17.2448
 30
0.0
 10
11.3161
 20
-15.8568
 30
0.0
 10
11.3161
 20
-15.8568
 30
0.0
 10
11.3161
 20
-15.8568
 30
0.0
 10
11.3161
 20
-15.8568
 30
0.0
 10
11.1209
 20
-14.4308
 30
0.0
 10
11.1209
 20
-14.4308
 30
0.0
 10
11.1209
 20
-14.4308
 30
0.0
 10
11.1209
 20
-14.4308
 30
0.0
 10
11.0448
 20
-12.9952
 30
0.0
 10
11.0448
 20
-12.9952
 30
0.0
 10
11.0448
 20
-12.9952
 30
0.0
 10
11.0448
 20
-12.9952
 30
0.0
 10
11.0912
 20
-11.5591
 30
0.0
 10
11.0912
 20
-11.5591
 30
0.0
 10
11.0912
 20
-11.5591
 30
0.0
 10
11.0912
 20
-11.5591
 30
0.0
 10
11.2581
 20
-10.1297
 30
0.0
 10
11.2581
 20
-10.1297
 30
0.0
 10
11.2581
 20
-10.1297
 30
0.0
 10
11.2581
 20
-10.1297
 30
0.0
 10
11.5354
 20
-8.7293
 30
0.0
 10
11.5354
 20
-8.7293
 30
0.0
 10
11.5354
 20
-8.7293
 30
0.0
 10
11.5354
 20
-8.7293
 30
0.0
 10
11.8995
 20
-7.3963
 30
0.0
 10
11.8995
 20
-7.3963
 30
0.0
 10
11.8995
 20
-7.3963
 30
0.0
 10
11.8995
 20
-7.3963
 30
0.0
 10
12.3102
 20
-6.1857
 30
0.0
 10
12.3102
 20
-6.1857
 30
0.0
 10
12.3102
 20
-6.1857
 30
0.0
 10
12.3102
 20
-6.1857
 30
0.0
 10
12.7145
 20
-5.1592
 30
0.0
 10
12.7145
 20
-5.1592
 30
0.0
 10
12.7145
 20
-5.1592
 30
0.0
 10
12.7145
 20
-5.1592
 30
0.0
 10
13.0622
 20
-4.3617
 30
0.0
 10
13.0622
 20
-4.3617
 30
0.0
 10
13.0622
 20
-4.3617
 30
0.0
 10
13.0622
 20
-4.3617
 30
0.0
 10
13.3239
 20
-3.7995
 30
0.0
 10
13.3239
 20
-3.7995
 30
0.0
 10
13.3239
 20
-3.7995
 30
0.0
 10
13.3239
 20
-3.7995
 30
0.0
 10
13.485
 20
-3.4669
 30
0.0
 10
13.485
 20
-3.4669
 30
0.0
 10
13.485
 20
-3.4669
 30
0.0
 10
13.485
 20
-3.4669
 30
0.0
 10
13.539
 20
-3.3575
 30
0.0
 10
13.539
 20
-3.3575
 30
0.0
  0
SPLINE
  5
50
330
1F
100
AcDbEntity
  8
VRSTVA_1
100
AcDbSpline
210
0.0
220
0.0
230
1.0
 70
     8
 71
     3
 72
    28
 73
    24
 74
     0
 42
0.0000000001
 43
0.0000000001
 40
0.0
 40
0.0
 40
0.0
 40
0.0
 40
0.1428571428571428
 40
0.1428571428571428
 40
0.1428571428571428
 40
0.1428571428571428
 40
0.2857142857142857
 40
0.2857142857142857
 40
0.2857142857142857
 40
0.2857142857142857
 40
0.4285714285714285
 40
0.4285714285714285
 40
0.4285714285714285
 40
0.4285714285714285
 40
0.5714285714285714
 40
0.5714285714285714
 40
0.5714285714285714
 40
0.5714285714285714
 40
0.7142857142857143
 40
0.7142857142857143
 40
0.7142857142857143
 40
0.7142857142857143
 40
1.0
 40
1.0
 40
1.0
 40
1.0
 10
22.5722
 20
-0.9917
 30
0.0
 10
22.5722
 20
-0.9917
 30
0.0
 10
22.543
 20
-0.9938
 30
0.0
 10
22.543
 20
-0.9938
 30
0.0
 10
22.543
 20
-0.9938
 30
0.0
 10
22.543
 20
-0.9938
 30
0.0
 10
22.4571
 20
-0.9995
 30
0.0
 10
22.4571
 20
-0.9995
 30
0.0
 10
22.4571
 20
-0.9995
 30
0.0
 10
22.4571
 20
-0.9995
 30
0.0
 10
22.3203
 20
-1.0073
 30
0.0
 10
22.3203
 20
-1.0073
 30
0.0
 10
22.3203
 20
-1.0073
 30
0.0
 10
22.3203
 20
-1.0073
 30
0.0
 10
22.1419
 20
-1.0152
 30
0.0
 10
22.1419
 20
-1.0152
 30
0.0
 10
22.1419
 20
-1.0152
 30
0.0
 10
22.1419
 20
-1.0152
 30
0.0
 10
21.9344
 20
-1.0209
 30
0.0
 10
21.9344
 20
-1.0209
 30
0.0
 10
21.9344
 20
-1.0209
 30
0.0
 10
21.9344
 20
-1.0209
 30
0.0
 10
21.7119
 20
-1.023
 30
0.0
 10
21.7119
 20
-1.023
 30
0.0
  0
SPLINE
  5
51
330
1F
100
AcDbEntity
  8
VRSTVA_1
100
AcDbSpline
210
0.0
220
0.0
230
1.0
 70
     8
 71
     3
 72
    28
 73
    24
 74
     0
 42
0.0000000001
 43
0.0000000001
 40
0.0
 40
0.0
 40
0.0
 40
0.0
 40
0.1428571428571428
 40
0.1428571428571428
 40
0.1428571428571428
 40
0.1428571428571428
 40
0.2857142857142857
 40
0.2857142857142857
 40
0.2857142857142857
 40
0.2857142857142857
 40
0.4285714285714285
 40
0.4285714285714285
 40
0.4285714285714285
 40
0.4285714285714285
 40
0.5714285714285714
 40
0.5714285714285714
 40
0.5714285714285714
 40
0.5714285714285714
 40
0.7142857142857143
 40
0.7142857142857143
 40
0.7142857142857143
 40
0.7142857142857143
 40
1.0
 40
1.0
 40
1.0
 40
1.0
 10
22.5722
 20
-1.2067
 30
0.0
 10
22.5722
 20
-1.2067
 30
0.0
 10
22.5433
 20
-1.2089
 30
0.0
 10
22.5433
 20
-1.2089
 30
0.0
 10
22.5433
 20
-1.2089
 30
0.0
 10
22.5433
 20
-1.2089
 30
0.0
 10
22.4561
 20
-1.2148
 30
0.0
 10
22.4561
 20
-1.2148
 30
0.0
 10
22.4561
 20
-1.2148
 30
0.0
 10
22.4561
 20
-1.2148
 30
0.0
 10
22.3199
 20
-1.2227
 30
0.0
 10
22.3199
 20
-1.2227
 30
0.0
 10
22.3199
 20
-1.2227
 30
0.0
 10
22.3199
 20
-1.2227
 30
0.0
 10
22.1432
 20
-1.2306
 30
0.0
 10
22.1432
 20
-1.2306
 30
0.0
 10
22.1432
 20
-1.2306
 30
0.0
 10
22.1432
 20
-1.2306
 30
0.0
 10
21.933
 20
-1.2365
 30
0.0
 10
21.933
 20
-1.2365
 30
0.0
 10
21.933
 20
-1.2365
 30
0.0
 10
21.933
 20
-1.2365
 30
0.0
 10
21.7119
 20
-1.2386
 30
0.0
 10
21.7119
 20
-1.2386
 30
0.0
  0
SPLINE
  5
52
330
1F
100
AcDbEntity
  8
VRSTVA_1
100
AcDbSpline
210
0.0
220
0.0
230
1.0
 70
     8
 71
     3
 72
    28
 73
    24
 74
     0
 42
0.0000000001
 43
0.0000000001
 40
0.0
 40
0.0
 40
0.0
 40
0.0
 40
0.1428571428571428
 40
0.1428571428571428
 40
0.1428571428571428
 40
0.1428571428571428
 40
0.2857142857142857
 40
0.2857142857142857
 40
0.2857142857142857
 40
0.2857142857142857
 40
0.4285714285714285
 40
0.4285714285714285
 40
0.4285714285714285
 40
0.4285714285714285
 40
0.5714285714285714
 40
0.5714285714285714
 40
0.5714285714285714
 40
0.5714285714285714
 40
0.7142857142857143
 40
0.7142857142857143
 40
0.7142857142857143
 40
0.7142857142857143
 40
1.0
 40
1.0
 40
1.0
 40
1.0
 10
21.7119
 20
-3.8702
 30
0.0
 10
21.7119
 20
-3.8702
 30
0.0
 10
21.9344
 20
-3.8894
 30
0.0
 10
21.9344
 20
-3.8894
 30
0.0
 10
21.9344
 20
-3.8894
 30
0.0
 10
21.9344
 20
-3.8894
 30
0.0
 10
22.1419
 20
-3.9461
 30
0.0
 10
22.1419
 20
-3.9461
 30
0.0
 10
22.1419
 20
-3.9461
 30
0.0
 10
22.1419
 20
-3.9461
 30
0.0
 10
22.3203
 20
-4.0373
 30
0.0
 10
22.3203
 20
-4.0373
 30
0.0
 10
22.3203
 20
-4.0373
 30
0.0
 10
22.3203
 20
-4.0373
 30
0.0
 10
22.4571
 20
-4.1579
 30
0.0
 10
22.4571
 20
-4.1579
 30
0.0
 10
22.4571
 20
-4.1579
 30
0.0
 10
22.4571
 20
-4.1579
 30
0.0
 10
22.543
 20
-4.3006
 30
0.0
 10
22.543
 20
-4.3006
 30
0.0
 10
22.543
 20
-4.3006
 30
0.0
 10
22.543
 20
-4.3006
 30
0.0
 10
22.5722
 20
-4.4564
 30
0.0
 10
22.5722
 20
-4.4564
 30
0.0
  0
SPLINE
  5
53
330
1F
100
AcDbEntity
  8
VRSTVA_1
100
AcDbSpline
210
0.0
220
0.0
230
1.0
 70
     8
 71
     3
 72
    24
 73
    20
 74
     0
 42
0.0000000001
 43
0.0000000001
 40
0.0
 40
0.0
 40
0.0
 40
0.0
 40
0.1666666666666667
 40
0.1666666666666667
 40
0.1666666666666667
 40
0.1666666666666667
 40
0.3333333333333333
 40
0.3333333333333333
 40
0.3333333333333333
 40
0.3333333333333333
 40
0.5
 40
0.5
 40
0.5
 40
0.5
 40
0.6666666666666666
 40
0.6666666666666666
 40
0.6666666666666666
 40
0.6666666666666666
 40
1.0
 40
1.0
 40
1.0
 40
1.0
 10
-23.4542
 20
-16.6283
 30
0.0
 10
-23.4542
 20
-16.6283
 30
0.0
 10
-23.4557
 20
-16.5924
 30
0.0
 10
-23.4557
 20
-16.5924
 30
0.0
 10
-23.4557
 20
-16.5924
 30
0.0
 10
-23.4557
 20
-16.5924
 30
0.0
 10
-23.4902
 20
-16.456
 30
0.0
 10
-23.4902
 20
-16.456
 30
0.0
 10
-23.4902
 20
-16.456
 30
0.0
 10
-23.4902
 20
-16.456
 30
0.0
 10
-23.567
 20
-16.3379
 30
0.0
 10
-23.567
 20
-16.3379
 30
0.0
 10
-23.567
 20
-16.3379
 30
0.0
 10
-23.567
 20
-16.3379
 30
0.0
 10
-23.6775
 20
-16.2511
 30
0.0
 10
-23.6775
 20
-16.2511
 30
0.0
 10
-23.6775
 20
-16.2511
 30
0.0
 10
-23.6775
 20
-16.2511
 30
0.0
 10
-23.8097
 20
-16.2047
 30
0.0
 10
-23.8097
 20
-16.2047
 30
0.0
  0
SPLINE
  5
54
330
1F
100
AcDbEntity
  8
VRSTVA_1
 62
     7
100
AcDbSpline
210
0.0
220
0.0
230
1.0
 70
     8
 71
     3
 72
    12
 73
     8
 74
     0
 42
0.0000000001
 43
0.0000000001
 40
0.0
 40
0.0
 40
0.0
 40
0.0
 40
0.3333333333333333
 40
0.3333333333333333
 40
0.3333333333333333
 40
0.3333333333333333
 40
1.0
 40
1.0
 40
1.0
 40
1.0
 10
22.5722
 20
-24.435
 30
0.0
 10
23.0461
 20
-24.435
 30
0.0
 10
23.4325
 20
-24.0485
 30
0.0
 10
23.4325
 20
-23.5747
 30
0.0
 10
23.4325
 20
-23.5747
 30
0.0
 10
23.4325
 20
-23.5747
 30
0.0
 10
23.4325
 20
-23.5747
 30
0.0
 10
23.4325
 20
-23.5747
 30
0.0
  0
SPLINE
  5
55
330
1F
100
AcDbEntity
  8
VRSTVA_1
100
AcDbSpline
210
0.0
220
0.0
230
1.0
 70
     8
 71
     3
 72
    12
 73
     8
 74
     0
 42
0.0000000001
 43
0.0000000001
 40
0.0
 40
0.0
 40
0.0
 40
0.0
 40
0.3333333333333333
 40
0.3333333333333333
 40
0.3333333333333333
 40
0.3333333333333333
 40
1.0
 40
1.0
 40
1.0
 40
1.0
 10
22.5722
 20
-24.435
 30
0.0
 10
23.0461
 20
-24.435
 30
0.0
 10
23.4325
 20
-24.0485
 30
0.0
 10
23.4325
 20
-23.5747
 30
0.0
 10
23.4325
 20
-23.5747
 30
0.0
 10
23.4325
 20
-23.5747
 30
0.0
 10
23.4325
 20
-23.5747
 30
0.0
 10
23.4325
 20
-23.5747
 30
0.0
  0
SPLINE
  5
56
330
1F
100
AcDbEntity
  8
VRSTVA_1
 62
     7
100
AcDbSpline
210
0.0
220
0.0
230
1.0
 70
     8
 71
     3
 72
    12
 73
     8
 74
     0
 42
0.0000000001
 43
0.0000000001
 40
0.0
 40
0.0
 40
0.0
 40
0.0
 40
0.3333333333333333
 40
0.3333333333333333
 40
0.3333333333333333
 40
0.3333333333333333
 40
1.0
 40
1.0
 40
1.0
 40
1.0
 10
23.4325
 20
-2.067
 30
0.0
 10
23.4325
 20
-1.5932
 30
0.0
 10
23.0461
 20
-1.2067
 30
0.0
 10
22.5722
 20
-1.2067
 30
0.0
 10
22.5722
 20
-1.2067
 30
0.0
 10
22.5722
 20
-1.2067
 30
0.0
 10
22.5722
 20
-1.2067
 30
0.0
 10
22.5722
 20
-1.2067
 30
0.0
  0
SPLINE
  5
57
330
1F
100
AcDbEntity
  8
VRSTVA_1
100
AcDbSpline
210
0.0
220
0.0
230
1.0
 70
     8
 71
     3
 72
    12
 73
     8
 74
     0
 42
0.0000000001
 43
0.0000000001
 40
0.0
 40
0.0
 40
0.0
 40
0.0
 40
0.3333333333333333
 40
0.3333333333333333
 40
0.3333333333333333
 40
0.3333333333333333
 40
1.0
 40
1.0
 40
1.0
 40
1.0
 10
23.4325
 20
-2.067
 30
0.0
 10
23.4325
 20
-1.5932
 30
0.0
 10
23.0461
 20
-1.2067
 30
0.0
 10
22.5722
 20
-1.2067
 30
0.0
 10
22.5722
 20
-1.2067
 30
0.0
 10
22.5722
 20
-1.2067
 30
0.0
 10
22.5722
 20
-1.2067
 30
0.0
 10
22.5722
 20
-1.2067
 30
0.0
  0
SPLINE
  5
58
330
1F
100
AcDbEntity
  8
VRSTVA_1
 62
     7
100
AcDbSpline
210
0.0
220
0.0
230
1.0
 70
     8
 71
     3
 72
    16
 73
    12
 74
     0
 42
0.0000000001
 43
0.0000000001
 40
0.0
 40
0.0
 40
0.0
 40
0.0
 40
0.25
 40
0.25
 40
0.25
 40
0.25
 40
0.5
 40
0.5
 40
0.5
 40
0.5
 40
1.0
 40
1.0
 40
1.0
 40
1.0
 10
21.7119
 20
-13.6811
 30
0.0
 10
22.1858
 20
-13.6811
 30
0.0
 10
22.5722
 20
-13.2947
 30
0.0
 10
22.5722
 20
-12.8208
 30
0.0
 10
22.5722
 20
-12.8208
 30
0.0
 10
22.5722
 20
-12.347
 30
0.0
 10
22.1858
 20
-11.9605
 30
0.0
 10
21.7119
 20
-11.9605
 30
0.0
 10
21.7119
 20
-11.9605
 30
0.0
 10
21.7119
 20
-11.9605
 30
0.0
 10
21.7119
 20
-11.9605
 30
0.0
 10
21.7119
 20
-11.9605
 30
0.0
  0
SPLINE
  5
59
330
1F
100
AcDbEntity
  8
VRSTVA_1
100
AcDbSpline
210
0.0
220
0.0
230
1.0
 70
     8
 71
     3
 72
    16
 73
    12
 74
     0
 42
0.0000000001
 43
0.0000000001
 40
0.0
 40
0.0
 40
0.0
 40
0.0
 40
0.25
 40
0.25
 40
0.25
 40
0.25
 40
0.5
 40
0.5
 40
0.5
 40
0.5
 40
1.0
 40
1.0
 40
1.0
 40
1.0
 10
21.7119
 20
-13.6811
 30
0.0
 10
22.1858
 20
-13.6811
 30
0.0
 10
22.5722
 20
-13.2947
 30
0.0
 10
22.5722
 20
-12.8208
 30
0.0
 10
22.5722
 20
-12.8208
 30
0.0
 10
22.5722
 20
-12.347
 30
0.0
 10
22.1858
 20
-11.9605
 30
0.0
 10
21.7119
 20
-11.9605
 30
0.0
 10
21.7119
 20
-11.9605
 30
0.0
 10
21.7119
 20
-11.9605
 30
0.0
 10
21.7119
 20
-11.9605
 30
0.0
 10
21.7119
 20
-11.9605
 30
0.0
  0
SPLINE
  5
5A
330
1F
100
AcDbEntity
  8
VRSTVA_1
 62
     7
100
AcDbSpline
210
0.0
220
0.0
230
1.0
 70
     8
 71
     3
 72
     8
 73
     4
 74
     0
 42
0.0000000001
 43
0.0000000001
 40
0.0
 40
0.0
 40
0.0
 40
0.0
 40
1.0
 40
1.0
 40
1.0
 40
1.0
 10
-26.3716
 20
5.6757
 30
0.0
 10
-26.4758
 20
5.6757
 30
0.0
 10
-26.5657
 20
5.6001
 30
0.0
 10
-26.5833
 20
5.4976
 30
0.0
  0
SPLINE
  5
5B
330
1F
100
AcDbEntity
  8
VRSTVA_1
100
AcDbSpline
210
0.0
220
0.0
230
1.0
 70
     8
 71
     3
 72
     8
 73
     4
 74
     0
 42
0.0000000001
 43
0.0000000001
 40
0.0
 40
0.0
 40
0.0
 40
0.0
 40
1.0
 40
1.0
 40
1.0
 40
1.0
 10
-26.3716
 20
5.6757
 30
0.0
 10
-26.4758
 20
5.6757
 30
0.0
 10
-26.5657
 20
5.6001
 30
0.0
 10
-26.5833
 20
5.4976
 30
0.0
  0
SPLINE
  5
5C
330
1F
100
AcDbEntity
  8
VRSTVA_1
 62
     7
100
AcDbSpline
210
0.0
220
0.0
230
1.0
 70
     8
 71
     3
 72
    12
 73
     8
 74
     0
 42
0.0000000001
 43
0.0000000001
 40
0.0
 40
0.0
 40
0.0
 40
0.0
 40
0.3333333333333333
 40
0.3333333333333333
 40
0.3333333333333333
 40
0.3333333333333333
 40
1.0
 40
1.0
 40
1.0
 40
1.0
 10
11.9365
 20
5.4976
 30
0.0
 10
11.9188
 20
5.6001
 30
0.0
 10
11.8289
 20
5.6757
 30
0.0
 10
11.7248
 20
5.6757
 30
0.0
 10
11.7248
 20
5.6757
 30
0.0
 10
11.7248
 20
5.6757
 30
0.0
 10
11.7248
 20
5.6757
 30
0.0
 10
11.7248
 20
5.6757
 30
0.0
  0
SPLINE
  5
5D
330
1F
100
AcDbEntity
  8
VRSTVA_1
100
AcDbSpline
210
0.0
220
0.0
230
1.0
 70
     8
 71
     3
 72
    12
 73
     8
 74
     0
 42
0.0000000001
 43
0.0000000001
 40
0.0
 40
0.0
 40
0.0
 40
0.0
 40
0.3333333333333333
 40
0.3333333333333333
 40
0.3333333333333333
 40
0.3333333333333333
 40
1.0
 40
1.0
 40
1.0
 40
1.0
 10
11.9365
 20
5.4976
 30
0.0
 10
11.9188
 20
5.6001
 30
0.0
 10
11.8289
 20
5.6757
 30
0.0
 10
11.7248
 20
5.6757
 30
0.0
 10
11.7248
 20
5.6757
 30
0.0
 10
11.7248
 20
5.6757
 30
0.0
 10
11.7248
 20
5.6757
 30
0.0
 10
11.7248
 20
5.6757
 30
0.0
  0
SPLINE
  5
5E
330
1F
100
AcDbEntity
  8
VRSTVA_1
 62
     7
100
AcDbSpline
210
0.0
220
0.0
230
1.0
 70
     8
 71
     3
 72
     8
 73
     4
 74
     0
 42
0.0000000001
 43
0.0000000001
 40
0.0
 40
0.0
 40
0.0
 40
0.0
 40
1.0
 40
1.0
 40
1.0
 40
1.0
 10
-27.7944
 20
-0.3465
 30
0.0
 10
-27.6903
 20
-0.3465
 30
0.0
 10
-27.6004
 20
-0.2709
 30
0.0
 10
-27.5827
 20
-0.1684
 30
0.0
  0
SPLINE
  5
5F
330
1F
100
AcDbEntity
  8
VRSTVA_1
100
AcDbSpline
210
0.0
220
0.0
230
1.0
 70
     8
 71
     3
 72
     8
 73
     4
 74
     0
 42
0.0000000001
 43
0.0000000001
 40
0.0
 40
0.0
 40
0.0
 40
0.0
 40
1.0
 40
1.0
 40
1.0
 40
1.0
 10
-27.7944
 20
-0.3465
 30
0.0
 10
-27.6903
 20
-0.3465
 30
0.0
 10
-27.6004
 20
-0.2709
 30
0.0
 10
-27.5827
 20
-0.1684
 30
0.0
  0
SPLINE
  5
60
330
1F
100
AcDbEntity
  8
VRSTVA_1
 62
     7
100
AcDbSpline
210
0.0
220
0.0
230
1.0
 70
     8
 71
     3
 72
    12
 73
     8
 74
     0
 42
0.0000000001
 43
0.0000000001
 40
0.0
 40
0.0
 40
0.0
 40
0.0
 40
0.3333333333333333
 40
0.3333333333333333
 40
0.3333333333333333
 40
0.3333333333333333
 40
1.0
 40
1.0
 40
1.0
 40
1.0
 10
12.9359
 20
-0.1692
 30
0.0
 10
12.9535
 20
-0.2717
 30
0.0
 10
13.0434
 20
-0.3465
 30
0.0
 10
13.1476
 20
-0.3465
 30
0.0
 10
13.1476
 20
-0.3465
 30
0.0
 10
13.1476
 20
-0.3465
 30
0.0
 10
13.1476
 20
-0.3465
 30
0.0
 10
13.1476
 20
-0.3465
 30
0.0
  0
SPLINE
  5
61
330
1F
100
AcDbEntity
  8
VRSTVA_1
100
AcDbSpline
210
0.0
220
0.0
230
1.0
 70
     8
 71
     3
 72
    12
 73
     8
 74
     0
 42
0.0000000001
 43
0.0000000001
 40
0.0
 40
0.0
 40
0.0
 40
0.0
 40
0.3333333333333333
 40
0.3333333333333333
 40
0.3333333333333333
 40
0.3333333333333333
 40
1.0
 40
1.0
 40
1.0
 40
1.0
 10
12.9359
 20
-0.1692
 30
0.0
 10
12.9535
 20
-0.2717
 30
0.0
 10
13.0434
 20
-0.3465
 30
0.0
 10
13.1476
 20
-0.3465
 30
0.0
 10
13.1476
 20
-0.3465
 30
0.0
 10
13.1476
 20
-0.3465
 30
0.0
 10
13.1476
 20
-0.3465
 30
0.0
 10
13.1476
 20
-0.3465
 30
0.0
  0
SPLINE
  5
62
330
1F
100
AcDbEntity
  8
VRSTVA_1
 62
     7
100
AcDbSpline
210
0.0
220
0.0
230
1.0
 70
     8
 71
     3
 72
    12
 73
     8
 74
     0
 42
0.0000000001
 43
0.0000000001
 40
0.0
 40
0.0
 40
0.0
 40
0.0
 40
0.3333333333333333
 40
0.3333333333333333
 40
0.3333333333333333
 40
0.3333333333333333
 40
1.0
 40
1.0
 40
1.0
 40
1.0
 10
7.5169
 20
-25.2953
 30
0.0
 10
8.2276
 20
-25.2953
 30
0.0
 10
8.8073
 20
-24.7156
 30
0.0
 10
8.8073
 20
-24.0048
 30
0.0
 10
8.8073
 20
-24.0048
 30
0.0
 10
8.8073
 20
-24.0048
 30
0.0
 10
8.8073
 20
-24.0048
 30
0.0
 10
8.8073
 20
-24.0048
 30
0.0
  0
SPLINE
  5
63
330
1F
100
AcDbEntity
  8
VRSTVA_1
100
AcDbSpline
210
0.0
220
0.0
230
1.0
 70
     8
 71
     3
 72
    12
 73
     8
 74
     0
 42
0.0000000001
 43
0.0000000001
 40
0.0
 40
0.0
 40
0.0
 40
0.0
 40
0.3333333333333333
 40
0.3333333333333333
 40
0.3333333333333333
 40
0.3333333333333333
 40
1.0
 40
1.0
 40
1.0
 40
1.0
 10
7.5169
 20
-25.2953
 30
0.0
 10
8.2276
 20
-25.2953
 30
0.0
 10
8.8073
 20
-24.7156
 30
0.0
 10
8.8073
 20
-24.0048
 30
0.0
 10
8.8073
 20
-24.0048
 30
0.0
 10
8.8073
 20
-24.0048
 30
0.0
 10
8.8073
 20
-24.0048
 30
0.0
 10
8.8073
 20
-24.0048
 30
0.0
  0
SPLINE
  5
64
330
1F
100
AcDbEntity
  8
VRSTVA_1
 62
     7
100
AcDbSpline
210
0.0
220
0.0
230
1.0
 70
     8
 71
     3
 72
    12
 73
     8
 74
     0
 42
0.0000000001
 43
0.0000000001
 40
0.0
 40
0.0
 40
0.0
 40
0.0
 40
0.3333333333333333
 40
0.3333333333333333
 40
0.3333333333333333
 40
0.3333333333333333
 40
1.0
 40
1.0
 40
1.0
 40
1.0
 10
-23.4541
 20
-24.0048
 30
0.0
 10
-23.4541
 20
-24.7156
 30
0.0
 10
-22.8744
 20
-25.2953
 30
0.0
 10
-22.1637
 20
-25.2953
 30
0.0
 10
-22.1637
 20
-25.2953
 30
0.0
 10
-22.1637
 20
-25.2953
 30
0.0
 10
-22.1637
 20
-25.2953
 30
0.0
 10
-22.1637
 20
-25.2953
 30
0.0
  0
SPLINE
  5
65
330
1F
100
AcDbEntity
  8
VRSTVA_1
100
AcDbSpline
210
0.0
220
0.0
230
1.0
 70
     8
 71
     3
 72
    12
 73
     8
 74
     0
 42
0.0000000001
 43
0.0000000001
 40
0.0
 40
0.0
 40
0.0
 40
0.0
 40
0.3333333333333333
 40
0.3333333333333333
 40
0.3333333333333333
 40
0.3333333333333333
 40
1.0
 40
1.0
 40
1.0
 40
1.0
 10
-23.4541
 20
-24.0048
 30
0.0
 10
-23.4541
 20
-24.7156
 30
0.0
 10
-22.8744
 20
-25.2953
 30
0.0
 10
-22.1637
 20
-25.2953
 30
0.0
 10
-22.1637
 20
-25.2953
 30
0.0
 10
-22.1637
 20
-25.2953
 30
0.0
 10
-22.1637
 20
-25.2953
 30
0.0
 10
-22.1637
 20
-25.2953
 30
0.0
  0
SPLINE
  5
66
330
1F
100
AcDbEntity
  8
VRSTVA_1
 62
     7
100
AcDbSpline
210
0.0
220
0.0
230
1.0
 70
     8
 71
     3
 72
    16
 73
    12
 74
     0
 42
0.0000000001
 43
0.0000000001
 40
0.0
 40
0.0
 40
0.0
 40
0.0
 40
0.25
 40
0.25
 40
0.25
 40
0.25
 40
0.5
 40
0.5
 40
0.5
 40
0.5
 40
1.0
 40
1.0
 40
1.0
 40
1.0
 10
9.3114
 20
-22.0451
 30
0.0
 10
9.2896
 20
-22.0418
 30
0.0
 10
9.261
 20
-22.0384
 30
0.0
 10
9.2375
 20
-22.0384
 30
0.0
 10
9.2375
 20
-22.0384
 30
0.0
 10
9.0006
 20
-22.0384
 30
0.0
 10
8.8073
 20
-22.2316
 30
0.0
 10
8.8073
 20
-22.4685
 30
0.0
 10
8.8073
 20
-22.4685
 30
0.0
 10
8.8073
 20
-22.4685
 30
0.0
 10
8.8073
 20
-22.4685
 30
0.0
 10
8.8073
 20
-22.4685
 30
0.0
  0
SPLINE
  5
67
330
1F
100
AcDbEntity
  8
VRSTVA_1
100
AcDbSpline
210
0.0
220
0.0
230
1.0
 70
     8
 71
     3
 72
    16
 73
    12
 74
     0
 42
0.0000000001
 43
0.0000000001
 40
0.0
 40
0.0
 40
0.0
 40
0.0
 40
0.25
 40
0.25
 40
0.25
 40
0.25
 40
0.5
 40
0.5
 40
0.5
 40
0.5
 40
1.0
 40
1.0
 40
1.0
 40
1.0
 10
9.3114
 20
-22.0451
 30
0.0
 10
9.2896
 20
-22.0418
 30
0.0
 10
9.261
 20
-22.0384
 30
0.0
 10
9.2375
 20
-22.0384
 30
0.0
 10
9.2375
 20
-22.0384
 30
0.0
 10
9.0006
 20
-22.0384
 30
0.0
 10
8.8073
 20
-22.2316
 30
0.0
 10
8.8073
 20
-22.4685
 30
0.0
 10
8.8073
 20
-22.4685
 30
0.0
 10
8.8073
 20
-22.4685
 30
0.0
 10
8.8073
 20
-22.4685
 30
0.0
 10
8.8073
 20
-22.4685
 30
0.0
  0
SPLINE
  5
68
330
1F
100
AcDbEntity
  8
VRSTVA_1
 62
     7
100
AcDbSpline
210
0.0
220
0.0
230
1.0
 70
     8
 71
     3
 72
    12
 73
     8
 74
     0
 42
0.0000000001
 43
0.0000000001
 40
0.0
 40
0.0
 40
0.0
 40
0.0
 40
0.3333333333333333
 40
0.3333333333333333
 40
0.3333333333333333
 40
0.3333333333333333
 40
1.0
 40
1.0
 40
1.0
 40
1.0
 10
-27.7557
 20
-2.4972
 30
0.0
 10
-27.7557
 20
-2.2603
 30
0.0
 10
-27.949
 20
-2.0671
 30
0.0
 10
-28.1859
 20
-2.0671
 30
0.0
 10
-28.1859
 20
-2.0671
 30
0.0
 10
-28.1859
 20
-2.0671
 30
0.0
 10
-28.1859
 20
-2.0671
 30
0.0
 10
-28.1859
 20
-2.0671
 30
0.0
  0
SPLINE
  5
69
330
1F
100
AcDbEntity
  8
VRSTVA_1
100
AcDbSpline
210
0.0
220
0.0
230
1.0
 70
     8
 71
     3
 72
    12
 73
     8
 74
     0
 42
0.0000000001
 43
0.0000000001
 40
0.0
 40
0.0
 40
0.0
 40
0.0
 40
0.3333333333333333
 40
0.3333333333333333
 40
0.3333333333333333
 40
0.3333333333333333
 40
1.0
 40
1.0
 40
1.0
 40
1.0
 10
-27.7557
 20
-2.4972
 30
0.0
 10
-27.7557
 20
-2.2603
 30
0.0
 10
-27.949
 20
-2.0671
 30
0.0
 10
-28.1859
 20
-2.0671
 30
0.0
 10
-28.1859
 20
-2.0671
 30
0.0
 10
-28.1859
 20
-2.0671
 30
0.0
 10
-28.1859
 20
-2.0671
 30
0.0
 10
-28.1859
 20
-2.0671
 30
0.0
  0
SPLINE
  5
6A
330
1F
100
AcDbEntity
  8
VRSTVA_1
 62
     7
100
AcDbSpline
210
0.0
220
0.0
230
1.0
 70
     8
 71
     3
 72
    12
 73
     8
 74
     0
 42
0.0000000001
 43
0.0000000001
 40
0.0
 40
0.0
 40
0.0
 40
0.0
 40
0.3333333333333333
 40
0.3333333333333333
 40
0.3333333333333333
 40
0.3333333333333333
 40
1.0
 40
1.0
 40
1.0
 40
1.0
 10
13.539
 20
-2.0671
 30
0.0
 10
13.3021
 20
-2.0671
 30
0.0
 10
13.1088
 20
-2.2603
 30
0.0
 10
13.1088
 20
-2.4972
 30
0.0
 10
13.1088
 20
-2.4972
 30
0.0
 10
13.1088
 20
-2.4972
 30
0.0
 10
13.1088
 20
-2.4972
 30
0.0
 10
13.1088
 20
-2.4972
 30
0.0
  0
SPLINE
  5
6B
330
1F
100
AcDbEntity
  8
VRSTVA_1
100
AcDbSpline
210
0.0
220
0.0
230
1.0
 70
     8
 71
     3
 72
    12
 73
     8
 74
     0
 42
0.0000000001
 43
0.0000000001
 40
0.0
 40
0.0
 40
0.0
 40
0.0
 40
0.3333333333333333
 40
0.3333333333333333
 40
0.3333333333333333
 40
0.3333333333333333
 40
1.0
 40
1.0
 40
1.0
 40
1.0
 10
13.539
 20
-2.0671
 30
0.0
 10
13.3021
 20
-2.0671
 30
0.0
 10
13.1088
 20
-2.2603
 30
0.0
 10
13.1088
 20
-2.4972
 30
0.0
 10
13.1088
 20
-2.4972
 30
0.0
 10
13.1088
 20
-2.4972
 30
0.0
 10
13.1088
 20
-2.4972
 30
0.0
 10
13.1088
 20
-2.4972
 30
0.0
  0
SPLINE
  5
6C
330
1F
100
AcDbEntity
  8
VRSTVA_1
 62
     7
100
AcDbSpline
210
0.0
220
0.0
230
1.0
 70
     8
 71
     3
 72
    12
 73
     8
 74
     0
 42
0.0000000001
 43
0.0000000001
 40
0.0
 40
0.0
 40
0.0
 40
0.0
 40
0.3333333333333333
 40
0.3333333333333333
 40
0.3333333333333333
 40
0.3333333333333333
 40
1.0
 40
1.0
 40
1.0
 40
1.0
 10
11.5966
 20
-22.4467
 30
0.0
 10
11.6621
 20
-22.4568
 30
0.0
 10
11.7478
 20
-22.4669
 30
0.0
 10
11.8184
 20
-22.4669
 30
0.0
 10
11.8184
 20
-22.4669
 30
0.0
 10
12.015
 20
-22.4669
 30
0.0
 10
12.2267
 20
-22.4165
 30
0.0
 10
12.3981
 20
-22.3308
 30
0.0
  0
SPLINE
  5
6D
330
1F
100
AcDbEntity
  8
VRSTVA_1
100
AcDbSpline
210
0.0
220
0.0
230
1.0
 70
     8
 71
     3
 72
    12
 73
     8
 74
     0
 42
0.0000000001
 43
0.0000000001
 40
0.0
 40
0.0
 40
0.0
 40
0.0
 40
0.3333333333333333
 40
0.3333333333333333
 40
0.3333333333333333
 40
0.3333333333333333
 40
1.0
 40
1.0
 40
1.0
 40
1.0
 10
11.5966
 20
-22.4467
 30
0.0
 10
11.6621
 20
-22.4568
 30
0.0
 10
11.7478
 20
-22.4669
 30
0.0
 10
11.8184
 20
-22.4669
 30
0.0
 10
11.8184
 20
-22.4669
 30
0.0
 10
12.015
 20
-22.4669
 30
0.0
 10
12.2267
 20
-22.4165
 30
0.0
 10
12.3981
 20
-22.3308
 30
0.0
  0
SPLINE
  5
6E
330
1F
100
AcDbEntity
  8
VRSTVA_1
 62
     7
100
AcDbSpline
210
0.0
220
0.0
230
1.0
 70
     8
 71
     3
 72
     8
 73
     4
 74
     0
 42
0.0000000001
 43
0.0000000001
 40
0.0
 40
0.0
 40
0.0
 40
0.0
 40
1.0
 40
1.0
 40
1.0
 40
1.0
 10
-27.7557
 20
-14.426
 30
0.0
 10
-27.7557
 20
-15.0511
 30
0.0
 10
-27.302
 20
-15.5904
 30
0.0
 10
-26.687
 20
-15.6963
 30
0.0
  0
SPLINE
  5
6F
330
1F
100
AcDbEntity
  8
VRSTVA_1
100
AcDbSpline
210
0.0
220
0.0
230
1.0
 70
     8
 71
     3
 72
     8
 73
     4
 74
     0
 42
0.0000000001
 43
0.0000000001
 40
0.0
 40
0.0
 40
0.0
 40
0.0
 40
1.0
 40
1.0
 40
1.0
 40
1.0
 10
-27.7557
 20
-14.426
 30
0.0
 10
-27.7557
 20
-15.0511
 30
0.0
 10
-27.302
 20
-15.5904
 30
0.0
 10
-26.687
 20
-15.6963
 30
0.0
  0
SPLINE
  5
70
330
1F
100
AcDbEntity
  8
VRSTVA_1
100
AcDbSpline
210
0.0
220
0.0
230
1.0
 70
    24
 71
     3
 72
     8
 73
     4
 74
     0
 42
0.0000000001
 43
0.0000000001
 40
0.0
 40
0.0
 40
0.0
 40
0.0
 40
1.0
 40
1.0
 40
1.0
 40
1.0
 10
24.4123
 20
-20.4355
 30
0.0
 10
24.4123
 20
-20.4355
 30
0.0
 10
29.9049
 20
-20.4355
 30
0.0
 10
29.9049
 20
-20.4355
 30
0.0
  0
SPLINE
  5
71
330
1F
100
AcDbEntity
  8
VRSTVA_1
100
AcDbSpline
210
0.0
220
0.0
230
1.0
 70
    24
 71
     3
 72
     8
 73
     4
 74
     0
 42
0.0000000001
 43
0.0000000001
 40
0.0
 40
0.0
 40
0.0
 40
0.0
 40
1.0
 40
1.0
 40
1.0
 40
1.0
 10
24.4123
 20
-4.6144
 30
0.0
 10
24.4123
 20
-4.6144
 30
0.0
 10
29.7726
 20
-4.6144
 30
0.0
 10
29.7726
 20
-4.6144
 30
0.0
  0
SPLINE
  5
72
330
1F
100
AcDbEntity
  8
VRSTVA_1
  6
NEW_LINE1
100
AcDbSpline
210
0.0
220
0.0
230
1.0
 70
    24
 71
     3
 72
     8
 73
     4
 74
     0
 42
0.0000000001
 43
0.0000000001
 40
0.0
 40
0.0
 40
0.0
 40
0.0
 40
1.0
 40
1.0
 40
1.0
 40
1.0
 10
-16.031
 20
-12.8211
 30
0.0
 10
-16.031
 20
-12.8211
 30
0.0
 10
23.941
 20
-12.8211
 30
0.0
 10
23.941
 20
-12.8211
 30
0.0
  0
SPLINE
  5
74
330
1F
100
AcDbEntity
  8
VRSTVA_1
  6
NEW_LINE2
100
AcDbSpline
210
0.0
220
0.0
230
1.0
 70
    24
 71
     3
 72
     8
 73
     4
 74
     0
 42
0.0000000001
 43
0.0000000001
 40
0.0
 40
0.0
 40
0.0
 40
0.0
 40
1.0
 40
1.0
 40
1.0
 40
1.0
 10
-7.269
 20
-20.7618
 30
0.0
 10
-7.269
 20
-20.7618
 30
0.0
 10
-7.269
 20
15.9097
 30
0.0
 10
-7.269
 20
15.9097
 30
0.0
  0
SPLINE
  5
76
330
1F
100
AcDbEntity
  8
VRSTVA_1
100
AcDbSpline
210
0.0
220
0.0
230
1.0
 70
    24
 71
     3
 72
     8
 73
     4
 74
     0
 42
0.0000000001
 43
0.0000000001
 40
0.0
 40
0.0
 40
0.0
 40
0.0
 40
1.0
 40
1.0
 40
1.0
 40
1.0
 10
-26.5835
 20
5.498
 30
0.0
 10
-26.5835
 20
5.498
 30
0.0
 10
-27.5827
 20
-0.1687
 30
0.0
 10
-27.5827
 20
-0.1687
 30
0.0
  0
SPLINE
  5
77
330
1F
100
AcDbEntity
  8
VRSTVA_1
100
AcDbSpline
210
0.0
220
0.0
230
1.0
 70
    24
 71
     3
 72
     8
 73
     4
 74
     0
 42
0.0000000001
 43
0.0000000001
 40
0.0
 40
0.0
 40
0.0
 40
0.0
 40
1.0
 40
1.0
 40
1.0
 40
1.0
 10
-29.0462
 20
-0.3464
 30
0.0
 10
-29.0462
 20
-0.3464
 30
0.0
 10
-29.0462
 20
-2.067
 30
0.0
 10
-29.0462
 20
-2.067
 30
0.0
  0
SPLINE
  5
78
330
1F
100
AcDbEntity
  8
VRSTVA_1
100
AcDbSpline
210
0.0
220
0.0
230
1.0
 70
    24
 71
     3
 72
     8
 73
     4
 74
     0
 42
0.0000000001
 43
0.0000000001
 40
0.0
 40
0.0
 40
0.0
 40
0.0
 40
1.0
 40
1.0
 40
1.0
 40
1.0
 10
-27.7558
 20
-2.4972
 30
0.0
 10
-27.7558
 20
-2.4972
 30
0.0
 10
-27.7558
 20
-14.4261
 30
0.0
 10
-27.7558
 20
-14.4261
 30
0.0
  0
SPLINE
  5
79
330
1F
100
AcDbEntity
  8
VRSTVA_1
100
AcDbSpline
210
0.0
220
0.0
230
1.0
 70
    24
 71
     3
 72
     8
 73
     4
 74
     0
 42
0.0000000001
 43
0.0000000001
 40
0.0
 40
0.0
 40
0.0
 40
0.0
 40
1.0
 40
1.0
 40
1.0
 40
1.0
 10
-25.605
 20
6.9662
 30
0.0
 10
-25.605
 20
6.9662
 30
0.0
 10
-25.605
 20
5.6757
 30
0.0
 10
-25.605
 20
5.6757
 30
0.0
  0
SPLINE
  5
7A
330
1F
100
AcDbEntity
  8
VRSTVA_1
100
AcDbSpline
210
0.0
220
0.0
230
1.0
 70
    24
 71
     3
 72
     8
 73
     4
 74
     0
 42
0.0000000001
 43
0.0000000001
 40
0.0
 40
0.0
 40
0.0
 40
0.0
 40
1.0
 40
1.0
 40
1.0
 40
1.0
 10
-23.4542
 20
-24.0049
 30
0.0
 10
-23.4542
 20
-24.0049
 30
0.0
 10
-23.4542
 20
-16.6283
 30
0.0
 10
-23.4542
 20
-16.6283
 30
0.0
  0
SPLINE
  5
7B
330
1F
100
AcDbEntity
  8
VRSTVA_1
100
AcDbSpline
210
0.0
220
0.0
230
1.0
 70
    24
 71
     3
 72
     8
 73
     4
 74
     0
 42
0.0000000001
 43
0.0000000001
 40
0.0
 40
0.0
 40
0.0
 40
0.0
 40
1.0
 40
1.0
 40
1.0
 40
1.0
 10
-17.432
 20
12.128
 30
0.0
 10
-17.432
 20
12.128
 30
0.0
 10
-17.432
 20
6.9662
 30
0.0
 10
-17.432
 20
6.9662
 30
0.0
  0
SPLINE
  5
7C
330
1F
100
AcDbEntity
  8
VRSTVA_1
100
AcDbSpline
210
0.0
220
0.0
230
1.0
 70
    24
 71
     3
 72
     8
 73
     4
 74
     0
 42
0.0000000001
 43
0.0000000001
 40
0.0
 40
0.0
 40
0.0
 40
0.0
 40
1.0
 40
1.0
 40
1.0
 40
1.0
 10
-25.605
 20
6.9662
 30
0.0
 10
-25.605
 20
6.9662
 30
0.0
 10
10.9581
 20
6.9662
 30
0.0
 10
10.9581
 20
6.9662
 30
0.0
  0
SPLINE
  5
7D
330
1F
100
AcDbEntity
  8
VRSTVA_1
100
AcDbSpline
210
0.0
220
0.0
230
1.0
 70
    24
 71
     3
 72
     8
 73
     4
 74
     0
 42
0.0000000001
 43
0.0000000001
 40
0.0
 40
0.0
 40
0.0
 40
0.0
 40
1.0
 40
1.0
 40
1.0
 40
1.0
 10
11.7247
 20
5.6757
 30
0.0
 10
11.7247
 20
5.6757
 30
0.0
 10
-26.3717
 20
5.6757
 30
0.0
 10
-26.3717
 20
5.6757
 30
0.0
  0
SPLINE
  5
7E
330
1F
100
AcDbEntity
  8
VRSTVA_1
100
AcDbSpline
210
0.0
220
0.0
230
1.0
 70
    24
 71
     3
 72
     8
 73
     4
 74
     0
 42
0.0000000001
 43
0.0000000001
 40
0.0
 40
0.0
 40
0.0
 40
0.0
 40
1.0
 40
1.0
 40
1.0
 40
1.0
 10
11.9366
 20
5.498
 30
0.0
 10
11.9366
 20
5.498
 30
0.0
 10
-26.5835
 20
5.498
 30
0.0
 10
-26.5835
 20
5.498
 30
0.0
  0
SPLINE
  5
7F
330
1F
100
AcDbEntity
  8
VRSTVA_1
100
AcDbSpline
210
0.0
220
0.0
230
1.0
 70
    24
 71
     3
 72
     8
 73
     4
 74
     0
 42
0.0000000001
 43
0.0000000001
 40
0.0
 40
0.0
 40
0.0
 40
0.0
 40
1.0
 40
1.0
 40
1.0
 40
1.0
 10
-27.5827
 20
-0.1687
 30
0.0
 10
-27.5827
 20
-0.1687
 30
0.0
 10
12.9358
 20
-0.1687
 30
0.0
 10
12.9358
 20
-0.1687
 30
0.0
  0
SPLINE
  5
80
330
1F
100
AcDbEntity
  8
VRSTVA_1
100
AcDbSpline
210
0.0
220
0.0
230
1.0
 70
    24
 71
     3
 72
     8
 73
     4
 74
     0
 42
0.0000000001
 43
0.0000000001
 40
0.0
 40
0.0
 40
0.0
 40
0.0
 40
1.0
 40
1.0
 40
1.0
 40
1.0
 10
-29.0462
 20
-0.3464
 30
0.0
 10
-29.0462
 20
-0.3464
 30
0.0
 10
14.3993
 20
-0.3464
 30
0.0
 10
14.3993
 20
-0.3464
 30
0.0
  0
SPLINE
  5
81
330
1F
100
AcDbEntity
  8
VRSTVA_1
100
AcDbSpline
210
0.0
220
0.0
230
1.0
 70
    24
 71
     3
 72
     8
 73
     4
 74
     0
 42
0.0000000001
 43
0.0000000001
 40
0.0
 40
0.0
 40
0.0
 40
0.0
 40
1.0
 40
1.0
 40
1.0
 40
1.0
 10
22.5722
 20
-0.9917
 30
0.0
 10
22.5722
 20
-0.9917
 30
0.0
 10
17.4104
 20
-0.9917
 30
0.0
 10
17.4104
 20
-0.9917
 30
0.0
  0
SPLINE
  5
82
330
1F
100
AcDbEntity
  8
VRSTVA_1
100
AcDbSpline
210
0.0
220
0.0
230
1.0
 70
    24
 71
     3
 72
     8
 73
     4
 74
     0
 42
0.0000000001
 43
0.0000000001
 40
0.0
 40
0.0
 40
0.0
 40
0.0
 40
1.0
 40
1.0
 40
1.0
 40
1.0
 10
18.7009
 20
-1.023
 30
0.0
 10
18.7009
 20
-1.023
 30
0.0
 10
21.712
 20
-1.023
 30
0.0
 10
21.712
 20
-1.023
 30
0.0
  0
SPLINE
  5
83
330
1F
100
AcDbEntity
  8
VRSTVA_1
100
AcDbSpline
210
0.0
220
0.0
230
1.0
 70
    27
 71
     3
 72
     8
 73
     4
 74
     0
 42
0.0000000001
 43
0.0000000001
 40
0.0
 40
0.0
 40
0.0
 40
0.0
 40
1.0
 40
1.0
 40
1.0
 40
1.0
 10
22.5722
 20
-1.2067
 30
0.0
 10
22.5722
 20
-1.2067
 30
0.0
 10
22.5722
 20
-1.2067
 30
0.0
 10
22.5722
 20
-1.2067
 30
0.0
  0
SPLINE
  5
84
330
1F
100
AcDbEntity
  8
VRSTVA_1
100
AcDbSpline
210
0.0
220
0.0
230
1.0
 70
    24
 71
     3
 72
     8
 73
     4
 74
     0
 42
0.0000000001
 43
0.0000000001
 40
0.0
 40
0.0
 40
0.0
 40
0.0
 40
1.0
 40
1.0
 40
1.0
 40
1.0
 10
-29.0462
 20
-1.2067
 30
0.0
 10
-29.0462
 20
-1.2067
 30
0.0
 10
14.3993
 20
-1.2067
 30
0.0
 10
14.3993
 20
-1.2067
 30
0.0
  0
SPLINE
  5
85
330
1F
100
AcDbEntity
  8
VRSTVA_1
100
AcDbSpline
210
0.0
220
0.0
230
1.0
 70
    24
 71
     3
 72
     8
 73
     4
 74
     0
 42
0.0000000001
 43
0.0000000001
 40
0.0
 40
0.0
 40
0.0
 40
0.0
 40
1.0
 40
1.0
 40
1.0
 40
1.0
 10
21.712
 20
-1.2386
 30
0.0
 10
21.712
 20
-1.2386
 30
0.0
 10
18.7009
 20
-1.2386
 30
0.0
 10
18.7009
 20
-1.2386
 30
0.0
  0
SPLINE
  5
86
330
1F
100
AcDbEntity
  8
VRSTVA_1
100
AcDbSpline
210
0.0
220
0.0
230
1.0
 70
    24
 71
     3
 72
     8
 73
     4
 74
     0
 42
0.0000000001
 43
0.0000000001
 40
0.0
 40
0.0
 40
0.0
 40
0.0
 40
1.0
 40
1.0
 40
1.0
 40
1.0
 10
-29.0462
 20
-2.067
 30
0.0
 10
-29.0462
 20
-2.067
 30
0.0
 10
14.3993
 20
-2.067
 30
0.0
 10
14.3993
 20
-2.067
 30
0.0
  0
SPLINE
  5
87
330
1F
100
AcDbEntity
  8
VRSTVA_1
100
AcDbSpline
210
0.0
220
0.0
230
1.0
 70
    24
 71
     3
 72
     8
 73
     4
 74
     0
 42
0.0000000001
 43
0.0000000001
 40
0.0
 40
0.0
 40
0.0
 40
0.0
 40
1.0
 40
1.0
 40
1.0
 40
1.0
 10
15.2596
 20
-2.4972
 30
0.0
 10
15.2596
 20
-2.4972
 30
0.0
 10
17.4104
 20
-2.4972
 30
0.0
 10
17.4104
 20
-2.4972
 30
0.0
  0
SPLINE
  5
88
330
1F
100
AcDbEntity
  8
VRSTVA_1
100
AcDbSpline
210
0.0
220
0.0
230
1.0
 70
    24
 71
     3
 72
     8
 73
     4
 74
     0
 42
0.0000000001
 43
0.0000000001
 40
0.0
 40
0.0
 40
0.0
 40
0.0
 40
1.0
 40
1.0
 40
1.0
 40
1.0
 10
-27.7558
 20
-2.4972
 30
0.0
 10
-27.7558
 20
-2.4972
 30
0.0
 10
13.1089
 20
-2.4972
 30
0.0
 10
13.1089
 20
-2.4972
 30
0.0
  0
SPLINE
  5
89
330
1F
100
AcDbEntity
  8
VRSTVA_1
100
AcDbSpline
210
0.0
220
0.0
230
1.0
 70
    24
 71
     3
 72
     8
 73
     4
 74
     0
 42
0.0000000001
 43
0.0000000001
 40
0.0
 40
0.0
 40
0.0
 40
0.0
 40
1.0
 40
1.0
 40
1.0
 40
1.0
 10
17.4104
 20
-3.3575
 30
0.0
 10
17.4104
 20
-3.3575
 30
0.0
 10
15.2596
 20
-3.3575
 30
0.0
 10
15.2596
 20
-3.3575
 30
0.0
  0
SPLINE
  5
8A
330
1F
100
AcDbEntity
  8
VRSTVA_1
100
AcDbSpline
210
0.0
220
0.0
230
1.0
 70
    24
 71
     3
 72
     8
 73
     4
 74
     0
 42
0.0000000001
 43
0.0000000001
 40
0.0
 40
0.0
 40
0.0
 40
0.0
 40
1.0
 40
1.0
 40
1.0
 40
1.0
 10
13.539
 20
-3.3575
 30
0.0
 10
13.539
 20
-3.3575
 30
0.0
 10
15.2596
 20
-3.3575
 30
0.0
 10
15.2596
 20
-3.3575
 30
0.0
  0
SPLINE
  5
8B
330
1F
100
AcDbEntity
  8
VRSTVA_1
100
AcDbSpline
210
0.0
220
0.0
230
1.0
 70
    24
 71
     3
 72
     8
 73
     4
 74
     0
 42
0.0000000001
 43
0.0000000001
 40
0.0
 40
0.0
 40
0.0
 40
0.0
 40
1.0
 40
1.0
 40
1.0
 40
1.0
 10
18.7009
 20
-3.8702
 30
0.0
 10
18.7009
 20
-3.8702
 30
0.0
 10
21.712
 20
-3.8702
 30
0.0
 10
21.712
 20
-3.8702
 30
0.0
  0
SPLINE
  5
8C
330
1F
100
AcDbEntity
  8
VRSTVA_1
100
AcDbSpline
210
0.0
220
0.0
230
1.0
 70
    24
 71
     3
 72
     8
 73
     4
 74
     0
 42
0.0000000001
 43
0.0000000001
 40
0.0
 40
0.0
 40
0.0
 40
0.0
 40
1.0
 40
1.0
 40
1.0
 40
1.0
 10
18.7009
 20
-5.0868
 30
0.0
 10
18.7009
 20
-5.0868
 30
0.0
 10
21.712
 20
-5.0868
 30
0.0
 10
21.712
 20
-5.0868
 30
0.0
  0
SPLINE
  5
8D
330
1F
100
AcDbEntity
  8
VRSTVA_1
100
AcDbSpline
210
0.0
220
0.0
230
1.0
 70
    24
 71
     3
 72
     8
 73
     4
 74
     0
 42
0.0000000001
 43
0.0000000001
 40
0.0
 40
0.0
 40
0.0
 40
0.0
 40
1.0
 40
1.0
 40
1.0
 40
1.0
 10
21.712
 20
-5.2393
 30
0.0
 10
21.712
 20
-5.2393
 30
0.0
 10
18.7009
 20
-5.2393
 30
0.0
 10
18.7009
 20
-5.2393
 30
0.0
  0
SPLINE
  5
8E
330
1F
100
AcDbEntity
  8
VRSTVA_1
100
AcDbSpline
210
0.0
220
0.0
230
1.0
 70
    24
 71
     3
 72
     8
 73
     4
 74
     0
 42
0.0000000001
 43
0.0000000001
 40
0.0
 40
0.0
 40
0.0
 40
0.0
 40
1.0
 40
1.0
 40
1.0
 40
1.0
 10
2.7852
 20
12.128
 30
0.0
 10
2.7852
 20
12.128
 30
0.0
 10
2.7852
 20
6.9662
 30
0.0
 10
2.7852
 20
6.9662
 30
0.0
  0
SPLINE
  5
8F
330
1F
100
AcDbEntity
  8
VRSTVA_1
100
AcDbSpline
210
0.0
220
0.0
230
1.0
 70
    24
 71
     3
 72
     8
 73
     4
 74
     0
 42
0.0000000001
 43
0.0000000001
 40
0.0
 40
0.0
 40
0.0
 40
0.0
 40
1.0
 40
1.0
 40
1.0
 40
1.0
 10
18.7009
 20
-11.9606
 30
0.0
 10
18.7009
 20
-11.9606
 30
0.0
 10
21.712
 20
-11.9606
 30
0.0
 10
21.712
 20
-11.9606
 30
0.0
  0
SPLINE
  5
90
330
1F
100
AcDbEntity
  8
VRSTVA_1
100
AcDbSpline
210
0.0
220
0.0
230
1.0
 70
    24
 71
     3
 72
     8
 73
     4
 74
     0
 42
0.0000000001
 43
0.0000000001
 40
0.0
 40
0.0
 40
0.0
 40
0.0
 40
1.0
 40
1.0
 40
1.0
 40
1.0
 10
18.7009
 20
-13.6812
 30
0.0
 10
18.7009
 20
-13.6812
 30
0.0
 10
21.712
 20
-13.6812
 30
0.0
 10
21.712
 20
-13.6812
 30
0.0
  0
SPLINE
  5
91
330
1F
100
AcDbEntity
  8
VRSTVA_1
100
AcDbSpline
210
0.0
220
0.0
230
1.0
 70
    24
 71
     3
 72
     8
 73
     4
 74
     0
 42
0.0000000001
 43
0.0000000001
 40
0.0
 40
0.0
 40
0.0
 40
0.0
 40
1.0
 40
1.0
 40
1.0
 40
1.0
 10
8.8073
 20
-24.0049
 30
0.0
 10
8.8073
 20
-24.0049
 30
0.0
 10
8.8073
 20
-22.4686
 30
0.0
 10
8.8073
 20
-22.4686
 30
0.0
  0
SPLINE
  5
92
330
1F
100
AcDbEntity
  8
VRSTVA_1
100
AcDbSpline
210
0.0
220
0.0
230
1.0
 70
    24
 71
     3
 72
     8
 73
     4
 74
     0
 42
0.0000000001
 43
0.0000000001
 40
0.0
 40
0.0
 40
0.0
 40
0.0
 40
1.0
 40
1.0
 40
1.0
 40
1.0
 10
-27.7558
 20
-14.4261
 30
0.0
 10
-27.7558
 20
-14.4261
 30
0.0
 10
12.3914
 20
-21.058
 30
0.0
 10
12.3914
 20
-21.058
 30
0.0
  0
SPLINE
  5
93
330
1F
100
AcDbEntity
  8
VRSTVA_1
100
AcDbSpline
210
0.0
220
0.0
230
1.0
 70
    24
 71
     3
 72
     8
 73
     4
 74
     0
 42
0.0000000001
 43
0.0000000001
 40
0.0
 40
0.0
 40
0.0
 40
0.0
 40
1.0
 40
1.0
 40
1.0
 40
1.0
 10
-26.6894
 20
-15.6969
 30
0.0
 10
-26.6894
 20
-15.6969
 30
0.0
 10
11.5943
 20
-22.4474
 30
0.0
 10
11.5943
 20
-22.4474
 30
0.0
  0
SPLINE
  5
94
330
1F
100
AcDbEntity
  8
VRSTVA_1
100
AcDbSpline
210
0.0
220
0.0
230
1.0
 70
    24
 71
     3
 72
     8
 73
     4
 74
     0
 42
0.0000000001
 43
0.0000000001
 40
0.0
 40
0.0
 40
0.0
 40
0.0
 40
1.0
 40
1.0
 40
1.0
 40
1.0
 10
-23.4542
 20
-16.6283
 30
0.0
 10
-23.4542
 20
-16.6283
 30
0.0
 10
8.8073
 20
-22.4686
 30
0.0
 10
8.8073
 20
-22.4686
 30
0.0
  0
SPLINE
  5
95
330
1F
100
AcDbEntity
  8
VRSTVA_1
100
AcDbSpline
210
0.0
220
0.0
230
1.0
 70
    24
 71
     3
 72
     8
 73
     4
 74
     0
 42
0.0000000001
 43
0.0000000001
 40
0.0
 40
0.0
 40
0.0
 40
0.0
 40
1.0
 40
1.0
 40
1.0
 40
1.0
 10
10.9581
 20
6.9662
 30
0.0
 10
10.9581
 20
6.9662
 30
0.0
 10
10.9581
 20
5.6757
 30
0.0
 10
10.9581
 20
5.6757
 30
0.0
  0
SPLINE
  5
96
330
1F
100
AcDbEntity
  8
VRSTVA_1
100
AcDbSpline
210
0.0
220
0.0
230
1.0
 70
    24
 71
     3
 72
     8
 73
     4
 74
     0
 42
0.0000000001
 43
0.0000000001
 40
0.0
 40
0.0
 40
0.0
 40
0.0
 40
1.0
 40
1.0
 40
1.0
 40
1.0
 10
21.712
 20
-20.4024
 30
0.0
 10
21.712
 20
-20.4024
 30
0.0
 10
18.7009
 20
-20.4024
 30
0.0
 10
18.7009
 20
-20.4024
 30
0.0
  0
SPLINE
  5
97
330
1F
100
AcDbEntity
  8
VRSTVA_1
100
AcDbSpline
210
0.0
220
0.0
230
1.0
 70
    24
 71
     3
 72
     8
 73
     4
 74
     0
 42
0.0000000001
 43
0.0000000001
 40
0.0
 40
0.0
 40
0.0
 40
0.0
 40
1.0
 40
1.0
 40
1.0
 40
1.0
 10
18.7009
 20
-20.5549
 30
0.0
 10
18.7009
 20
-20.5549
 30
0.0
 10
21.712
 20
-20.5549
 30
0.0
 10
21.712
 20
-20.5549
 30
0.0
  0
SPLINE
  5
98
330
1F
100
AcDbEntity
  8
VRSTVA_1
100
AcDbSpline
210
0.0
220
0.0
230
1.0
 70
    24
 71
     3
 72
     8
 73
     4
 74
     0
 42
0.0000000001
 43
0.0000000001
 40
0.0
 40
0.0
 40
0.0
 40
0.0
 40
1.0
 40
1.0
 40
1.0
 40
1.0
 10
18.7009
 20
-21.7716
 30
0.0
 10
18.7009
 20
-21.7716
 30
0.0
 10
21.712
 20
-21.7716
 30
0.0
 10
21.712
 20
-21.7716
 30
0.0
  0
SPLINE
  5
99
330
1F
100
AcDbEntity
  8
VRSTVA_1
100
AcDbSpline
210
0.0
220
0.0
230
1.0
 70
    24
 71
     3
 72
     8
 73
     4
 74
     0
 42
0.0000000001
 43
0.0000000001
 40
0.0
 40
0.0
 40
0.0
 40
0.0
 40
1.0
 40
1.0
 40
1.0
 40
1.0
 10
17.4104
 20
-22.2842
 30
0.0
 10
17.4104
 20
-22.2842
 30
0.0
 10
15.2596
 20
-22.2842
 30
0.0
 10
15.2596
 20
-22.2842
 30
0.0
  0
SPLINE
  5
9A
330
1F
100
AcDbEntity
  8
VRSTVA_1
100
AcDbSpline
210
0.0
220
0.0
230
1.0
 70
    24
 71
     3
 72
     8
 73
     4
 74
     0
 42
0.0000000001
 43
0.0000000001
 40
0.0
 40
0.0
 40
0.0
 40
0.0
 40
1.0
 40
1.0
 40
1.0
 40
1.0
 10
12.59
 20
-22.2842
 30
0.0
 10
12.59
 20
-22.2842
 30
0.0
 10
15.2596
 20
-22.2842
 30
0.0
 10
15.2596
 20
-22.2842
 30
0.0
  0
SPLINE
  5
9B
330
1F
100
AcDbEntity
  8
VRSTVA_1
100
AcDbSpline
210
0.0
220
0.0
230
1.0
 70
    24
 71
     3
 72
     8
 73
     4
 74
     0
 42
0.0000000001
 43
0.0000000001
 40
0.0
 40
0.0
 40
0.0
 40
0.0
 40
1.0
 40
1.0
 40
1.0
 40
1.0
 10
11.9366
 20
5.498
 30
0.0
 10
11.9366
 20
5.498
 30
0.0
 10
12.9358
 20
-0.1687
 30
0.0
 10
12.9358
 20
-0.1687
 30
0.0
  0
SPLINE
  5
9C
330
1F
100
AcDbEntity
  8
VRSTVA_1
100
AcDbSpline
210
0.0
220
0.0
230
1.0
 70
    24
 71
     3
 72
     8
 73
     4
 74
     0
 42
0.0000000001
 43
0.0000000001
 40
0.0
 40
0.0
 40
0.0
 40
0.0
 40
1.0
 40
1.0
 40
1.0
 40
1.0
 10
13.1089
 20
-2.4972
 30
0.0
 10
13.1089
 20
-2.4972
 30
0.0
 10
13.1089
 20
-2.9274
 30
0.0
 10
13.1089
 20
-2.9274
 30
0.0
  0
SPLINE
  5
9D
330
1F
100
AcDbEntity
  8
VRSTVA_1
100
AcDbSpline
210
0.0
220
0.0
230
1.0
 70
    24
 71
     3
 72
     8
 73
     4
 74
     0
 42
0.0000000001
 43
0.0000000001
 40
0.0
 40
0.0
 40
0.0
 40
0.0
 40
1.0
 40
1.0
 40
1.0
 40
1.0
 10
14.3993
 20
-0.3464
 30
0.0
 10
14.3993
 20
-0.3464
 30
0.0
 10
14.3993
 20
-2.067
 30
0.0
 10
14.3993
 20
-2.067
 30
0.0
  0
SPLINE
  5
9E
330
1F
100
AcDbEntity
  8
VRSTVA_1
100
AcDbSpline
210
0.0
220
0.0
230
1.0
 70
    24
 71
     3
 72
     8
 73
     4
 74
     0
 42
0.0000000001
 43
0.0000000001
 40
0.0
 40
0.0
 40
0.0
 40
0.0
 40
1.0
 40
1.0
 40
1.0
 40
1.0
 10
15.2596
 20
-23.1446
 30
0.0
 10
15.2596
 20
-23.1446
 30
0.0
 10
17.4104
 20
-23.1446
 30
0.0
 10
17.4104
 20
-23.1446
 30
0.0
  0
SPLINE
  5
9F
330
1F
100
AcDbEntity
  8
VRSTVA_1
100
AcDbSpline
210
0.0
220
0.0
230
1.0
 70
    24
 71
     3
 72
     8
 73
     4
 74
     0
 42
0.0000000001
 43
0.0000000001
 40
0.0
 40
0.0
 40
0.0
 40
0.0
 40
1.0
 40
1.0
 40
1.0
 40
1.0
 10
-23.4542
 20
-24.0049
 30
0.0
 10
-23.4542
 20
-24.0049
 30
0.0
 10
8.8073
 20
-24.0049
 30
0.0
 10
8.8073
 20
-24.0049
 30
0.0
  0
SPLINE
  5
A0
330
1F
100
AcDbEntity
  8
VRSTVA_1
100
AcDbSpline
210
0.0
220
0.0
230
1.0
 70
    24
 71
     3
 72
     8
 73
     4
 74
     0
 42
0.0000000001
 43
0.0000000001
 40
0.0
 40
0.0
 40
0.0
 40
0.0
 40
1.0
 40
1.0
 40
1.0
 40
1.0
 10
21.712
 20
-24.4031
 30
0.0
 10
21.712
 20
-24.4031
 30
0.0
 10
18.7009
 20
-24.4031
 30
0.0
 10
18.7009
 20
-24.4031
 30
0.0
  0
SPLINE
  5
A1
330
1F
100
AcDbEntity
  8
VRSTVA_1
100
AcDbSpline
210
0.0
220
0.0
230
1.0
 70
    27
 71
     3
 72
     8
 73
     4
 74
     0
 42
0.0000000001
 43
0.0000000001
 40
0.0
 40
0.0
 40
0.0
 40
0.0
 40
1.0
 40
1.0
 40
1.0
 40
1.0
 10
22.5722
 20
-24.435
 30
0.0
 10
22.5722
 20
-24.435
 30
0.0
 10
22.5722
 20
-24.435
 30
0.0
 10
22.5722
 20
-24.435
 30
0.0
  0
SPLINE
  5
A2
330
1F
100
AcDbEntity
  8
VRSTVA_1
100
AcDbSpline
210
0.0
220
0.0
230
1.0
 70
    24
 71
     3
 72
     8
 73
     4
 74
     0
 42
0.0000000001
 43
0.0000000001
 40
0.0
 40
0.0
 40
0.0
 40
0.0
 40
1.0
 40
1.0
 40
1.0
 40
1.0
 10
18.7009
 20
-24.6188
 30
0.0
 10
18.7009
 20
-24.6188
 30
0.0
 10
21.712
 20
-24.6188
 30
0.0
 10
21.712
 20
-24.6188
 30
0.0
  0
SPLINE
  5
A3
330
1F
100
AcDbEntity
  8
VRSTVA_1
100
AcDbSpline
210
0.0
220
0.0
230
1.0
 70
    24
 71
     3
 72
     8
 73
     4
 74
     0
 42
0.0000000001
 43
0.0000000001
 40
0.0
 40
0.0
 40
0.0
 40
0.0
 40
1.0
 40
1.0
 40
1.0
 40
1.0
 10
22.5722
 20
-24.6501
 30
0.0
 10
22.5722
 20
-24.6501
 30
0.0
 10
17.4104
 20
-24.6501
 30
0.0
 10
17.4104
 20
-24.6501
 30
0.0
  0
SPLINE
  5
A4
330
1F
100
AcDbEntity
  8
VRSTVA_1
100
AcDbSpline
210
0.0
220
0.0
230
1.0
 70
    24
 71
     3
 72
     8
 73
     4
 74
     0
 42
0.0000000001
 43
0.0000000001
 40
0.0
 40
0.0
 40
0.0
 40
0.0
 40
1.0
 40
1.0
 40
1.0
 40
1.0
 10
15.2596
 20
-23.1446
 30
0.0
 10
15.2596
 20
-23.1446
 30
0.0
 10
15.2596
 20
-2.4972
 30
0.0
 10
15.2596
 20
-2.4972
 30
0.0
  0
SPLINE
  5
A5
330
1F
100
AcDbEntity
  8
VRSTVA_1
100
AcDbSpline
210
0.0
220
0.0
230
1.0
 70
    24
 71
     3
 72
     8
 73
     4
 74
     0
 42
0.0000000001
 43
0.0000000001
 40
0.0
 40
0.0
 40
0.0
 40
0.0
 40
1.0
 40
1.0
 40
1.0
 40
1.0
 10
-22.1637
 20
-25.2953
 30
0.0
 10
-22.1637
 20
-25.2953
 30
0.0
 10
7.5169
 20
-25.2953
 30
0.0
 10
7.5169
 20
-25.2953
 30
0.0
  0
SPLINE
  5
A6
330
1F
100
AcDbEntity
  8
VRSTVA_1
100
AcDbSpline
210
0.0
220
0.0
230
1.0
 70
    24
 71
     3
 72
     8
 73
     4
 74
     0
 42
0.0000000001
 43
0.0000000001
 40
0.0
 40
0.0
 40
0.0
 40
0.0
 40
1.0
 40
1.0
 40
1.0
 40
1.0
 10
17.4104
 20
-24.6501
 30
0.0
 10
17.4104
 20
-24.6501
 30
0.0
 10
17.4104
 20
-0.9917
 30
0.0
 10
17.4104
 20
-0.9917
 30
0.0
  0
SPLINE
  5
A7
330
1F
100
AcDbEntity
  8
VRSTVA_1
100
AcDbSpline
210
0.0
220
0.0
230
1.0
 70
    24
 71
     3
 72
     8
 73
     4
 74
     0
 42
0.0000000001
 43
0.0000000001
 40
0.0
 40
0.0
 40
0.0
 40
0.0
 40
1.0
 40
1.0
 40
1.0
 40
1.0
 10
18.7009
 20
-20.5549
 30
0.0
 10
18.7009
 20
-20.5549
 30
0.0
 10
18.7009
 20
-13.6812
 30
0.0
 10
18.7009
 20
-13.6812
 30
0.0
  0
SPLINE
  5
A8
330
1F
100
AcDbEntity
  8
VRSTVA_1
100
AcDbSpline
210
0.0
220
0.0
230
1.0
 70
    24
 71
     3
 72
     8
 73
     4
 74
     0
 42
0.0000000001
 43
0.0000000001
 40
0.0
 40
0.0
 40
0.0
 40
0.0
 40
1.0
 40
1.0
 40
1.0
 40
1.0
 10
18.7009
 20
-24.6188
 30
0.0
 10
18.7009
 20
-24.6188
 30
0.0
 10
18.7009
 20
-21.7716
 30
0.0
 10
18.7009
 20
-21.7716
 30
0.0
  0
SPLINE
  5
A9
330
1F
100
AcDbEntity
  8
VRSTVA_1
100
AcDbSpline
210
0.0
220
0.0
230
1.0
 70
    24
 71
     3
 72
     8
 73
     4
 74
     0
 42
0.0000000001
 43
0.0000000001
 40
0.0
 40
0.0
 40
0.0
 40
0.0
 40
1.0
 40
1.0
 40
1.0
 40
1.0
 10
18.7009
 20
-5.0868
 30
0.0
 10
18.7009
 20
-5.0868
 30
0.0
 10
18.7009
 20
-11.9606
 30
0.0
 10
18.7009
 20
-11.9606
 30
0.0
  0
SPLINE
  5
AA
330
1F
100
AcDbEntity
  8
VRSTVA_1
100
AcDbSpline
210
0.0
220
0.0
230
1.0
 70
    24
 71
     3
 72
     8
 73
     4
 74
     0
 42
0.0000000001
 43
0.0000000001
 40
0.0
 40
0.0
 40
0.0
 40
0.0
 40
1.0
 40
1.0
 40
1.0
 40
1.0
 10
18.7009
 20
-1.023
 30
0.0
 10
18.7009
 20
-1.023
 30
0.0
 10
18.7009
 20
-3.8702
 30
0.0
 10
18.7009
 20
-3.8702
 30
0.0
  0
SPLINE
  5
AB
330
1F
100
AcDbEntity
  8
VRSTVA_1
100
AcDbSpline
210
0.0
220
0.0
230
1.0
 70
    24
 71
     3
 72
     8
 73
     4
 74
     0
 42
0.0000000001
 43
0.0000000001
 40
0.0
 40
0.0
 40
0.0
 40
0.0
 40
1.0
 40
1.0
 40
1.0
 40
1.0
 10
21.712
 20
-20.5549
 30
0.0
 10
21.712
 20
-20.5549
 30
0.0
 10
21.712
 20
-20.4024
 30
0.0
 10
21.712
 20
-20.4024
 30
0.0
  0
SPLINE
  5
AC
330
1F
100
AcDbEntity
  8
VRSTVA_1
100
AcDbSpline
210
0.0
220
0.0
230
1.0
 70
    24
 71
     3
 72
     8
 73
     4
 74
     0
 42
0.0000000001
 43
0.0000000001
 40
0.0
 40
0.0
 40
0.0
 40
0.0
 40
1.0
 40
1.0
 40
1.0
 40
1.0
 10
21.712
 20
-24.6188
 30
0.0
 10
21.712
 20
-24.6188
 30
0.0
 10
21.712
 20
-24.4031
 30
0.0
 10
21.712
 20
-24.4031
 30
0.0
  0
SPLINE
  5
AD
330
1F
100
AcDbEntity
  8
VRSTVA_1
100
AcDbSpline
210
0.0
220
0.0
230
1.0
 70
    24
 71
     3
 72
     8
 73
     4
 74
     0
 42
0.0000000001
 43
0.0000000001
 40
0.0
 40
0.0
 40
0.0
 40
0.0
 40
1.0
 40
1.0
 40
1.0
 40
1.0
 10
21.712
 20
-5.0868
 30
0.0
 10
21.712
 20
-5.0868
 30
0.0
 10
21.712
 20
-5.2393
 30
0.0
 10
21.712
 20
-5.2393
 30
0.0
  0
SPLINE
  5
AE
330
1F
100
AcDbEntity
  8
VRSTVA_1
100
AcDbSpline
210
0.0
220
0.0
230
1.0
 70
    24
 71
     3
 72
     8
 73
     4
 74
     0
 42
0.0000000001
 43
0.0000000001
 40
0.0
 40
0.0
 40
0.0
 40
0.0
 40
1.0
 40
1.0
 40
1.0
 40
1.0
 10
21.712
 20
-1.023
 30
0.0
 10
21.712
 20
-1.023
 30
0.0
 10
21.712
 20
-1.2386
 30
0.0
 10
21.712
 20
-1.2386
 30
0.0
  0
SPLINE
  5
AF
330
1F
100
AcDbEntity
  8
VRSTVA_1
100
AcDbSpline
210
0.0
220
0.0
230
1.0
 70
    24
 71
     3
 72
     8
 73
     4
 74
     0
 42
0.0000000001
 43
0.0000000001
 40
0.0
 40
0.0
 40
0.0
 40
0.0
 40
1.0
 40
1.0
 40
1.0
 40
1.0
 10
22.5722
 20
-24.6501
 30
0.0
 10
22.5722
 20
-24.6501
 30
0.0
 10
22.5722
 20
-0.9917
 30
0.0
 10
22.5722
 20
-0.9917
 30
0.0
  0
SPLINE
  5
B0
330
1F
100
AcDbEntity
  8
VRSTVA_1
100
AcDbSpline
210
0.0
220
0.0
230
1.0
 70
    24
 71
     3
 72
     8
 73
     4
 74
     0
 42
0.0000000001
 43
0.0000000001
 40
0.0
 40
0.0
 40
0.0
 40
0.0
 40
1.0
 40
1.0
 40
1.0
 40
1.0
 10
23.4326
 20
-23.5747
 30
0.0
 10
23.4326
 20
-23.5747
 30
0.0
 10
23.4326
 20
-2.067
 30
0.0
 10
23.4326
 20
-2.067
 30
0.0
  0
SPLINE
  5
B1
330
1F
100
AcDbEntity
  8
VRSTVA_1
100
AcDbSpline
210
0.0
220
0.0
230
1.0
 70
    24
 71
     3
 72
     8
 73
     4
 74
     0
 42
0.0000000001
 43
0.0000000001
 40
0.0
 40
0.0
 40
0.0
 40
0.0
 40
1.0
 40
1.0
 40
1.0
 40
1.0
 10
7.6365
 20
19.2432
 30
0.0
 10
7.6365
 20
19.2432
 30
0.0
 10
7.6365
 20
23.3608
 30
0.0
 10
7.6365
 20
23.3608
 30
0.0
  0
SPLINE
  5
B2
330
1F
100
AcDbEntity
  8
VRSTVA_1
100
AcDbSpline
210
0.0
220
0.0
230
1.0
 70
    24
 71
     3
 72
     8
 73
     4
 74
     0
 42
0.0000000001
 43
0.0000000001
 40
0.0
 40
0.0
 40
0.0
 40
0.0
 40
1.0
 40
1.0
 40
1.0
 40
1.0
 10
-22.4518
 20
19.4423
 30
0.0
 10
-22.4518
 20
19.4423
 30
0.0
 10
-22.4518
 20
23.1954
 30
0.0
 10
-22.4518
 20
23.1954
 30
0.0
  0
SPLINE
  5
B3
330
1F
100
AcDbEntity
  8
VRSTVA_1
100
AcDbSpline
210
0.0
220
0.0
230
1.0
 70
    24
 71
     3
 72
     8
 73
     4
 74
     0
 42
0.0000000001
 43
0.0000000001
 40
0.0
 40
0.0
 40
0.0
 40
0.0
 40
1.0
 40
1.0
 40
1.0
 40
1.0
 10
-26.9494
 20
7.0537
 30
0.0
 10
-26.9494
 20
7.0537
 30
0.0
 10
-37.4609
 20
7.0537
 30
0.0
 10
-37.4609
 20
7.0537
 30
0.0
  0
SPLINE
  5
B4
330
1F
100
AcDbEntity
  8
VRSTVA_1
100
AcDbSpline
210
0.0
220
0.0
230
1.0
 70
    24
 71
     3
 72
     8
 73
     4
 74
     0
 42
0.0000000001
 43
0.0000000001
 40
0.0
 40
0.0
 40
0.0
 40
0.0
 40
1.0
 40
1.0
 40
1.0
 40
1.0
 10
-23.8314
 20
-25.3796
 30
0.0
 10
-23.8314
 20
-25.3796
 30
0.0
 10
-37.4609
 20
-25.3796
 30
0.0
 10
-37.4609
 20
-25.3796
 30
0.0
  0
SPLINE
  5
B5
330
1F
100
AcDbEntity
  8
VRSTVA_1
100
AcDbSpline
210
0.0
220
0.0
230
1.0
 70
    24
 71
     3
 72
     8
 73
     4
 74
     0
 42
0.0000000001
 43
0.0000000001
 40
0.0
 40
0.0
 40
0.0
 40
0.0
 40
1.0
 40
1.0
 40
1.0
 40
1.0
 10
-6.9168
 20
6.9662
 30
0.0
 10
-6.9168
 20
6.9662
 30
0.0
 10
2.8246
 20
7.572
 30
0.0
 10
2.8246
 20
7.572
 30
0.0
  0
SPLINE
  5
B6
330
1F
100
AcDbEntity
  8
VRSTVA_1
100
AcDbSpline
210
0.0
220
0.0
230
1.0
 70
    24
 71
     3
 72
     8
 73
     4
 74
     0
 42
0.0000000001
 43
0.0000000001
 40
0.0
 40
0.0
 40
0.0
 40
0.0
 40
1.0
 40
1.0
 40
1.0
 40
1.0
 10
-17.4742
 20
11.4703
 30
0.0
 10
-17.4742
 20
11.4703
 30
0.0
 10
-6.8979
 20
12.128
 30
0.0
 10
-6.8979
 20
12.128
 30
0.0
  0
SPLINE
  5
B7
330
1F
100
AcDbEntity
  8
VRSTVA_1
100
AcDbSpline
210
0.0
220
0.0
230
1.0
 70
    24
 71
     3
 72
     8
 73
     4
 74
     0
 42
0.0000000001
 43
0.0000000001
 40
0.0
 40
0.0
 40
0.0
 40
0.0
 40
1.0
 40
1.0
 40
1.0
 40
1.0
 10
-17.4789
 20
10.8263
 30
0.0
 10
-17.4789
 20
10.8263
 30
0.0
 10
2.6786
 20
12.0799
 30
0.0
 10
2.6786
 20
12.0799
 30
0.0
  0
SPLINE
  5
B8
330
1F
100
AcDbEntity
  8
VRSTVA_1
100
AcDbSpline
210
0.0
220
0.0
230
1.0
 70
    24
 71
     3
 72
     8
 73
     4
 74
     0
 42
0.0000000001
 43
0.0000000001
 40
0.0
 40
0.0
 40
0.0
 40
0.0
 40
1.0
 40
1.0
 40
1.0
 40
1.0
 10
-17.4389
 20
10.1823
 30
0.0
 10
-17.4389
 20
10.1823
 30
0.0
 10
2.7187
 20
11.4359
 30
0.0
 10
2.7187
 20
11.4359
 30
0.0
  0
SPLINE
  5
B9
330
1F
100
AcDbEntity
  8
VRSTVA_1
100
AcDbSpline
210
0.0
220
0.0
230
1.0
 70
    24
 71
     3
 72
     8
 73
     4
 74
     0
 42
0.0000000001
 43
0.0000000001
 40
0.0
 40
0.0
 40
0.0
 40
0.0
 40
1.0
 40
1.0
 40
1.0
 40
1.0
 10
-17.3989
 20
9.5383
 30
0.0
 10
-17.3989
 20
9.5383
 30
0.0
 10
2.7587
 20
10.7919
 30
0.0
 10
2.7587
 20
10.7919
 30
0.0
  0
SPLINE
  5
BA
330
1F
100
AcDbEntity
  8
VRSTVA_1
100
AcDbSpline
210
0.0
220
0.0
230
1.0
 70
    24
 71
     3
 72
     8
 73
     4
 74
     0
 42
0.0000000001
 43
0.0000000001
 40
0.0
 40
0.0
 40
0.0
 40
0.0
 40
1.0
 40
1.0
 40
1.0
 40
1.0
 10
-17.4036
 20
8.8943
 30
0.0
 10
-17.4036
 20
8.8943
 30
0.0
 10
2.754
 20
10.1479
 30
0.0
 10
2.754
 20
10.1479
 30
0.0
  0
SPLINE
  5
BB
330
1F
100
AcDbEntity
  8
VRSTVA_1
100
AcDbSpline
210
0.0
220
0.0
230
1.0
 70
    24
 71
     3
 72
     8
 73
     4
 74
     0
 42
0.0000000001
 43
0.0000000001
 40
0.0
 40
0.0
 40
0.0
 40
0.0
 40
1.0
 40
1.0
 40
1.0
 40
1.0
 10
-17.3636
 20
8.2504
 30
0.0
 10
-17.3636
 20
8.2504
 30
0.0
 10
2.794
 20
9.5039
 30
0.0
 10
2.794
 20
9.5039
 30
0.0
  0
SPLINE
  5
BC
330
1F
100
AcDbEntity
  8
VRSTVA_1
100
AcDbSpline
210
0.0
220
0.0
230
1.0
 70
    24
 71
     3
 72
     8
 73
     4
 74
     0
 42
0.0000000001
 43
0.0000000001
 40
0.0
 40
0.0
 40
0.0
 40
0.0
 40
1.0
 40
1.0
 40
1.0
 40
1.0
 10
-17.4131
 20
7.6064
 30
0.0
 10
-17.4131
 20
7.6064
 30
0.0
 10
2.7445
 20
8.86
 30
0.0
 10
2.7445
 20
8.86
 30
0.0
  0
SPLINE
  5
BD
330
1F
100
AcDbEntity
  8
VRSTVA_1
100
AcDbSpline
210
0.0
220
0.0
230
1.0
 70
    24
 71
     3
 72
     8
 73
     4
 74
     0
 42
0.0000000001
 43
0.0000000001
 40
0.0
 40
0.0
 40
0.0
 40
0.0
 40
1.0
 40
1.0
 40
1.0
 40
1.0
 10
-17.3731
 20
6.9624
 30
0.0
 10
-17.3731
 20
6.9624
 30
0.0
 10
2.7845
 20
8.2159
 30
0.0
 10
2.7845
 20
8.2159
 30
0.0
  0
SPLINE
  5
BE
330
1F
100
AcDbEntity
  8
VRSTVA_1
 62
   250
100
AcDbSpline
210
0.0
220
0.0
230
1.0
 70
    24
 71
     3
 72
     8
 73
     4
 74
     0
 42
0.0000000001
 43
0.0000000001
 40
0.0
 40
0.0
 40
0.0
 40
0.0
 40
1.0
 40
1.0
 40
1.0
 40
1.0
 10
-37.2027
 20
6.5171
 30
0.0
 10
-37.2027
 20
6.5171
 30
0.0
 10
-37.2027
 20
-24.7649
 30
0.0
 10
-37.2027
 20
-24.7649
 30
0.0
  0
SPLINE
  5
BF
330
1F
100
AcDbEntity
  8
VRSTVA_1
 62
   250
100
AcDbSpline
210
0.0
220
0.0
230
1.0
 70
    24
 71
     3
 72
     8
 73
     4
 74
     0
 42
0.0000000001
 43
0.0000000001
 40
0.0
 40
0.0
 40
0.0
 40
0.0
 40
1.0
 40
1.0
 40
1.0
 40
1.0
 10
7.6907
 20
22.666
 30
0.0
 10
7.6907
 20
22.666
 30
0.0
 10
-21.5975
 20
22.666
 30
0.0
 10
-21.5975
 20
22.666
 30
0.0
  0
SPLINE
  5
C0
330
1F
100
AcDbEntity
  8
VRSTVA_1
 62
   250
100
AcDbSpline
210
0.0
220
0.0
230
1.0
 70
    11
 71
     3
 72
    84
 73
    80
 74
     0
 42
0.0000000001
 43
0.0000000001
 40
0.0
 40
0.0
 40
0.0
 40
0.0
 40
0.0476190476190476
 40
0.0476190476190476
 40
0.0476190476190476
 40
0.0476190476190476
 40
0.0952380952380952
 40
0.0952380952380952
 40
0.0952380952380952
 40
0.0952380952380952
 40
0.1428571428571428
 40
0.1428571428571428
 40
0.1428571428571428
 40
0.1428571428571428
 40
0.1904761904761905
 40
0.1904761904761905
 40
0.1904761904761905
 40
0.1904761904761905
 40
0.2380952380952381
 40
0.2380952380952381
 40
0.2380952380952381
 40
0.2380952380952381
 40
0.2857142857142857
 40
0.2857142857142857
 40
0.2857142857142857
 40
0.2857142857142857
 40
0.3333333333333333
 40
0.3333333333333333
 40
0.3333333333333333
 40
0.3333333333333333
 40
0.3809523809523809
 40
0.3809523809523809
 40
0.3809523809523809
 40
0.3809523809523809
 40
0.4285714285714285
 40
0.4285714285714285
 40
0.4285714285714285
 40
0.4285714285714285
 40
0.4761904761904762
 40
0.4761904761904762
 40
0.4761904761904762
 40
0.4761904761904762
 40
0.5238095238095238
 40
0.5238095238095238
 40
0.5238095238095238
 40
0.5238095238095238
 40
0.5714285714285714
 40
0.5714285714285714
 40
0.5714285714285714
 40
0.5714285714285714
 40
0.6190476190476191
 40
0.6190476190476191
 40
0.6190476190476191
 40
0.6190476190476191
 40
0.6666666666666666
 40
0.6666666666666666
 40
0.6666666666666666
 40
0.6666666666666666
 40
0.7142857142857143
 40
0.7142857142857143
 40
0.7142857142857143
 40
0.7142857142857143
 40
0.7619047619047619
 40
0.7619047619047619
 40
0.7619047619047619
 40
0.7619047619047619
 40
0.8095238095238095
 40
0.8095238095238095
 40
0.8095238095238095
 40
0.8095238095238095
 40
0.8571428571428571
 40
0.8571428571428571
 40
0.8571428571428571
 40
0.8571428571428571
 40
0.9047619047619048
 40
0.9047619047619048
 40
0.9047619047619048
 40
0.9047619047619048
 40
1.0
 40
1.0
 40
1.0
 40
1.0
 10
-8.2214
 20
25.1206
 30
0.0
 10
-8.2214
 20
25.1206
 30
0.0
 10
-7.99
 20
25.3797
 30
0.0
 10
-7.99
 20
25.3797
 30
0.0
 10
-7.99
 20
25.3797
 30
0.0
 10
-7.99
 20
25.3797
 30
0.0
 10
-7.8536
 20
25.264
 30
0.0
 10
-7.8536
 20
25.264
 30
0.0
 10
-7.8536
 20
25.264
 30
0.0
 10
-7.8536
 20
25.264
 30
0.0
 10
-8.0958
 20
24.9912
 30
0.0
 10
-8.0958
 20
24.9912
 30
0.0
 10
-8.0958
 20
24.9912
 30
0.0
 10
-8.0168
 20
24.8736
 30
0.0
 10
-7.9637
 20
24.7706
 30
0.0
 10
-7.9359
 20
24.6827
 30
0.0
 10
-7.9359
 20
24.6827
 30
0.0
 10
-7.8992
 20
24.5669
 30
0.0
 10
-7.8809
 20
24.4371
 30
0.0
 10
-7.8809
 20
24.2941
 30
0.0
 10
-7.8809
 20
24.2941
 30
0.0
 10
-7.8809
 20
24.0872
 30
0.0
 10
-7.9227
 20
23.9028
 30
0.0
 10
-8.0065
 20
23.7415
 30
0.0
 10
-8.0065
 20
23.7415
 30
0.0
 10
-8.0902
 20
23.5796
 30
0.0
 10
-8.2073
 20
23.4574
 30
0.0
 10
-8.3583
 20
23.3746
 30
0.0
 10
-8.3583
 20
23.3746
 30
0.0
 10
-8.5098
 20
23.2923
 30
0.0
 10
-8.6701
 20
23.2509
 30
0.0
 10
-8.8399
 20
23.2509
 30
0.0
 10
-8.8399
 20
23.2509
 30
0.0
 10
-8.9669
 20
23.2509
 30
0.0
 10
-9.0817
 20
23.2687
 30
0.0
 10
-9.1847
 20
23.3045
 30
0.0
 10
-9.1847
 20
23.3045
 30
0.0
 10
-9.2637
 20
23.3322
 30
0.0
 10
-9.3559
 20
23.3849
 30
0.0
 10
-9.4618
 20
23.463
 30
0.0
 10
-9.4618
 20
23.463
 30
0.0
 10
-9.4618
 20
23.463
 30
0.0
 10
-9.6932
 20
23.2038
 30
0.0
 10
-9.6932
 20
23.2038
 30
0.0
 10
-9.6932
 20
23.2038
 30
0.0
 10
-9.6932
 20
23.2038
 30
0.0
 10
-9.8296
 20
23.3195
 30
0.0
 10
-9.8296
 20
23.3195
 30
0.0
 10
-9.8296
 20
23.3195
 30
0.0
 10
-9.8296
 20
23.3195
 30
0.0
 10
-9.5869
 20
23.5909
 30
0.0
 10
-9.5869
 20
23.5909
 30
0.0
 10
-9.5869
 20
23.5909
 30
0.0
 10
-9.6772
 20
23.7278
 30
0.0
 10
-9.7374
 20
23.8449
 30
0.0
 10
-9.7675
 20
23.9418
 30
0.0
 10
-9.7675
 20
23.9418
 30
0.0
 10
-9.7976
 20
24.0387
 30
0.0
 10
-9.8131
 20
24.1554
 30
0.0
 10
-9.8131
 20
24.2913
 30
0.0
 10
-9.8131
 20
24.2913
 30
0.0
 10
-9.8131
 20
24.4987
 30
0.0
 10
-9.7717
 20
24.6836
 30
0.0
 10
-9.689
 20
24.8459
 30
0.0
 10
-9.689
 20
24.8459
 30
0.0
 10
-9.6062
 20
25.0082
 30
0.0
 10
-9.4905
 20
25.1309
 30
0.0
 10
-9.3409
 20
25.2146
 30
0.0
 10
-9.3409
 20
25.2146
 30
0.0
 10
-9.1918
 20
25.2979
 30
0.0
 10
-9.0257
 20
25.3398
 30
0.0
 10
-8.8428
 20
25.3398
 30
0.0
 10
-8.8428
 20
25.3398
 30
0.0
 10
-8.7195
 20
25.3398
 30
0.0
 10
-8.6118
 20
25.3238
 30
0.0
 10
-8.5196
 20
25.2908
 30
0.0
 10
-8.5196
 20
25.2908
 30
0.0
 10
-8.4274
 20
25.2584
 30
0.0
 10
-8.3277
 20
25.2015
 30
0.0
 10
-8.2214
 20
25.1206
 30
0.0
  0
SPLINE
  5
C1
330
1F
100
AcDbEntity
  8
VRSTVA_1
 62
   250
100
AcDbSpline
210
0.0
220
0.0
230
1.0
 70
    11
 71
     3
 72
    32
 73
    28
 74
     0
 42
0.0000000001
 43
0.0000000001
 40
0.0
 40
0.0
 40
0.0
 40
0.0
 40
0.125
 40
0.125
 40
0.125
 40
0.125
 40
0.25
 40
0.25
 40
0.25
 40
0.25
 40
0.375
 40
0.375
 40
0.375
 40
0.375
 40
0.5
 40
0.5
 40
0.5
 40
0.5
 40
0.625
 40
0.625
 40
0.625
 40
0.625
 40
0.75
 40
0.75
 40
0.75
 40
0.75
 40
1.0
 40
1.0
 40
1.0
 40
1.0
 10
-8.3865
 20
24.9348
 30
0.0
 10
-8.4731
 20
25.0025
 30
0.0
 10
-8.5488
 20
25.0491
 30
0.0
 10
-8.6132
 20
25.074
 30
0.0
 10
-8.6132
 20
25.074
 30
0.0
 10
-8.6781
 20
25.0985
 30
0.0
 10
-8.7543
 20
25.1112
 30
0.0
 10
-8.8414
 20
25.1112
 30
0.0
 10
-8.8414
 20
25.1112
 30
0.0
 10
-9.0427
 20
25.1112
 30
0.0
 10
-9.2087
 20
25.043
 30
0.0
 10
-9.3404
 20
24.9066
 30
0.0
 10
-9.3404
 20
24.9066
 30
0.0
 10
-9.4717
 20
24.7701
 30
0.0
 10
-9.5375
 20
24.5665
 30
0.0
 10
-9.5375
 20
24.2951
 30
0.0
 10
-9.5375
 20
24.2951
 30
0.0
 10
-9.5375
 20
24.1888
 30
0.0
 10
-9.5272
 20
24.0942
 30
0.0
 10
-9.5069
 20
24.0114
 30
0.0
 10
-9.5069
 20
24.0114
 30
0.0
 10
-9.4923
 20
23.9498
 30
0.0
 10
-9.4618
 20
23.8741
 30
0.0
 10
-9.4147
 20
23.7843
 30
0.0
 10
-9.4147
 20
23.7843
 30
0.0
 10
-9.4147
 20
23.7843
 30
0.0
 10
-8.3865
 20
24.9348
 30
0.0
 10
-8.3865
 20
24.9348
 30
0.0
  0
SPLINE
  5
C2
330
1F
100
AcDbEntity
  8
VRSTVA_1
 62
   250
100
AcDbSpline
210
0.0
220
0.0
230
1.0
 70
    11
 71
     3
 72
    28
 73
    24
 74
     0
 42
0.0000000001
 43
0.0000000001
 40
0.0
 40
0.0
 40
0.0
 40
0.0
 40
0.1428571428571428
 40
0.1428571428571428
 40
0.1428571428571428
 40
0.1428571428571428
 40
0.2857142857142857
 40
0.2857142857142857
 40
0.2857142857142857
 40
0.2857142857142857
 40
0.4285714285714285
 40
0.4285714285714285
 40
0.4285714285714285
 40
0.4285714285714285
 40
0.5714285714285714
 40
0.5714285714285714
 40
0.5714285714285714
 40
0.5714285714285714
 40
0.7142857142857143
 40
0.7142857142857143
 40
0.7142857142857143
 40
0.7142857142857143
 40
1.0
 40
1.0
 40
1.0
 40
1.0
 10
-8.2736
 20
24.7927
 30
0.0
 10
-8.2736
 20
24.7927
 30
0.0
 10
-9.2976
 20
23.6464
 30
0.0
 10
-9.2976
 20
23.6464
 30
0.0
 10
-9.2976
 20
23.6464
 30
0.0
 10
-9.2271
 20
23.5886
 30
0.0
 10
-9.1617
 20
23.5481
 30
0.0
 10
-9.1019
 20
23.5251
 30
0.0
 10
-9.1019
 20
23.5251
 30
0.0
 10
-9.0239
 20
23.4945
 30
0.0
 10
-8.9392
 20
23.4795
 30
0.0
 10
-8.8484
 20
23.4795
 30
0.0
 10
-8.8484
 20
23.4795
 30
0.0
 10
-8.648
 20
23.4795
 30
0.0
 10
-8.4829
 20
23.55
 30
0.0
 10
-8.3522
 20
23.6916
 30
0.0
 10
-8.3522
 20
23.6916
 30
0.0
 10
-8.2219
 20
23.8332
 30
0.0
 10
-8.1565
 20
24.0317
 30
0.0
 10
-8.1565
 20
24.2871
 30
0.0
 10
-8.1565
 20
24.2871
 30
0.0
 10
-8.1565
 20
24.478
 30
0.0
 10
-8.1955
 20
24.6469
 30
0.0
 10
-8.2736
 20
24.7927
 30
0.0
  0
SPLINE
  5
C3
330
1F
100
AcDbEntity
  8
VRSTVA_1
 62
   250
100
AcDbSpline
210
0.0
220
0.0
230
1.0
 70
    11
 71
     3
 72
    48
 73
    44
 74
     0
 42
0.0000000001
 43
0.0000000001
 40
0.0
 40
0.0
 40
0.0
 40
0.0
 40
0.0833333333333333
 40
0.0833333333333333
 40
0.0833333333333333
 40
0.0833333333333333
 40
0.1666666666666667
 40
0.1666666666666667
 40
0.1666666666666667
 40
0.1666666666666667
 40
0.25
 40
0.25
 40
0.25
 40
0.25
 40
0.3333333333333333
 40
0.3333333333333333
 40
0.3333333333333333
 40
0.3333333333333333
 40
0.4166666666666667
 40
0.4166666666666667
 40
0.4166666666666667
 40
0.4166666666666667
 40
0.5
 40
0.5
 40
0.5
 40
0.5
 40
0.5833333333333334
 40
0.5833333333333334
 40
0.5833333333333334
 40
0.5833333333333334
 40
0.6666666666666666
 40
0.6666666666666666
 40
0.6666666666666666
 40
0.6666666666666666
 40
0.75
 40
0.75
 40
0.75
 40
0.75
 40
0.8333333333333334
 40
0.8333333333333334
 40
0.8333333333333334
 40
0.8333333333333334
 40
1.0
 40
1.0
 40
1.0
 40
1.0
 10
-7.6151
 20
25.0406
 30
0.0
 10
-7.6151
 20
25.0406
 30
0.0
 10
-7.6151
 20
25.2791
 30
0.0
 10
-7.6151
 20
25.2791
 30
0.0
 10
-7.6151
 20
25.2791
 30
0.0
 10
-7.6151
 20
25.2791
 30
0.0
 10
-6.3075
 20
25.2791
 30
0.0
 10
-6.3075
 20
25.2791
 30
0.0
 10
-6.3075
 20
25.2791
 30
0.0
 10
-6.3075
 20
25.2791
 30
0.0
 10
-6.3075
 20
25.0862
 30
0.0
 10
-6.3075
 20
25.0862
 30
0.0
 10
-6.3075
 20
25.0862
 30
0.0
 10
-6.4359
 20
24.9494
 30
0.0
 10
-6.5634
 20
24.7673
 30
0.0
 10
-6.6899
 20
24.5406
 30
0.0
 10
-6.6899
 20
24.5406
 30
0.0
 10
-6.816
 20
24.3139
 30
0.0
 10
-6.9138
 20
24.0801
 30
0.0
 10
-6.9825
 20
23.8407
 30
0.0
 10
-6.9825
 20
23.8407
 30
0.0
 10
-7.0323
 20
23.6714
 30
0.0
 10
-7.0638
 20
23.4865
 30
0.0
 10
-7.0775
 20
23.2852
 30
0.0
 10
-7.0775
 20
23.2852
 30
0.0
 10
-7.0775
 20
23.2852
 30
0.0
 10
-7.3324
 20
23.2852
 30
0.0
 10
-7.3324
 20
23.2852
 30
0.0
 10
-7.3324
 20
23.2852
 30
0.0
 10
-7.3296
 20
23.4442
 30
0.0
 10
-7.2986
 20
23.6361
 30
0.0
 10
-7.2388
 20
23.8614
 30
0.0
 10
-7.2388
 20
23.8614
 30
0.0
 10
-7.1791
 20
24.0862
 30
0.0
 10
-7.0935
 20
24.3035
 30
0.0
 10
-6.982
 20
24.5124
 30
0.0
 10
-6.982
 20
24.5124
 30
0.0
 10
-6.8701
 20
24.7212
 30
0.0
 10
-6.7515
 20
24.8976
 30
0.0
 10
-6.6255
 20
25.0406
 30
0.0
 10
-6.6255
 20
25.0406
 30
0.0
 10
-6.6255
 20
25.0406
 30
0.0
 10
-7.6151
 20
25.0406
 30
0.0
 10
-7.6151
 20
25.0406
 30
0.0
  0
SPLINE
  5
C4
330
1F
100
AcDbEntity
  8
VRSTVA_1
 62
   250
100
AcDbSpline
210
0.0
220
0.0
230
1.0
 70
    11
 71
     3
 72
    52
 73
    48
 74
     0
 42
0.0000000001
 43
0.0000000001
 40
0.0
 40
0.0
 40
0.0
 40
0.0
 40
0.0769230769230769
 40
0.0769230769230769
 40
0.0769230769230769
 40
0.0769230769230769
 40
0.1538461538461539
 40
0.1538461538461539
 40
0.1538461538461539
 40
0.1538461538461539
 40
0.2307692307692308
 40
0.2307692307692308
 40
0.2307692307692308
 40
0.2307692307692308
 40
0.3076923076923077
 40
0.3076923076923077
 40
0.3076923076923077
 40
0.3076923076923077
 40
0.3846153846153846
 40
0.3846153846153846
 40
0.3846153846153846
 40
0.3846153846153846
 40
0.4615384615384616
 40
0.4615384615384616
 40
0.4615384615384616
 40
0.4615384615384616
 40
0.5384615384615384
 40
0.5384615384615384
 40
0.5384615384615384
 40
0.5384615384615384
 40
0.6153846153846154
 40
0.6153846153846154
 40
0.6153846153846154
 40
0.6153846153846154
 40
0.6923076923076923
 40
0.6923076923076923
 40
0.6923076923076923
 40
0.6923076923076923
 40
0.7692307692307693
 40
0.7692307692307693
 40
0.7692307692307693
 40
0.7692307692307693
 40
0.8461538461538461
 40
0.8461538461538461
 40
0.8461538461538461
 40
0.8461538461538461
 40
1.0
 40
1.0
 40
1.0
 40
1.0
 10
-6.062
 20
24.2814
 30
0.0
 10
-6.062
 20
24.5204
 30
0.0
 10
-6.0375
 20
24.7128
 30
0.0
 10
-5.9881
 20
24.8581
 30
0.0
 10
-5.9881
 20
24.8581
 30
0.0
 10
-5.9392
 20
25.0039
 30
0.0
 10
-5.8658
 20
25.1163
 30
0.0
 10
-5.7689
 20
25.1954
 30
0.0
 10
-5.7689
 20
25.1954
 30
0.0
 10
-5.672
 20
25.2744
 30
0.0
 10
-5.5502
 20
25.3139
 30
0.0
 10
-5.4035
 20
25.3139
 30
0.0
 10
-5.4035
 20
25.3139
 30
0.0
 10
-5.2948
 20
25.3139
 30
0.0
 10
-5.1998
 20
25.2918
 30
0.0
 10
-5.118
 20
25.248
 30
0.0
 10
-5.118
 20
25.248
 30
0.0
 10
-5.0361
 20
25.2048
 30
0.0
 10
-4.9688
 20
25.1417
 30
0.0
 10
-4.9152
 20
25.0594
 30
0.0
 10
-4.9152
 20
25.0594
 30
0.0
 10
-4.8621
 20
24.9771
 30
0.0
 10
-4.8202
 20
24.8769
 30
0.0
 10
-4.7901
 20
24.7589
 30
0.0
 10
-4.7901
 20
24.7589
 30
0.0
 10
-4.7595
 20
24.6408
 30
0.0
 10
-4.7445
 20
24.4818
 30
0.0
 10
-4.7445
 20
24.2814
 30
0.0
 10
-4.7445
 20
24.2814
 30
0.0
 10
-4.7445
 20
24.0444
 30
0.0
 10
-4.7689
 20
23.8534
 30
0.0
 10
-4.8174
 20
23.7076
 30
0.0
 10
-4.8174
 20
23.7076
 30
0.0
 10
-4.8663
 20
23.5618
 30
0.0
 10
-4.9392
 20
23.4494
 30
0.0
 10
-5.0361
 20
23.3699
 30
0.0
 10
-5.0361
 20
23.3699
 30
0.0
 10
-5.133
 20
23.2904
 30
0.0
 10
-5.2553
 20
23.2509
 30
0.0
 10
-5.4035
 20
23.2509
 30
0.0
 10
-5.4035
 20
23.2509
 30
0.0
 10
-5.5982
 20
23.2509
 30
0.0
 10
-5.7511
 20
23.3205
 30
0.0
 10
-5.8621
 20
23.4602
 30
0.0
 10
-5.8621
 20
23.4602
 30
0.0
 10
-5.9952
 20
23.6281
 30
0.0
 10
-6.062
 20
23.9023
 30
0.0
 10
-6.062
 20
24.2814
 30
0.0
  0
SPLINE
  5
C5
330
1F
100
AcDbEntity
  8
VRSTVA_1
 62
   250
100
AcDbSpline
210
0.0
220
0.0
230
1.0
 70
    11
 71
     3
 72
    36
 73
    32
 74
     0
 42
0.0000000001
 43
0.0000000001
 40
0.0
 40
0.0
 40
0.0
 40
0.0
 40
0.1111111111111111
 40
0.1111111111111111
 40
0.1111111111111111
 40
0.1111111111111111
 40
0.2222222222222222
 40
0.2222222222222222
 40
0.2222222222222222
 40
0.2222222222222222
 40
0.3333333333333333
 40
0.3333333333333333
 40
0.3333333333333333
 40
0.3333333333333333
 40
0.4444444444444444
 40
0.4444444444444444
 40
0.4444444444444444
 40
0.4444444444444444
 40
0.5555555555555556
 40
0.5555555555555556
 40
0.5555555555555556
 40
0.5555555555555556
 40
0.6666666666666666
 40
0.6666666666666666
 40
0.6666666666666666
 40
0.6666666666666666
 40
0.7777777777777778
 40
0.7777777777777778
 40
0.7777777777777778
 40
0.7777777777777778
 40
1.0
 40
1.0
 40
1.0
 40
1.0
 10
-5.807
 20
24.2814
 30
0.0
 10
-5.807
 20
23.9498
 30
0.0
 10
-5.768
 20
23.7292
 30
0.0
 10
-5.6904
 20
23.6192
 30
0.0
 10
-5.6904
 20
23.6192
 30
0.0
 10
-5.6128
 20
23.5096
 30
0.0
 10
-5.5173
 20
23.4545
 30
0.0
 10
-5.4035
 20
23.4545
 30
0.0
 10
-5.4035
 20
23.4545
 30
0.0
 10
-5.2892
 20
23.4545
 30
0.0
 10
-5.1937
 20
23.51
 30
0.0
 10
-5.1161
 20
23.6201
 30
0.0
 10
-5.1161
 20
23.6201
 30
0.0
 10
-5.0385
 20
23.7302
 30
0.0
 10
-4.9994
 20
23.9508
 30
0.0
 10
-4.9994
 20
24.2814
 30
0.0
 10
-4.9994
 20
24.2814
 30
0.0
 10
-4.9994
 20
24.614
 30
0.0
 10
-5.0385
 20
24.8351
 30
0.0
 10
-5.1161
 20
24.9442
 30
0.0
 10
-5.1161
 20
24.9442
 30
0.0
 10
-5.1937
 20
25.0538
 30
0.0
 10
-5.2901
 20
25.1083
 30
0.0
 10
-5.4058
 20
25.1083
 30
0.0
 10
-5.4058
 20
25.1083
 30
0.0
 10
-5.5201
 20
25.1083
 30
0.0
 10
-5.6109
 20
25.0599
 30
0.0
 10
-5.6791
 20
24.9635
 30
0.0
 10
-5.6791
 20
24.9635
 30
0.0
 10
-5.7642
 20
24.8407
 30
0.0
 10
-5.807
 20
24.613
 30
0.0
 10
-5.807
 20
24.2814
 30
0.0
  0
SPLINE
  5
C6
330
1F
100
AcDbEntity
  8
VRSTVA_1
 62
   250
100
AcDbSpline
210
0.0
220
0.0
230
1.0
 70
    11
 71
     3
 72
    20
 73
    16
 74
     0
 42
0.0000000001
 43
0.0000000001
 40
0.0
 40
0.0
 40
0.0
 40
0.0
 40
0.2
 40
0.2
 40
0.2
 40
0.2
 40
0.4
 40
0.4
 40
0.4
 40
0.4
 40
0.6
 40
0.6
 40
0.6
 40
0.6
 40
1.0
 40
1.0
 40
1.0
 40
1.0
 10
4.594
 20
23.1097
 30
0.0
 10
4.594
 20
23.1097
 30
0.0
 10
7.594
 20
22.6863
 30
0.0
 10
7.594
 20
22.6863
 30
0.0
 10
7.594
 20
22.6863
 30
0.0
 10
7.594
 20
22.6863
 30
0.0
 10
7.594
 20
22.5922
 30
0.0
 10
7.594
 20
22.5922
 30
0.0
 10
7.594
 20
22.5922
 30
0.0
 10
7.594
 20
22.5922
 30
0.0
 10
4.594
 20
22.1407
 30
0.0
 10
4.594
 20
22.1407
 30
0.0
 10
4.594
 20
22.1407
 30
0.0
 10
4.594
 20
22.1407
 30
0.0
 10
4.594
 20
23.1097
 30
0.0
 10
4.594
 20
23.1097
 30
0.0
  0
SPLINE
  5
C7
330
1F
100
AcDbEntity
  8
VRSTVA_1
 62
   250
100
AcDbSpline
210
0.0
220
0.0
230
1.0
 70
    11
 71
     3
 72
    20
 73
    16
 74
     0
 42
0.0000000001
 43
0.0000000001
 40
0.0
 40
0.0
 40
0.0
 40
0.0
 40
0.2
 40
0.2
 40
0.2
 40
0.2
 40
0.4
 40
0.4
 40
0.4
 40
0.4
 40
0.6
 40
0.6
 40
0.6
 40
0.6
 40
1.0
 40
1.0
 40
1.0
 40
1.0
 10
-19.3386
 20
22.1815
 30
0.0
 10
-19.3386
 20
22.1815
 30
0.0
 10
-22.3386
 20
22.6049
 30
0.0
 10
-22.3386
 20
22.6049
 30
0.0
 10
-22.3386
 20
22.6049
 30
0.0
 10
-22.3386
 20
22.6049
 30
0.0
 10
-22.3386
 20
22.6989
 30
0.0
 10
-22.3386
 20
22.6989
 30
0.0
 10
-22.3386
 20
22.6989
 30
0.0
 10
-22.3386
 20
22.6989
 30
0.0
 10
-19.3386
 20
23.1505
 30
0.0
 10
-19.3386
 20
23.1505
 30
0.0
 10
-19.3386
 20
23.1505
 30
0.0
 10
-19.3386
 20
23.1505
 30
0.0
 10
-19.3386
 20
22.1815
 30
0.0
 10
-19.3386
 20
22.1815
 30
0.0
  0
SPLINE
  5
C8
330
1F
100
AcDbEntity
  8
VRSTVA_1
 62
   250
100
AcDbSpline
210
0.0
220
0.0
230
1.0
 70
    11
 71
     3
 72
    20
 73
    16
 74
     0
 42
0.0000000001
 43
0.0000000001
 40
0.0
 40
0.0
 40
0.0
 40
0.0
 40
0.2
 40
0.2
 40
0.2
 40
0.2
 40
0.4
 40
0.4
 40
0.4
 40
0.4
 40
0.6
 40
0.6
 40
0.6
 40
0.6
 40
1.0
 40
1.0
 40
1.0
 40
1.0
 10
-37.6872
 20
4.0067
 30
0.0
 10
-37.6872
 20
4.0067
 30
0.0
 10
-37.2638
 20
7.0068
 30
0.0
 10
-37.2638
 20
7.0068
 30
0.0
 10
-37.2638
 20
7.0068
 30
0.0
 10
-37.2638
 20
7.0068
 30
0.0
 10
-37.1698
 20
7.0068
 30
0.0
 10
-37.1698
 20
7.0068
 30
0.0
 10
-37.1698
 20
7.0068
 30
0.0
 10
-37.1698
 20
7.0068
 30
0.0
 10
-36.7182
 20
4.0067
 30
0.0
 10
-36.7182
 20
4.0067
 30
0.0
 10
-36.7182
 20
4.0067
 30
0.0
 10
-36.7182
 20
4.0067
 30
0.0
 10
-37.6872
 20
4.0067
 30
0.0
 10
-37.6872
 20
4.0067
 30
0.0
  0
SPLINE
  5
C9
330
1F
100
AcDbEntity
  8
VRSTVA_1
 62
   250
100
AcDbSpline
210
0.0
220
0.0
230
1.0
 70
    11
 71
     3
 72
    20
 73
    16
 74
     0
 42
0.0000000001
 43
0.0000000001
 40
0.0
 40
0.0
 40
0.0
 40
0.0
 40
0.2
 40
0.2
 40
0.2
 40
0.2
 40
0.4
 40
0.4
 40
0.4
 40
0.4
 40
0.6
 40
0.6
 40
0.6
 40
0.6
 40
1.0
 40
1.0
 40
1.0
 40
1.0
 10
-36.7182
 20
-22.2713
 30
0.0
 10
-36.7182
 20
-22.2713
 30
0.0
 10
-37.1416
 20
-25.2713
 30
0.0
 10
-37.1416
 20
-25.2713
 30
0.0
 10
-37.1416
 20
-25.2713
 30
0.0
 10
-37.1416
 20
-25.2713
 30
0.0
 10
-37.2356
 20
-25.2713
 30
0.0
 10
-37.2356
 20
-25.2713
 30
0.0
 10
-37.2356
 20
-25.2713
 30
0.0
 10
-37.2356
 20
-25.2713
 30
0.0
 10
-37.6872
 20
-22.2713
 30
0.0
 10
-37.6872
 20
-22.2713
 30
0.0
 10
-37.6872
 20
-22.2713
 30
0.0
 10
-37.6872
 20
-22.2713
 30
0.0
 10
-36.7182
 20
-22.2713
 30
0.0
 10
-36.7182
 20
-22.2713
 30
0.0
  0
SPLINE
  5
CA
330
1F
100
AcDbEntity
  8
VRSTVA_1
 62
   250
100
AcDbSpline
210
0.0
220
0.0
230
1.0
 70
    11
 71
     3
 72
    48
 73
    44
 74
     0
 42
0.0000000001
 43
0.0000000001
 40
0.0
 40
0.0
 40
0.0
 40
0.0
 40
0.0833333333333333
 40
0.0833333333333333
 40
0.0833333333333333
 40
0.0833333333333333
 40
0.1666666666666667
 40
0.1666666666666667
 40
0.1666666666666667
 40
0.1666666666666667
 40
0.25
 40
0.25
 40
0.25
 40
0.25
 40
0.3333333333333333
 40
0.3333333333333333
 40
0.3333333333333333
 40
0.3333333333333333
 40
0.4166666666666667
 40
0.4166666666666667
 40
0.4166666666666667
 40
0.4166666666666667
 40
0.5
 40
0.5
 40
0.5
 40
0.5
 40
0.5833333333333334
 40
0.5833333333333334
 40
0.5833333333333334
 40
0.5833333333333334
 40
0.6666666666666666
 40
0.6666666666666666
 40
0.6666666666666666
 40
0.6666666666666666
 40
0.75
 40
0.75
 40
0.75
 40
0.75
 40
0.8333333333333334
 40
0.8333333333333334
 40
0.8333333333333334
 40
0.8333333333333334
 40
1.0
 40
1.0
 40
1.0
 40
1.0
 10
-39.6316
 20
-11.0792
 30
0.0
 10
-39.6316
 20
-11.0792
 30
0.0
 10
-39.8701
 20
-11.0792
 30
0.0
 10
-39.8701
 20
-11.0792
 30
0.0
 10
-39.8701
 20
-11.0792
 30
0.0
 10
-39.8701
 20
-11.0792
 30
0.0
 10
-39.8701
 20
-9.7716
 30
0.0
 10
-39.8701
 20
-9.7716
 30
0.0
 10
-39.8701
 20
-9.7716
 30
0.0
 10
-39.8701
 20
-9.7716
 30
0.0
 10
-39.6773
 20
-9.7716
 30
0.0
 10
-39.6773
 20
-9.7716
 30
0.0
 10
-39.6773
 20
-9.7716
 30
0.0
 10
-39.5404
 20
-9.9001
 30
0.0
 10
-39.3584
 20
-10.0275
 30
0.0
 10
-39.1317
 20
-10.154
 30
0.0
 10
-39.1317
 20
-10.154
 30
0.0
 10
-38.905
 20
-10.2801
 30
0.0
 10
-38.6712
 20
-10.3779
 30
0.0
 10
-38.4318
 20
-10.4466
 30
0.0
 10
-38.4318
 20
-10.4466
 30
0.0
 10
-38.2625
 20
-10.4965
 30
0.0
 10
-38.0776
 20
-10.528
 30
0.0
 10
-37.8763
 20
-10.5416
 30
0.0
 10
-37.8763
 20
-10.5416
 30
0.0
 10
-37.8763
 20
-10.5416
 30
0.0
 10
-37.8763
 20
-10.7965
 30
0.0
 10
-37.8763
 20
-10.7965
 30
0.0
 10
-37.8763
 20
-10.7965
 30
0.0
 10
-38.0353
 20
-10.7937
 30
0.0
 10
-38.2272
 20
-10.7627
 30
0.0
 10
-38.4525
 20
-10.7029
 30
0.0
 10
-38.4525
 20
-10.7029
 30
0.0
 10
-38.6773
 20
-10.6432
 30
0.0
 10
-38.8946
 20
-10.5576
 30
0.0
 10
-39.1034
 20
-10.4461
 30
0.0
 10
-39.1034
 20
-10.4461
 30
0.0
 10
-39.3123
 20
-10.3342
 30
0.0
 10
-39.4887
 20
-10.2157
 30
0.0
 10
-39.6316
 20
-10.0896
 30
0.0
 10
-39.6316
 20
-10.0896
 30
0.0
 10
-39.6316
 20
-10.0896
 30
0.0
 10
-39.6316
 20
-11.0792
 30
0.0
 10
-39.6316
 20
-11.0792
 30
0.0
  0
SPLINE
  5
CB
330
1F
100
AcDbEntity
  8
VRSTVA_1
 62
   250
100
AcDbSpline
210
0.0
220
0.0
230
1.0
 70
    11
 71
     3
 72
    92
 73
    88
 74
     0
 42
0.0000000001
 43
0.0000000001
 40
0.0
 40
0.0
 40
0.0
 40
0.0
 40
0.0434782608695652
 40
0.0434782608695652
 40
0.0434782608695652
 40
0.0434782608695652
 40
0.0869565217391304
 40
0.0869565217391304
 40
0.0869565217391304
 40
0.0869565217391304
 40
0.1304347826086956
 40
0.1304347826086956
 40
0.1304347826086956
 40
0.1304347826086956
 40
0.1739130434782609
 40
0.1739130434782609
 40
0.1739130434782609
 40
0.1739130434782609
 40
0.2173913043478261
 40
0.2173913043478261
 40
0.2173913043478261
 40
0.2173913043478261
 40
0.2608695652173913
 40
0.2608695652173913
 40
0.2608695652173913
 40
0.2608695652173913
 40
0.3043478260869565
 40
0.3043478260869565
 40
0.3043478260869565
 40
0.3043478260869565
 40
0.3478260869565217
 40
0.3478260869565217
 40
0.3478260869565217
 40
0.3478260869565217
 40
0.391304347826087
 40
0.391304347826087
 40
0.391304347826087
 40
0.391304347826087
 40
0.4347826086956522
 40
0.4347826086956522
 40
0.4347826086956522
 40
0.4347826086956522
 40
0.4782608695652174
 40
0.4782608695652174
 40
0.4782608695652174
 40
0.4782608695652174
 40
0.5217391304347826
 40
0.5217391304347826
 40
0.5217391304347826
 40
0.5217391304347826
 40
0.5652173913043478
 40
0.5652173913043478
 40
0.5652173913043478
 40
0.5652173913043478
 40
0.6086956521739131
 40
0.6086956521739131
 40
0.6086956521739131
 40
0.6086956521739131
 40
0.6521739130434783
 40
0.6521739130434783
 40
0.6521739130434783
 40
0.6521739130434783
 40
0.6956521739130435
 40
0.6956521739130435
 40
0.6956521739130435
 40
0.6956521739130435
 40
0.7391304347826086
 40
0.7391304347826086
 40
0.7391304347826086
 40
0.7391304347826086
 40
0.782608695652174
 40
0.782608695652174
 40
0.782608695652174
 40
0.782608695652174
 40
0.8260869565217391
 40
0.8260869565217391
 40
0.8260869565217391
 40
0.8260869565217391
 40
0.8695652173913043
 40
0.8695652173913043
 40
0.8695652173913043
 40
0.8695652173913043
 40
0.9130434782608695
 40
0.9130434782608695
 40
0.9130434782608695
 40
0.9130434782608695
 40
1.0
 40
1.0
 40
1.0
 40
1.0
 10
-38.1148
 20
-8.2223
 30
0.0
 10
-38.1148
 20
-8.2223
 30
0.0
 10
-37.8763
 20
-8.2223
 30
0.0
 10
-37.8763
 20
-8.2223
 30
0.0
 10
-37.8763
 20
-8.2223
 30
0.0
 10
-37.8763
 20
-8.2223
 30
0.0
 10
-37.8763
 20
-9.5576
 30
0.0
 10
-37.8763
 20
-9.5576
 30
0.0
 10
-37.8763
 20
-9.5576
 30
0.0
 10
-37.936
 20
-9.5595
 30
0.0
 10
-37.9934
 20
-9.5501
 30
0.0
 10
-38.0484
 20
-9.5289
 30
0.0
 10
-38.0484
 20
-9.5289
 30
0.0
 10
-38.1397
 20
-9.495
 30
0.0
 10
-38.2291
 20
-9.4405
 30
0.0
 10
-38.3175
 20
-9.3657
 30
0.0
 10
-38.3175
 20
-9.3657
 30
0.0
 10
-38.4054
 20
-9.2904
 30
0.0
 10
-38.5075
 20
-9.1823
 30
0.0
 10
-38.6232
 20
-9.0412
 30
0.0
 10
-38.6232
 20
-9.0412
 30
0.0
 10
-38.8034
 20
-8.8215
 30
0.0
 10
-38.9459
 20
-8.6729
 30
0.0
 10
-39.0512
 20
-8.5957
 30
0.0
 10
-39.0512
 20
-8.5957
 30
0.0
 10
-39.1561
 20
-8.5186
 30
0.0
 10
-39.2558
 20
-8.48
 30
0.0
 10
-39.3494
 20
-8.48
 30
0.0
 10
-39.3494
 20
-8.48
 30
0.0
 10
-39.4477
 20
-8.48
 30
0.0
 10
-39.5305
 20
-8.5153
 30
0.0
 10
-39.5983
 20
-8.5854
 30
0.0
 10
-39.5983
 20
-8.5854
 30
0.0
 10
-39.6655
 20
-8.6559
 30
0.0
 10
-39.6994
 20
-8.7477
 30
0.0
 10
-39.6994
 20
-8.8605
 30
0.0
 10
-39.6994
 20
-8.8605
 30
0.0
 10
-39.6994
 20
-8.98
 30
0.0
 10
-39.6636
 20
-9.0755
 30
0.0
 10
-39.5917
 20
-9.147
 30
0.0
 10
-39.5917
 20
-9.147
 30
0.0
 10
-39.5202
 20
-9.2189
 30
0.0
 10
-39.4209
 20
-9.2552
 30
0.0
 10
-39.2944
 20
-9.2561
 30
0.0
 10
-39.2944
 20
-9.2561
 30
0.0
 10
-39.2944
 20
-9.2561
 30
0.0
 10
-39.3203
 20
-9.511
 30
0.0
 10
-39.3203
 20
-9.511
 30
0.0
 10
-39.3203
 20
-9.511
 30
0.0
 10
-39.5108
 20
-9.4936
 30
0.0
 10
-39.6556
 20
-9.4278
 30
0.0
 10
-39.7553
 20
-9.314
 30
0.0
 10
-39.7553
 20
-9.314
 30
0.0
 10
-39.8551
 20
-9.2001
 30
0.0
 10
-39.9049
 20
-9.0468
 30
0.0
 10
-39.9049
 20
-8.8549
 30
0.0
 10
-39.9049
 20
-8.8549
 30
0.0
 10
-39.9049
 20
-8.6611
 30
0.0
 10
-39.8508
 20
-8.5078
 30
0.0
 10
-39.7436
 20
-8.3949
 30
0.0
 10
-39.7436
 20
-8.3949
 30
0.0
 10
-39.6359
 20
-8.2815
 30
0.0
 10
-39.5028
 20
-8.2251
 30
0.0
 10
-39.3438
 20
-8.2251
 30
0.0
 10
-39.3438
 20
-8.2251
 30
0.0
 10
-39.2629
 20
-8.2251
 30
0.0
 10
-39.1834
 20
-8.2416
 30
0.0
 10
-39.1053
 20
-8.275
 30
0.0
 10
-39.1053
 20
-8.275
 30
0.0
 10
-39.0272
 20
-8.3079
 30
0.0
 10
-38.9449
 20
-8.3629
 30
0.0
 10
-38.8589
 20
-8.4396
 30
0.0
 10
-38.8589
 20
-8.4396
 30
0.0
 10
-38.7723
 20
-8.5162
 30
0.0
 10
-38.6538
 20
-8.6437
 30
0.0
 10
-38.5033
 20
-8.822
 30
0.0
 10
-38.5033
 20
-8.822
 30
0.0
 10
-38.3782
 20
-8.9706
 30
0.0
 10
-38.2935
 20
-9.0661
 30
0.0
 10
-38.2488
 20
-9.1084
 30
0.0
 10
-38.2488
 20
-9.1084
 30
0.0
 10
-38.2046
 20
-9.1507
 30
0.0
 10
-38.1599
 20
-9.1855
 30
0.0
 10
-38.1148
 20
-9.2133
 30
0.0
 10
-38.1148
 20
-9.2133
 30
0.0
 10
-38.1148
 20
-9.2133
 30
0.0
 10
-38.1148
 20
-8.2223
 30
0.0
 10
-38.1148
 20
-8.2223
 30
0.0
  0
SPLINE
  5
CC
330
1F
100
AcDbEntity
  8
VRSTVA_1
 62
   250
100
AcDbSpline
210
0.0
220
0.0
230
1.0
 70
    24
 71
     3
 72
     8
 73
     4
 74
     0
 42
0.0000000001
 43
0.0000000001
 40
0.0
 40
0.0
 40
0.0
 40
0.0
 40
1.0
 40
1.0
 40
1.0
 40
1.0
 10
16.0901
 20
9.1885
 30
0.0
 10
16.0901
 20
9.1885
 30
0.0
 10
-22.3408
 20
9.1885
 30
0.0
 10
-22.3408
 20
9.1885
 30
0.0
  0
SPLINE
  5
CD
330
1F
100
AcDbEntity
  8
VRSTVA_1
 62
   250
100
AcDbSpline
210
0.0
220
0.0
230
1.0
 70
    11
 71
     3
 72
    44
 73
    40
 74
     0
 42
0.0000000001
 43
0.0000000001
 40
0.0
 40
0.0
 40
0.0
 40
0.0
 40
0.0909090909090909
 40
0.0909090909090909
 40
0.0909090909090909
 40
0.0909090909090909
 40
0.1818181818181818
 40
0.1818181818181818
 40
0.1818181818181818
 40
0.1818181818181818
 40
0.2727272727272727
 40
0.2727272727272727
 40
0.2727272727272727
 40
0.2727272727272727
 40
0.3636363636363636
 40
0.3636363636363636
 40
0.3636363636363636
 40
0.3636363636363636
 40
0.4545454545454545
 40
0.4545454545454545
 40
0.4545454545454545
 40
0.4545454545454545
 40
0.5454545454545454
 40
0.5454545454545454
 40
0.5454545454545454
 40
0.5454545454545454
 40
0.6363636363636364
 40
0.6363636363636364
 40
0.6363636363636364
 40
0.6363636363636364
 40
0.7272727272727273
 40
0.7272727272727273
 40
0.7272727272727273
 40
0.7272727272727273
 40
0.8181818181818182
 40
0.8181818181818182
 40
0.8181818181818182
 40
0.8181818181818182
 40
1.0
 40
1.0
 40
1.0
 40
1.0
 10
7.3201
 20
9.465
 30
0.0
 10
7.1832
 20
9.6377
 30
0.0
 10
7.0675
 20
9.8399
 30
0.0
 10
6.973
 20
10.0713
 30
0.0
 10
6.973
 20
10.0713
 30
0.0
 10
6.8785
 20
10.3032
 30
0.0
 10
6.8309
 20
10.5426
 30
0.0
 10
6.8309
 20
10.791
 30
0.0
 10
6.8309
 20
10.791
 30
0.0
 10
6.8309
 20
11.0097
 30
0.0
 10
6.8662
 20
11.219
 30
0.0
 10
6.9372
 20
11.4194
 30
0.0
 10
6.9372
 20
11.4194
 30
0.0
 10
7.02
 20
11.6518
 30
0.0
 10
7.1475
 20
11.8832
 30
0.0
 10
7.3201
 20
12.1137
 30
0.0
 10
7.3201
 20
12.1137
 30
0.0
 10
7.3201
 20
12.1137
 30
0.0
 10
7.4979
 20
12.1137
 30
0.0
 10
7.4979
 20
12.1137
 30
0.0
 10
7.4979
 20
12.1137
 30
0.0
 10
7.3869
 20
11.9227
 30
0.0
 10
7.3135
 20
11.7863
 30
0.0
 10
7.2778
 20
11.7044
 30
0.0
 10
7.2778
 20
11.7044
 30
0.0
 10
7.2213
 20
11.5779
 30
0.0
 10
7.1776
 20
11.4453
 30
0.0
 10
7.1451
 20
11.3075
 30
0.0
 10
7.1451
 20
11.3075
 30
0.0
 10
7.1056
 20
11.1358
 30
0.0
 10
7.0859
 20
10.9631
 30
0.0
 10
7.0859
 20
10.7896
 30
0.0
 10
7.0859
 20
10.7896
 30
0.0
 10
7.0859
 20
10.3474
 30
0.0
 10
7.2232
 20
9.9062
 30
0.0
 10
7.4979
 20
9.465
 30
0.0
 10
7.4979
 20
9.465
 30
0.0
 10
7.4979
 20
9.465
 30
0.0
 10
7.3201
 20
9.465
 30
0.0
 10
7.3201
 20
9.465
 30
0.0
  0
SPLINE
  5
CE
330
1F
100
AcDbEntity
  8
VRSTVA_1
 62
   250
100
AcDbSpline
210
0.0
220
0.0
230
1.0
 70
    11
 71
     3
 72
   120
 73
   116
 74
     0
 42
0.0000000001
 43
0.0000000001
 40
0.0
 40
0.0
 40
0.0
 40
0.0
 40
0.0333333333333333
 40
0.0333333333333333
 40
0.0333333333333333
 40
0.0333333333333333
 40
0.0666666666666667
 40
0.0666666666666667
 40
0.0666666666666667
 40
0.0666666666666667
 40
0.1
 40
0.1
 40
0.1
 40
0.1
 40
0.1333333333333333
 40
0.1333333333333333
 40
0.1333333333333333
 40
0.1333333333333333
 40
0.1666666666666667
 40
0.1666666666666667
 40
0.1666666666666667
 40
0.1666666666666667
 40
0.2
 40
0.2
 40
0.2
 40
0.2
 40
0.2333333333333333
 40
0.2333333333333333
 40
0.2333333333333333
 40
0.2333333333333333
 40
0.2666666666666667
 40
0.2666666666666667
 40
0.2666666666666667
 40
0.2666666666666667
 40
0.3
 40
0.3
 40
0.3
 40
0.3
 40
0.3333333333333333
 40
0.3333333333333333
 40
0.3333333333333333
 40
0.3333333333333333
 40
0.3666666666666666
 40
0.3666666666666666
 40
0.3666666666666666
 40
0.3666666666666666
 40
0.4
 40
0.4
 40
0.4
 40
0.4
 40
0.4333333333333333
 40
0.4333333333333333
 40
0.4333333333333333
 40
0.4333333333333333
 40
0.4666666666666667
 40
0.4666666666666667
 40
0.4666666666666667
 40
0.4666666666666667
 40
0.5
 40
0.5
 40
0.5
 40
0.5
 40
0.5333333333333333
 40
0.5333333333333333
 40
0.5333333333333333
 40
0.5333333333333333
 40
0.5666666666666667
 40
0.5666666666666667
 40
0.5666666666666667
 40
0.5666666666666667
 40
0.6
 40
0.6
 40
0.6
 40
0.6
 40
0.6333333333333333
 40
0.6333333333333333
 40
0.6333333333333333
 40
0.6333333333333333
 40
0.6666666666666666
 40
0.6666666666666666
 40
0.6666666666666666
 40
0.6666666666666666
 40
0.7
 40
0.7
 40
0.7
 40
0.7
 40
0.7333333333333333
 40
0.7333333333333333
 40
0.7333333333333333
 40
0.7333333333333333
 40
0.7666666666666667
 40
0.7666666666666667
 40
0.7666666666666667
 40
0.7666666666666667
 40
0.8
 40
0.8
 40
0.8
 40
0.8
 40
0.8333333333333334
 40
0.8333333333333334
 40
0.8333333333333334
 40
0.8333333333333334
 40
0.8666666666666667
 40
0.8666666666666667
 40
0.8666666666666667
 40
0.8666666666666667
 40
0.9
 40
0.9
 40
0.9
 40
0.9
 40
0.9333333333333333
 40
0.9333333333333333
 40
0.9333333333333333
 40
0.9333333333333333
 40
1.0
 40
1.0
 40
1.0
 40
1.0
 10
8.7632
 20
10.8517
 30
0.0
 10
8.7632
 20
10.8517
 30
0.0
 10
8.7632
 20
11.0883
 30
0.0
 10
8.7632
 20
11.0883
 30
0.0
 10
8.7632
 20
11.0883
 30
0.0
 10
8.7632
 20
11.0883
 30
0.0
 10
9.6188
 20
11.0897
 30
0.0
 10
9.6188
 20
11.0897
 30
0.0
 10
9.6188
 20
11.0897
 30
0.0
 10
9.6188
 20
11.0897
 30
0.0
 10
9.6188
 20
10.3404
 30
0.0
 10
9.6188
 20
10.3404
 30
0.0
 10
9.6188
 20
10.3404
 30
0.0
 10
9.4876
 20
10.2355
 30
0.0
 10
9.3521
 20
10.1569
 30
0.0
 10
9.2124
 20
10.1038
 30
0.0
 10
9.2124
 20
10.1038
 30
0.0
 10
9.0727
 20
10.0511
 30
0.0
 10
8.9293
 20
10.0248
 30
0.0
 10
8.7825
 20
10.0248
 30
0.0
 10
8.7825
 20
10.0248
 30
0.0
 10
8.584
 20
10.0248
 30
0.0
 10
8.4034
 20
10.0671
 30
0.0
 10
8.2416
 20
10.1522
 30
0.0
 10
8.2416
 20
10.1522
 30
0.0
 10
8.0793
 20
10.2369
 30
0.0
 10
7.957
 20
10.3601
 30
0.0
 10
7.8742
 20
10.5205
 30
0.0
 10
7.8742
 20
10.5205
 30
0.0
 10
7.7914
 20
10.6814
 30
0.0
 10
7.75
 20
10.8611
 30
0.0
 10
7.75
 20
11.0596
 30
0.0
 10
7.75
 20
11.0596
 30
0.0
 10
7.75
 20
11.2562
 30
0.0
 10
7.7914
 20
11.4396
 30
0.0
 10
7.8738
 20
11.6099
 30
0.0
 10
7.8738
 20
11.6099
 30
0.0
 10
7.9556
 20
11.7806
 30
0.0
 10
8.0741
 20
11.9072
 30
0.0
 10
8.2284
 20
11.99
 30
0.0
 10
8.2284
 20
11.99
 30
0.0
 10
8.3827
 20
12.0723
 30
0.0
 10
8.5605
 20
12.1137
 30
0.0
 10
8.7618
 20
12.1137
 30
0.0
 10
8.7618
 20
12.1137
 30
0.0
 10
8.9076
 20
12.1137
 30
0.0
 10
9.0398
 20
12.0901
 30
0.0
 10
9.1579
 20
12.0426
 30
0.0
 10
9.1579
 20
12.0426
 30
0.0
 10
9.2759
 20
11.9956
 30
0.0
 10
9.3686
 20
11.9297
 30
0.0
 10
9.4354
 20
11.8451
 30
0.0
 10
9.4354
 20
11.8451
 30
0.0
 10
9.5026
 20
11.7604
 30
0.0
 10
9.5534
 20
11.6504
 30
0.0
 10
9.5887
 20
11.5144
 30
0.0
 10
9.5887
 20
11.5144
 30
0.0
 10
9.5887
 20
11.5144
 30
0.0
 10
9.3474
 20
11.4481
 30
0.0
 10
9.3474
 20
11.4481
 30
0.0
 10
9.3474
 20
11.4481
 30
0.0
 10
9.3168
 20
11.5511
 30
0.0
 10
9.2792
 20
11.632
 30
0.0
 10
9.2345
 20
11.6908
 30
0.0
 10
9.2345
 20
11.6908
 30
0.0
 10
9.1894
 20
11.7496
 30
0.0
 10
9.1249
 20
11.7966
 30
0.0
 10
9.0412
 20
11.8319
 30
0.0
 10
9.0412
 20
11.8319
 30
0.0
 10
8.9579
 20
11.8672
 30
0.0
 10
8.8648
 20
11.8851
 30
0.0
 10
8.7632
 20
11.8851
 30
0.0
 10
8.7632
 20
11.8851
 30
0.0
 10
8.6409
 20
11.8851
 30
0.0
 10
8.5351
 20
11.8662
 30
0.0
 10
8.4462
 20
11.8291
 30
0.0
 10
8.4462
 20
11.8291
 30
0.0
 10
8.3568
 20
11.7919
 30
0.0
 10
8.2853
 20
11.743
 30
0.0
 10
8.2303
 20
11.6823
 30
0.0
 10
8.2303
 20
11.6823
 30
0.0
 10
8.1757
 20
11.6217
 30
0.0
 10
8.1334
 20
11.5553
 30
0.0
 10
8.1028
 20
11.4824
 30
0.0
 10
8.1028
 20
11.4824
 30
0.0
 10
8.0516
 20
11.3578
 30
0.0
 10
8.0257
 20
11.2223
 30
0.0
 10
8.0257
 20
11.076
 30
0.0
 10
8.0257
 20
11.076
 30
0.0
 10
8.0257
 20
10.8959
 30
0.0
 10
8.0567
 20
10.7454
 30
0.0
 10
8.1188
 20
10.624
 30
0.0
 10
8.1188
 20
10.624
 30
0.0
 10
8.1809
 20
10.5027
 30
0.0
 10
8.2712
 20
10.4128
 30
0.0
 10
8.3897
 20
10.354
 30
0.0
 10
8.3897
 20
10.354
 30
0.0
 10
8.5083
 20
10.2952
 30
0.0
 10
8.6339
 20
10.2656
 30
0.0
 10
8.767
 20
10.2656
 30
0.0
 10
8.767
 20
10.2656
 30
0.0
 10
8.8832
 20
10.2656
 30
0.0
 10
8.996
 20
10.2882
 30
0.0
 10
9.1061
 20
10.3329
 30
0.0
 10
9.1061
 20
10.3329
 30
0.0
 10
9.2167
 20
10.3771
 30
0.0
 10
9.2999
 20
10.4246
 30
0.0
 10
9.3568
 20
10.4754
 30
0.0
 10
9.3568
 20
10.4754
 30
0.0
 10
9.3568
 20
10.4754
 30
0.0
 10
9.3568
 20
10.8517
 30
0.0
 10
9.3568
 20
10.8517
 30
0.0
 10
9.3568
 20
10.8517
 30
0.0
 10
9.3568
 20
10.8517
 30
0.0
 10
8.7632
 20
10.8517
 30
0.0
 10
8.7632
 20
10.8517
 30
0.0
  0
SPLINE
  5
CF
330
1F
100
AcDbEntity
  8
VRSTVA_1
 62
   250
100
AcDbSpline
210
0.0
220
0.0
230
1.0
 70
    11
 71
     3
 72
    80
 73
    76
 74
     0
 42
0.0000000001
 43
0.0000000001
 40
0.0
 40
0.0
 40
0.0
 40
0.0
 40
0.05
 40
0.05
 40
0.05
 40
0.05
 40
0.1
 40
0.1
 40
0.1
 40
0.1
 40
0.15
 40
0.15
 40
0.15
 40
0.15
 40
0.2
 40
0.2
 40
0.2
 40
0.2
 40
0.25
 40
0.25
 40
0.25
 40
0.25
 40
0.3
 40
0.3
 40
0.3
 40
0.3
 40
0.35
 40
0.35
 40
0.35
 40
0.35
 40
0.4
 40
0.4
 40
0.4
 40
0.4
 40
0.45
 40
0.45
 40
0.45
 40
0.45
 40
0.5
 40
0.5
 40
0.5
 40
0.5
 40
0.55
 40
0.55
 40
0.55
 40
0.55
 40
0.6
 40
0.6
 40
0.6
 40
0.6
 40
0.65
 40
0.65
 40
0.65
 40
0.65
 40
0.7
 40
0.7
 40
0.7
 40
0.7
 40
0.75
 40
0.75
 40
0.75
 40
0.75
 40
0.8
 40
0.8
 40
0.8
 40
0.8
 40
0.85
 40
0.85
 40
0.85
 40
0.85
 40
0.9
 40
0.9
 40
0.9
 40
0.9
 40
1.0
 40
1.0
 40
1.0
 40
1.0
 10
11.1992
 20
11.5845
 30
0.0
 10
11.1992
 20
11.5845
 30
0.0
 10
10.9528
 20
11.5652
 30
0.0
 10
10.9528
 20
11.5652
 30
0.0
 10
10.9528
 20
11.5652
 30
0.0
 10
10.9307
 20
11.6626
 30
0.0
 10
10.8996
 20
11.7336
 30
0.0
 10
10.8592
 20
11.7773
 30
0.0
 10
10.8592
 20
11.7773
 30
0.0
 10
10.7919
 20
11.8484
 30
0.0
 10
10.7091
 20
11.8837
 30
0.0
 10
10.6108
 20
11.8837
 30
0.0
 10
10.6108
 20
11.8837
 30
0.0
 10
10.5318
 20
11.8837
 30
0.0
 10
10.4627
 20
11.8615
 30
0.0
 10
10.4029
 20
11.8173
 30
0.0
 10
10.4029
 20
11.8173
 30
0.0
 10
10.3248
 20
11.7604
 30
0.0
 10
10.2632
 20
11.6772
 30
0.0
 10
10.2181
 20
11.568
 30
0.0
 10
10.2181
 20
11.568
 30
0.0
 10
10.1734
 20
11.4589
 30
0.0
 10
10.1499
 20
11.3032
 30
0.0
 10
10.148
 20
11.101
 30
0.0
 10
10.148
 20
11.101
 30
0.0
 10
10.2077
 20
11.1917
 30
0.0
 10
10.2806
 20
11.2595
 30
0.0
 10
10.3672
 20
11.3037
 30
0.0
 10
10.3672
 20
11.3037
 30
0.0
 10
10.4532
 20
11.3474
 30
0.0
 10
10.544
 20
11.3695
 30
0.0
 10
10.6386
 20
11.3695
 30
0.0
 10
10.6386
 20
11.3695
 30
0.0
 10
10.8041
 20
11.3695
 30
0.0
 10
10.9448
 20
11.3089
 30
0.0
 10
11.061
 20
11.187
 30
0.0
 10
11.061
 20
11.187
 30
0.0
 10
11.1771
 20
11.0652
 30
0.0
 10
11.2355
 20
10.9081
 30
0.0
 10
11.2355
 20
10.7153
 30
0.0
 10
11.2355
 20
10.7153
 30
0.0
 10
11.2355
 20
10.5883
 30
0.0
 10
11.2077
 20
10.4707
 30
0.0
 10
11.1531
 20
10.3615
 30
0.0
 10
11.1531
 20
10.3615
 30
0.0
 10
11.0986
 20
10.2529
 30
0.0
 10
11.0233
 20
10.1692
 30
0.0
 10
10.9278
 20
10.1113
 30
0.0
 10
10.9278
 20
10.1113
 30
0.0
 10
10.8324
 20
10.0535
 30
0.0
 10
10.7242
 20
10.0248
 30
0.0
 10
10.6028
 20
10.0248
 30
0.0
 10
10.6028
 20
10.0248
 30
0.0
 10
10.3959
 20
10.0248
 30
0.0
 10
10.2275
 20
10.1005
 30
0.0
 10
10.0972
 20
10.2529
 30
0.0
 10
10.0972
 20
10.2529
 30
0.0
 10
9.9664
 20
10.4048
 30
0.0
 10
9.9015
 20
10.6555
 30
0.0
 10
9.9015
 20
11.0045
 30
0.0
 10
9.9015
 20
11.0045
 30
0.0
 10
9.9015
 20
11.3949
 30
0.0
 10
9.9735
 20
11.6786
 30
0.0
 10
10.1179
 20
11.8559
 30
0.0
 10
10.1179
 20
11.8559
 30
0.0
 10
10.2435
 20
12.0102
 30
0.0
 10
10.4128
 20
12.0878
 30
0.0
 10
10.6263
 20
12.0878
 30
0.0
 10
10.6263
 20
12.0878
 30
0.0
 10
10.7849
 20
12.0878
 30
0.0
 10
10.9151
 20
12.0431
 30
0.0
 10
11.0167
 20
11.9537
 30
0.0
 10
11.0167
 20
11.9537
 30
0.0
 10
11.1183
 20
11.8648
 30
0.0
 10
11.179
 20
11.7416
 30
0.0
 10
11.1992
 20
11.5845
 30
0.0
  0
SPLINE
  5
D0
330
1F
100
AcDbEntity
  8
VRSTVA_1
 62
   250
100
AcDbSpline
210
0.0
220
0.0
230
1.0
 70
    11
 71
     3
 72
    40
 73
    36
 74
     0
 42
0.0000000001
 43
0.0000000001
 40
0.0
 40
0.0
 40
0.0
 40
0.0
 40
0.1
 40
0.1
 40
0.1
 40
0.1
 40
0.2
 40
0.2
 40
0.2
 40
0.2
 40
0.3
 40
0.3
 40
0.3
 40
0.3
 40
0.4
 40
0.4
 40
0.4
 40
0.4
 40
0.5
 40
0.5
 40
0.5
 40
0.5
 40
0.6
 40
0.6
 40
0.6
 40
0.6
 40
0.7
 40
0.7
 40
0.7
 40
0.7
 40
0.8
 40
0.8
 40
0.8
 40
0.8
 40
1.0
 40
1.0
 40
1.0
 40
1.0
 10
10.1865
 20
10.7139
 30
0.0
 10
10.1865
 20
10.6282
 30
0.0
 10
10.2049
 20
10.5464
 30
0.0
 10
10.2411
 20
10.4683
 30
0.0
 10
10.2411
 20
10.4683
 30
0.0
 10
10.2773
 20
10.3902
 30
0.0
 10
10.3281
 20
10.331
 30
0.0
 10
10.393
 20
10.2901
 30
0.0
 10
10.393
 20
10.2901
 30
0.0
 10
10.4584
 20
10.2491
 30
0.0
 10
10.5271
 20
10.2284
 30
0.0
 10
10.5986
 20
10.2284
 30
0.0
 10
10.5986
 20
10.2284
 30
0.0
 10
10.7035
 20
10.2284
 30
0.0
 10
10.7933
 20
10.2708
 30
0.0
 10
10.8686
 20
10.3554
 30
0.0
 10
10.8686
 20
10.3554
 30
0.0
 10
10.9438
 20
10.4401
 30
0.0
 10
10.9815
 20
10.5549
 30
0.0
 10
10.9815
 20
10.6997
 30
0.0
 10
10.9815
 20
10.6997
 30
0.0
 10
10.9815
 20
10.8394
 30
0.0
 10
10.9443
 20
10.9495
 30
0.0
 10
10.87
 20
11.0299
 30
0.0
 10
10.87
 20
11.0299
 30
0.0
 10
10.7957
 20
11.1104
 30
0.0
 10
10.7021
 20
11.1504
 30
0.0
 10
10.5892
 20
11.1504
 30
0.0
 10
10.5892
 20
11.1504
 30
0.0
 10
10.4768
 20
11.1504
 30
0.0
 10
10.3817
 20
11.1104
 30
0.0
 10
10.3037
 20
11.0299
 30
0.0
 10
10.3037
 20
11.0299
 30
0.0
 10
10.2256
 20
10.9495
 30
0.0
 10
10.1865
 20
10.8441
 30
0.0
 10
10.1865
 20
10.7139
 30
0.0
  0
SPLINE
  5
D1
330
1F
100
AcDbEntity
  8
VRSTVA_1
 62
   250
100
AcDbSpline
210
0.0
220
0.0
230
1.0
 70
    11
 71
     3
 72
    20
 73
    16
 74
     0
 42
0.0000000001
 43
0.0000000001
 40
0.0
 40
0.0
 40
0.0
 40
0.0
 40
0.2
 40
0.2
 40
0.2
 40
0.2
 40
0.4
 40
0.4
 40
0.4
 40
0.4
 40
0.6
 40
0.6
 40
0.6
 40
0.6
 40
1.0
 40
1.0
 40
1.0
 40
1.0
 10
11.3648
 20
10.0248
 30
0.0
 10
11.3648
 20
10.0248
 30
0.0
 10
11.9504
 20
12.1137
 30
0.0
 10
11.9504
 20
12.1137
 30
0.0
 10
11.9504
 20
12.1137
 30
0.0
 10
11.9504
 20
12.1137
 30
0.0
 10
12.1489
 20
12.1137
 30
0.0
 10
12.1489
 20
12.1137
 30
0.0
 10
12.1489
 20
12.1137
 30
0.0
 10
12.1489
 20
12.1137
 30
0.0
 10
11.5647
 20
10.0248
 30
0.0
 10
11.5647
 20
10.0248
 30
0.0
 10
11.5647
 20
10.0248
 30
0.0
 10
11.5647
 20
10.0248
 30
0.0
 10
11.3648
 20
10.0248
 30
0.0
 10
11.3648
 20
10.0248
 30
0.0
  0
SPLINE
  5
D2
330
1F
100
AcDbEntity
  8
VRSTVA_1
 62
   250
100
AcDbSpline
210
0.0
220
0.0
230
1.0
 70
    11
 71
     3
 72
    48
 73
    44
 74
     0
 42
0.0000000001
 43
0.0000000001
 40
0.0
 40
0.0
 40
0.0
 40
0.0
 40
0.0833333333333333
 40
0.0833333333333333
 40
0.0833333333333333
 40
0.0833333333333333
 40
0.1666666666666667
 40
0.1666666666666667
 40
0.1666666666666667
 40
0.1666666666666667
 40
0.25
 40
0.25
 40
0.25
 40
0.25
 40
0.3333333333333333
 40
0.3333333333333333
 40
0.3333333333333333
 40
0.3333333333333333
 40
0.4166666666666667
 40
0.4166666666666667
 40
0.4166666666666667
 40
0.4166666666666667
 40
0.5
 40
0.5
 40
0.5
 40
0.5
 40
0.5833333333333334
 40
0.5833333333333334
 40
0.5833333333333334
 40
0.5833333333333334
 40
0.6666666666666666
 40
0.6666666666666666
 40
0.6666666666666666
 40
0.6666666666666666
 40
0.75
 40
0.75
 40
0.75
 40
0.75
 40
0.8333333333333334
 40
0.8333333333333334
 40
0.8333333333333334
 40
0.8333333333333334
 40
1.0
 40
1.0
 40
1.0
 40
1.0
 10
13.0609
 20
10.0591
 30
0.0
 10
13.0609
 20
10.0591
 30
0.0
 10
13.0609
 20
10.5426
 30
0.0
 10
13.0609
 20
10.5426
 30
0.0
 10
13.0609
 20
10.5426
 30
0.0
 10
13.0609
 20
10.5426
 30
0.0
 10
12.1846
 20
10.5426
 30
0.0
 10
12.1846
 20
10.5426
 30
0.0
 10
12.1846
 20
10.5426
 30
0.0
 10
12.1846
 20
10.5426
 30
0.0
 10
12.1846
 20
10.7703
 30
0.0
 10
12.1846
 20
10.7703
 30
0.0
 10
12.1846
 20
10.7703
 30
0.0
 10
12.1846
 20
10.7703
 30
0.0
 10
13.1066
 20
12.0793
 30
0.0
 10
13.1066
 20
12.0793
 30
0.0
 10
13.1066
 20
12.0793
 30
0.0
 10
13.1066
 20
12.0793
 30
0.0
 10
13.3093
 20
12.0793
 30
0.0
 10
13.3093
 20
12.0793
 30
0.0
 10
13.3093
 20
12.0793
 30
0.0
 10
13.3093
 20
12.0793
 30
0.0
 10
13.3093
 20
10.7703
 30
0.0
 10
13.3093
 20
10.7703
 30
0.0
 10
13.3093
 20
10.7703
 30
0.0
 10
13.3093
 20
10.7703
 30
0.0
 10
13.5821
 20
10.7703
 30
0.0
 10
13.5821
 20
10.7703
 30
0.0
 10
13.5821
 20
10.7703
 30
0.0
 10
13.5821
 20
10.7703
 30
0.0
 10
13.5821
 20
10.5426
 30
0.0
 10
13.5821
 20
10.5426
 30
0.0
 10
13.5821
 20
10.5426
 30
0.0
 10
13.5821
 20
10.5426
 30
0.0
 10
13.3093
 20
10.5426
 30
0.0
 10
13.3093
 20
10.5426
 30
0.0
 10
13.3093
 20
10.5426
 30
0.0
 10
13.3093
 20
10.5426
 30
0.0
 10
13.3093
 20
10.0591
 30
0.0
 10
13.3093
 20
10.0591
 30
0.0
 10
13.3093
 20
10.0591
 30
0.0
 10
13.3093
 20
10.0591
 30
0.0
 10
13.0609
 20
10.0591
 30
0.0
 10
13.0609
 20
10.0591
 30
0.0
  0
SPLINE
  5
D3
330
1F
100
AcDbEntity
  8
VRSTVA_1
 62
   250
100
AcDbSpline
210
0.0
220
0.0
230
1.0
 70
    11
 71
     3
 72
    16
 73
    12
 74
     0
 42
0.0000000001
 43
0.0000000001
 40
0.0
 40
0.0
 40
0.0
 40
0.0
 40
0.25
 40
0.25
 40
0.25
 40
0.25
 40
0.5
 40
0.5
 40
0.5
 40
0.5
 40
1.0
 40
1.0
 40
1.0
 40
1.0
 10
13.0609
 20
10.7703
 30
0.0
 10
13.0609
 20
10.7703
 30
0.0
 10
13.0609
 20
11.6809
 30
0.0
 10
13.0609
 20
11.6809
 30
0.0
 10
13.0609
 20
11.6809
 30
0.0
 10
13.0609
 20
11.6809
 30
0.0
 10
12.4288
 20
10.7703
 30
0.0
 10
12.4288
 20
10.7703
 30
0.0
 10
12.4288
 20
10.7703
 30
0.0
 10
12.4288
 20
10.7703
 30
0.0
 10
13.0609
 20
10.7703
 30
0.0
 10
13.0609
 20
10.7703
 30
0.0
  0
SPLINE
  5
D4
330
1F
100
AcDbEntity
  8
VRSTVA_1
 62
   250
100
AcDbSpline
210
0.0
220
0.0
230
1.0
 70
    11
 71
     3
 72
    28
 73
    24
 74
     0
 42
0.0000000001
 43
0.0000000001
 40
0.0
 40
0.0
 40
0.0
 40
0.0
 40
0.1428571428571428
 40
0.1428571428571428
 40
0.1428571428571428
 40
0.1428571428571428
 40
0.2857142857142857
 40
0.2857142857142857
 40
0.2857142857142857
 40
0.2857142857142857
 40
0.4285714285714285
 40
0.4285714285714285
 40
0.4285714285714285
 40
0.4285714285714285
 40
0.5714285714285714
 40
0.5714285714285714
 40
0.5714285714285714
 40
0.5714285714285714
 40
0.7142857142857143
 40
0.7142857142857143
 40
0.7142857142857143
 40
0.7142857142857143
 40
1.0
 40
1.0
 40
1.0
 40
1.0
 10
13.917
 20
11.3639
 30
0.0
 10
13.917
 20
11.3639
 30
0.0
 10
13.8479
 20
11.7487
 30
0.0
 10
13.8479
 20
11.7487
 30
0.0
 10
13.8479
 20
11.7487
 30
0.0
 10
13.8479
 20
11.7487
 30
0.0
 10
13.8479
 20
12.0793
 30
0.0
 10
13.8479
 20
12.0793
 30
0.0
 10
13.8479
 20
12.0793
 30
0.0
 10
13.8479
 20
12.0793
 30
0.0
 10
14.1305
 20
12.0793
 30
0.0
 10
14.1305
 20
12.0793
 30
0.0
 10
14.1305
 20
12.0793
 30
0.0
 10
14.1305
 20
12.0793
 30
0.0
 10
14.1305
 20
11.7487
 30
0.0
 10
14.1305
 20
11.7487
 30
0.0
 10
14.1305
 20
11.7487
 30
0.0
 10
14.1305
 20
11.7487
 30
0.0
 10
14.0685
 20
11.3639
 30
0.0
 10
14.0685
 20
11.3639
 30
0.0
 10
14.0685
 20
11.3639
 30
0.0
 10
14.0685
 20
11.3639
 30
0.0
 10
13.917
 20
11.3639
 30
0.0
 10
13.917
 20
11.3639
 30
0.0
  0
SPLINE
  5
D5
330
1F
100
AcDbEntity
  8
VRSTVA_1
 62
   250
100
AcDbSpline
210
0.0
220
0.0
230
1.0
 70
    11
 71
     3
 72
    28
 73
    24
 74
     0
 42
0.0000000001
 43
0.0000000001
 40
0.0
 40
0.0
 40
0.0
 40
0.0
 40
0.1428571428571428
 40
0.1428571428571428
 40
0.1428571428571428
 40
0.1428571428571428
 40
0.2857142857142857
 40
0.2857142857142857
 40
0.2857142857142857
 40
0.2857142857142857
 40
0.4285714285714285
 40
0.4285714285714285
 40
0.4285714285714285
 40
0.4285714285714285
 40
0.5714285714285714
 40
0.5714285714285714
 40
0.5714285714285714
 40
0.5714285714285714
 40
0.7142857142857143
 40
0.7142857142857143
 40
0.7142857142857143
 40
0.7142857142857143
 40
1.0
 40
1.0
 40
1.0
 40
1.0
 10
14.3733
 20
11.3639
 30
0.0
 10
14.3733
 20
11.3639
 30
0.0
 10
14.3055
 20
11.7487
 30
0.0
 10
14.3055
 20
11.7487
 30
0.0
 10
14.3055
 20
11.7487
 30
0.0
 10
14.3055
 20
11.7487
 30
0.0
 10
14.3055
 20
12.0793
 30
0.0
 10
14.3055
 20
12.0793
 30
0.0
 10
14.3055
 20
12.0793
 30
0.0
 10
14.3055
 20
12.0793
 30
0.0
 10
14.5882
 20
12.0793
 30
0.0
 10
14.5882
 20
12.0793
 30
0.0
 10
14.5882
 20
12.0793
 30
0.0
 10
14.5882
 20
12.0793
 30
0.0
 10
14.5882
 20
11.7487
 30
0.0
 10
14.5882
 20
11.7487
 30
0.0
 10
14.5882
 20
11.7487
 30
0.0
 10
14.5882
 20
11.7487
 30
0.0
 10
14.5219
 20
11.3639
 30
0.0
 10
14.5219
 20
11.3639
 30
0.0
 10
14.5219
 20
11.3639
 30
0.0
 10
14.5219
 20
11.3639
 30
0.0
 10
14.3733
 20
11.3639
 30
0.0
 10
14.3733
 20
11.3639
 30
0.0
  0
SPLINE
  5
D6
330
1F
100
AcDbEntity
  8
VRSTVA_1
 62
   250
100
AcDbSpline
210
0.0
220
0.0
230
1.0
 70
    11
 71
     3
 72
    44
 73
    40
 74
     0
 42
0.0000000001
 43
0.0000000001
 40
0.0
 40
0.0
 40
0.0
 40
0.0
 40
0.0909090909090909
 40
0.0909090909090909
 40
0.0909090909090909
 40
0.0909090909090909
 40
0.1818181818181818
 40
0.1818181818181818
 40
0.1818181818181818
 40
0.1818181818181818
 40
0.2727272727272727
 40
0.2727272727272727
 40
0.2727272727272727
 40
0.2727272727272727
 40
0.3636363636363636
 40
0.3636363636363636
 40
0.3636363636363636
 40
0.3636363636363636
 40
0.4545454545454545
 40
0.4545454545454545
 40
0.4545454545454545
 40
0.4545454545454545
 40
0.5454545454545454
 40
0.5454545454545454
 40
0.5454545454545454
 40
0.5454545454545454
 40
0.6363636363636364
 40
0.6363636363636364
 40
0.6363636363636364
 40
0.6363636363636364
 40
0.7272727272727273
 40
0.7272727272727273
 40
0.7272727272727273
 40
0.7272727272727273
 40
0.8181818181818182
 40
0.8181818181818182
 40
0.8181818181818182
 40
0.8181818181818182
 40
1.0
 40
1.0
 40
1.0
 40
1.0
 10
15.0689
 20
9.465
 30
0.0
 10
15.0689
 20
9.465
 30
0.0
 10
14.8911
 20
9.465
 30
0.0
 10
14.8911
 20
9.465
 30
0.0
 10
14.8911
 20
9.465
 30
0.0
 10
15.1658
 20
9.9062
 30
0.0
 10
15.3032
 20
10.3474
 30
0.0
 10
15.3032
 20
10.7896
 30
0.0
 10
15.3032
 20
10.7896
 30
0.0
 10
15.3032
 20
10.9622
 30
0.0
 10
15.2834
 20
11.1334
 30
0.0
 10
15.2439
 20
11.3037
 30
0.0
 10
15.2439
 20
11.3037
 30
0.0
 10
15.2129
 20
11.441
 30
0.0
 10
15.1691
 20
11.5737
 30
0.0
 10
15.1132
 20
11.7002
 30
0.0
 10
15.1132
 20
11.7002
 30
0.0
 10
15.0774
 20
11.783
 30
0.0
 10
15.0036
 20
11.9208
 30
0.0
 10
14.8911
 20
12.1137
 30
0.0
 10
14.8911
 20
12.1137
 30
0.0
 10
14.8911
 20
12.1137
 30
0.0
 10
15.0689
 20
12.1137
 30
0.0
 10
15.0689
 20
12.1137
 30
0.0
 10
15.0689
 20
12.1137
 30
0.0
 10
15.2416
 20
11.8832
 30
0.0
 10
15.3695
 20
11.6518
 30
0.0
 10
15.4523
 20
11.4194
 30
0.0
 10
15.4523
 20
11.4194
 30
0.0
 10
15.5228
 20
11.219
 30
0.0
 10
15.5581
 20
11.0097
 30
0.0
 10
15.5581
 20
10.791
 30
0.0
 10
15.5581
 20
10.791
 30
0.0
 10
15.5581
 20
10.5426
 30
0.0
 10
15.5106
 20
10.3032
 30
0.0
 10
15.4156
 20
10.0713
 30
0.0
 10
15.4156
 20
10.0713
 30
0.0
 10
15.3206
 20
9.8399
 30
0.0
 10
15.2049
 20
9.6377
 30
0.0
 10
15.0689
 20
9.465
 30
0.0
  0
SPLINE
  5
D7
330
1F
100
AcDbEntity
  8
VRSTVA_1
 62
   250
100
AcDbSpline
210
0.0
220
0.0
230
1.0
 70
    11
 71
     3
 72
    20
 73
    16
 74
     0
 42
0.0000000001
 43
0.0000000001
 40
0.0
 40
0.0
 40
0.0
 40
0.0
 40
0.2
 40
0.2
 40
0.2
 40
0.2
 40
0.4
 40
0.4
 40
0.4
 40
0.4
 40
0.6
 40
0.6
 40
0.6
 40
0.6
 40
1.0
 40
1.0
 40
1.0
 40
1.0
 10
-20.616
 20
9.6398
 30
0.0
 10
-20.616
 20
9.6398
 30
0.0
 10
-17.616
 20
9.2164
 30
0.0
 10
-17.616
 20
9.2164
 30
0.0
 10
-17.616
 20
9.2164
 30
0.0
 10
-17.616
 20
9.2164
 30
0.0
 10
-17.616
 20
9.1224
 30
0.0
 10
-17.616
 20
9.1224
 30
0.0
 10
-17.616
 20
9.1224
 30
0.0
 10
-17.616
 20
9.1224
 30
0.0
 10
-20.616
 20
8.6709
 30
0.0
 10
-20.616
 20
8.6709
 30
0.0
 10
-20.616
 20
8.6709
 30
0.0
 10
-20.616
 20
8.6709
 30
0.0
 10
-20.616
 20
9.6398
 30
0.0
 10
-20.616
 20
9.6398
 30
0.0
  0
SPLINE
  5
D8
330
1F
100
AcDbEntity
  8
VRSTVA_1
 62
   250
100
AcDbSpline
210
0.0
220
0.0
230
1.0
 70
    11
 71
     3
 72
    20
 73
    16
 74
     0
 42
0.0000000001
 43
0.0000000001
 40
0.0
 40
0.0
 40
0.0
 40
0.0
 40
0.2
 40
0.2
 40
0.2
 40
0.2
 40
0.4
 40
0.4
 40
0.4
 40
0.4
 40
0.6
 40
0.6
 40
0.6
 40
0.6
 40
1.0
 40
1.0
 40
1.0
 40
1.0
 10
5.9136
 20
8.6955
 30
0.0
 10
5.9136
 20
8.6955
 30
0.0
 10
2.9136
 20
9.1189
 30
0.0
 10
2.9136
 20
9.1189
 30
0.0
 10
2.9136
 20
9.1189
 30
0.0
 10
2.9136
 20
9.1189
 30
0.0
 10
2.9136
 20
9.2129
 30
0.0
 10
2.9136
 20
9.2129
 30
0.0
 10
2.9136
 20
9.2129
 30
0.0
 10
2.9136
 20
9.2129
 30
0.0
 10
5.9136
 20
9.6645
 30
0.0
 10
5.9136
 20
9.6645
 30
0.0
 10
5.9136
 20
9.6645
 30
0.0
 10
5.9136
 20
9.6645
 30
0.0
 10
5.9136
 20
8.6955
 30
0.0
 10
5.9136
 20
8.6955
 30
0.0
  0
SPLINE
  5
D9
330
1F
100
AcDbEntity
  8
VRSTVA_1
 62
   250
100
AcDbSpline
210
0.0
220
0.0
230
1.0
 70
    24
 71
     3
 72
     8
 73
     4
 74
     0
 42
0.0000000001
 43
0.0000000001
 40
0.0
 40
0.0
 40
0.0
 40
0.0
 40
1.0
 40
1.0
 40
1.0
 40
1.0
 10
28.9458
 20
-5.2337
 30
0.0
 10
28.9458
 20
-5.2337
 30
0.0
 10
28.9458
 20
-20.2077
 30
0.0
 10
28.9458
 20
-20.2077
 30
0.0
  0
SPLINE
  5
DA
330
1F
100
AcDbEntity
  8
VRSTVA_1
 62
   250
100
AcDbSpline
210
0.0
220
0.0
230
1.0
 70
    11
 71
     3
 72
    84
 73
    80
 74
     0
 42
0.0000000001
 43
0.0000000001
 40
0.0
 40
0.0
 40
0.0
 40
0.0
 40
0.0476190476190476
 40
0.0476190476190476
 40
0.0476190476190476
 40
0.0476190476190476
 40
0.0952380952380952
 40
0.0952380952380952
 40
0.0952380952380952
 40
0.0952380952380952
 40
0.1428571428571428
 40
0.1428571428571428
 40
0.1428571428571428
 40
0.1428571428571428
 40
0.1904761904761905
 40
0.1904761904761905
 40
0.1904761904761905
 40
0.1904761904761905
 40
0.2380952380952381
 40
0.2380952380952381
 40
0.2380952380952381
 40
0.2380952380952381
 40
0.2857142857142857
 40
0.2857142857142857
 40
0.2857142857142857
 40
0.2857142857142857
 40
0.3333333333333333
 40
0.3333333333333333
 40
0.3333333333333333
 40
0.3333333333333333
 40
0.3809523809523809
 40
0.3809523809523809
 40
0.3809523809523809
 40
0.3809523809523809
 40
0.4285714285714285
 40
0.4285714285714285
 40
0.4285714285714285
 40
0.4285714285714285
 40
0.4761904761904762
 40
0.4761904761904762
 40
0.4761904761904762
 40
0.4761904761904762
 40
0.5238095238095238
 40
0.5238095238095238
 40
0.5238095238095238
 40
0.5238095238095238
 40
0.5714285714285714
 40
0.5714285714285714
 40
0.5714285714285714
 40
0.5714285714285714
 40
0.6190476190476191
 40
0.6190476190476191
 40
0.6190476190476191
 40
0.6190476190476191
 40
0.6666666666666666
 40
0.6666666666666666
 40
0.6666666666666666
 40
0.6666666666666666
 40
0.7142857142857143
 40
0.7142857142857143
 40
0.7142857142857143
 40
0.7142857142857143
 40
0.7619047619047619
 40
0.7619047619047619
 40
0.7619047619047619
 40
0.7619047619047619
 40
0.8095238095238095
 40
0.8095238095238095
 40
0.8095238095238095
 40
0.8095238095238095
 40
0.8571428571428571
 40
0.8571428571428571
 40
0.8571428571428571
 40
0.8571428571428571
 40
0.9047619047619048
 40
0.9047619047619048
 40
0.9047619047619048
 40
0.9047619047619048
 40
1.0
 40
1.0
 40
1.0
 40
1.0
 10
26.4912
 20
-14.3712
 30
0.0
 10
26.4912
 20
-14.3712
 30
0.0
 10
26.2321
 20
-14.1398
 30
0.0
 10
26.2321
 20
-14.1398
 30
0.0
 10
26.2321
 20
-14.1398
 30
0.0
 10
26.2321
 20
-14.1398
 30
0.0
 10
26.3478
 20
-14.0034
 30
0.0
 10
26.3478
 20
-14.0034
 30
0.0
 10
26.3478
 20
-14.0034
 30
0.0
 10
26.3478
 20
-14.0034
 30
0.0
 10
26.6206
 20
-14.2456
 30
0.0
 10
26.6206
 20
-14.2456
 30
0.0
 10
26.6206
 20
-14.2456
 30
0.0
 10
26.7382
 20
-14.1666
 30
0.0
 10
26.8412
 20
-14.1135
 30
0.0
 10
26.9291
 20
-14.0857
 30
0.0
 10
26.9291
 20
-14.0857
 30
0.0
 10
27.0449
 20
-14.049
 30
0.0
 10
27.1747
 20
-14.0307
 30
0.0
 10
27.3177
 20
-14.0307
 30
0.0
 10
27.3177
 20
-14.0307
 30
0.0
 10
27.5246
 20
-14.0307
 30
0.0
 10
27.709
 20
-14.0725
 30
0.0
 10
27.8703
 20
-14.1563
 30
0.0
 10
27.8703
 20
-14.1563
 30
0.0
 10
28.0322
 20
-14.24
 30
0.0
 10
28.1544
 20
-14.3571
 30
0.0
 10
28.2372
 20
-14.5081
 30
0.0
 10
28.2372
 20
-14.5081
 30
0.0
 10
28.3195
 20
-14.6596
 30
0.0
 10
28.3609
 20
-14.8199
 30
0.0
 10
28.3609
 20
-14.9897
 30
0.0
 10
28.3609
 20
-14.9897
 30
0.0
 10
28.3609
 20
-15.1167
 30
0.0
 10
28.3431
 20
-15.2315
 30
0.0
 10
28.3073
 20
-15.3345
 30
0.0
 10
28.3073
 20
-15.3345
 30
0.0
 10
28.2796
 20
-15.4135
 30
0.0
 10
28.2269
 20
-15.5057
 30
0.0
 10
28.1488
 20
-15.6116
 30
0.0
 10
28.1488
 20
-15.6116
 30
0.0
 10
28.1488
 20
-15.6116
 30
0.0
 10
28.408
 20
-15.843
 30
0.0
 10
28.408
 20
-15.843
 30
0.0
 10
28.408
 20
-15.843
 30
0.0
 10
28.408
 20
-15.843
 30
0.0
 10
28.2923
 20
-15.9794
 30
0.0
 10
28.2923
 20
-15.9794
 30
0.0
 10
28.2923
 20
-15.9794
 30
0.0
 10
28.2923
 20
-15.9794
 30
0.0
 10
28.0209
 20
-15.7367
 30
0.0
 10
28.0209
 20
-15.7367
 30
0.0
 10
28.0209
 20
-15.7367
 30
0.0
 10
27.884
 20
-15.827
 30
0.0
 10
27.7669
 20
-15.8872
 30
0.0
 10
27.67
 20
-15.9173
 30
0.0
 10
27.67
 20
-15.9173
 30
0.0
 10
27.5731
 20
-15.9474
 30
0.0
 10
27.4564
 20
-15.9629
 30
0.0
 10
27.3205
 20
-15.9629
 30
0.0
 10
27.3205
 20
-15.9629
 30
0.0
 10
27.1131
 20
-15.9629
 30
0.0
 10
26.9282
 20
-15.9215
 30
0.0
 10
26.7659
 20
-15.8388
 30
0.0
 10
26.7659
 20
-15.8388
 30
0.0
 10
26.6036
 20
-15.756
 30
0.0
 10
26.4809
 20
-15.6403
 30
0.0
 10
26.3972
 20
-15.4907
 30
0.0
 10
26.3972
 20
-15.4907
 30
0.0
 10
26.3139
 20
-15.3416
 30
0.0
 10
26.272
 20
-15.1755
 30
0.0
 10
26.272
 20
-14.9926
 30
0.0
 10
26.272
 20
-14.9926
 30
0.0
 10
26.272
 20
-14.8693
 30
0.0
 10
26.288
 20
-14.7616
 30
0.0
 10
26.321
 20
-14.6694
 30
0.0
 10
26.321
 20
-14.6694
 30
0.0
 10
26.3534
 20
-14.5772
 30
0.0
 10
26.4103
 20
-14.4775
 30
0.0
 10
26.4912
 20
-14.3712
 30
0.0
  0
SPLINE
  5
DB
330
1F
100
AcDbEntity
  8
VRSTVA_1
 62
   250
100
AcDbSpline
210
0.0
220
0.0
230
1.0
 70
    11
 71
     3
 72
    32
 73
    28
 74
     0
 42
0.0000000001
 43
0.0000000001
 40
0.0
 40
0.0
 40
0.0
 40
0.0
 40
0.125
 40
0.125
 40
0.125
 40
0.125
 40
0.25
 40
0.25
 40
0.25
 40
0.25
 40
0.375
 40
0.375
 40
0.375
 40
0.375
 40
0.5
 40
0.5
 40
0.5
 40
0.5
 40
0.625
 40
0.625
 40
0.625
 40
0.625
 40
0.75
 40
0.75
 40
0.75
 40
0.75
 40
1.0
 40
1.0
 40
1.0
 40
1.0
 10
26.677
 20
-14.5363
 30
0.0
 10
26.6093
 20
-14.6229
 30
0.0
 10
26.5627
 20
-14.6986
 30
0.0
 10
26.5378
 20
-14.763
 30
0.0
 10
26.5378
 20
-14.763
 30
0.0
 10
26.5133
 20
-14.8279
 30
0.0
 10
26.5006
 20
-14.9041
 30
0.0
 10
26.5006
 20
-14.9912
 30
0.0
 10
26.5006
 20
-14.9912
 30
0.0
 10
26.5006
 20
-15.1925
 30
0.0
 10
26.5688
 20
-15.3585
 30
0.0
 10
26.7052
 20
-15.4902
 30
0.0
 10
26.7052
 20
-15.4902
 30
0.0
 10
26.8417
 20
-15.6215
 30
0.0
 10
27.0453
 20
-15.6873
 30
0.0
 10
27.3167
 20
-15.6873
 30
0.0
 10
27.3167
 20
-15.6873
 30
0.0
 10
27.423
 20
-15.6873
 30
0.0
 10
27.5176
 20
-15.677
 30
0.0
 10
27.6004
 20
-15.6567
 30
0.0
 10
27.6004
 20
-15.6567
 30
0.0
 10
27.662
 20
-15.6421
 30
0.0
 10
27.7377
 20
-15.6116
 30
0.0
 10
27.8275
 20
-15.5645
 30
0.0
 10
27.8275
 20
-15.5645
 30
0.0
 10
27.8275
 20
-15.5645
 30
0.0
 10
26.677
 20
-14.5363
 30
0.0
 10
26.677
 20
-14.5363
 30
0.0
  0
SPLINE
  5
DC
330
1F
100
AcDbEntity
  8
VRSTVA_1
 62
   250
100
AcDbSpline
210
0.0
220
0.0
230
1.0
 70
    11
 71
     3
 72
    28
 73
    24
 74
     0
 42
0.0000000001
 43
0.0000000001
 40
0.0
 40
0.0
 40
0.0
 40
0.0
 40
0.1428571428571428
 40
0.1428571428571428
 40
0.1428571428571428
 40
0.1428571428571428
 40
0.2857142857142857
 40
0.2857142857142857
 40
0.2857142857142857
 40
0.2857142857142857
 40
0.4285714285714285
 40
0.4285714285714285
 40
0.4285714285714285
 40
0.4285714285714285
 40
0.5714285714285714
 40
0.5714285714285714
 40
0.5714285714285714
 40
0.5714285714285714
 40
0.7142857142857143
 40
0.7142857142857143
 40
0.7142857142857143
 40
0.7142857142857143
 40
1.0
 40
1.0
 40
1.0
 40
1.0
 10
26.8191
 20
-14.4234
 30
0.0
 10
26.8191
 20
-14.4234
 30
0.0
 10
27.9654
 20
-15.4474
 30
0.0
 10
27.9654
 20
-15.4474
 30
0.0
 10
27.9654
 20
-15.4474
 30
0.0
 10
28.0232
 20
-15.3769
 30
0.0
 10
28.0637
 20
-15.3115
 30
0.0
 10
28.0867
 20
-15.2517
 30
0.0
 10
28.0867
 20
-15.2517
 30
0.0
 10
28.1173
 20
-15.1737
 30
0.0
 10
28.1323
 20
-15.089
 30
0.0
 10
28.1323
 20
-14.9982
 30
0.0
 10
28.1323
 20
-14.9982
 30
0.0
 10
28.1323
 20
-14.7978
 30
0.0
 10
28.0618
 20
-14.6327
 30
0.0
 10
27.9202
 20
-14.502
 30
0.0
 10
27.9202
 20
-14.502
 30
0.0
 10
27.7786
 20
-14.3717
 30
0.0
 10
27.5801
 20
-14.3063
 30
0.0
 10
27.3247
 20
-14.3063
 30
0.0
 10
27.3247
 20
-14.3063
 30
0.0
 10
27.1338
 20
-14.3063
 30
0.0
 10
26.9649
 20
-14.3453
 30
0.0
 10
26.8191
 20
-14.4234
 30
0.0
  0
SPLINE
  5
DD
330
1F
100
AcDbEntity
  8
VRSTVA_1
 62
   250
100
AcDbSpline
210
0.0
220
0.0
230
1.0
 70
    11
 71
     3
 72
    48
 73
    44
 74
     0
 42
0.0000000001
 43
0.0000000001
 40
0.0
 40
0.0
 40
0.0
 40
0.0
 40
0.0833333333333333
 40
0.0833333333333333
 40
0.0833333333333333
 40
0.0833333333333333
 40
0.1666666666666667
 40
0.1666666666666667
 40
0.1666666666666667
 40
0.1666666666666667
 40
0.25
 40
0.25
 40
0.25
 40
0.25
 40
0.3333333333333333
 40
0.3333333333333333
 40
0.3333333333333333
 40
0.3333333333333333
 40
0.4166666666666667
 40
0.4166666666666667
 40
0.4166666666666667
 40
0.4166666666666667
 40
0.5
 40
0.5
 40
0.5
 40
0.5
 40
0.5833333333333334
 40
0.5833333333333334
 40
0.5833333333333334
 40
0.5833333333333334
 40
0.6666666666666666
 40
0.6666666666666666
 40
0.6666666666666666
 40
0.6666666666666666
 40
0.75
 40
0.75
 40
0.75
 40
0.75
 40
0.8333333333333334
 40
0.8333333333333334
 40
0.8333333333333334
 40
0.8333333333333334
 40
1.0
 40
1.0
 40
1.0
 40
1.0
 10
28.3266
 20
-12.9865
 30
0.0
 10
28.3266
 20
-12.9865
 30
0.0
 10
27.8431
 20
-12.9865
 30
0.0
 10
27.8431
 20
-12.9865
 30
0.0
 10
27.8431
 20
-12.9865
 30
0.0
 10
27.8431
 20
-12.9865
 30
0.0
 10
27.8431
 20
-13.8628
 30
0.0
 10
27.8431
 20
-13.8628
 30
0.0
 10
27.8431
 20
-13.8628
 30
0.0
 10
27.8431
 20
-13.8628
 30
0.0
 10
27.6154
 20
-13.8628
 30
0.0
 10
27.6154
 20
-13.8628
 30
0.0
 10
27.6154
 20
-13.8628
 30
0.0
 10
27.6154
 20
-13.8628
 30
0.0
 10
26.3064
 20
-12.9408
 30
0.0
 10
26.3064
 20
-12.9408
 30
0.0
 10
26.3064
 20
-12.9408
 30
0.0
 10
26.3064
 20
-12.9408
 30
0.0
 10
26.3064
 20
-12.7381
 30
0.0
 10
26.3064
 20
-12.7381
 30
0.0
 10
26.3064
 20
-12.7381
 30
0.0
 10
26.3064
 20
-12.7381
 30
0.0
 10
27.6154
 20
-12.7381
 30
0.0
 10
27.6154
 20
-12.7381
 30
0.0
 10
27.6154
 20
-12.7381
 30
0.0
 10
27.6154
 20
-12.7381
 30
0.0
 10
27.6154
 20
-12.4653
 30
0.0
 10
27.6154
 20
-12.4653
 30
0.0
 10
27.6154
 20
-12.4653
 30
0.0
 10
27.6154
 20
-12.4653
 30
0.0
 10
27.8431
 20
-12.4653
 30
0.0
 10
27.8431
 20
-12.4653
 30
0.0
 10
27.8431
 20
-12.4653
 30
0.0
 10
27.8431
 20
-12.4653
 30
0.0
 10
27.8431
 20
-12.7381
 30
0.0
 10
27.8431
 20
-12.7381
 30
0.0
 10
27.8431
 20
-12.7381
 30
0.0
 10
27.8431
 20
-12.7381
 30
0.0
 10
28.3266
 20
-12.7381
 30
0.0
 10
28.3266
 20
-12.7381
 30
0.0
 10
28.3266
 20
-12.7381
 30
0.0
 10
28.3266
 20
-12.7381
 30
0.0
 10
28.3266
 20
-12.9865
 30
0.0
 10
28.3266
 20
-12.9865
 30
0.0
  0
SPLINE
  5
DE
330
1F
100
AcDbEntity
  8
VRSTVA_1
 62
   250
100
AcDbSpline
210
0.0
220
0.0
230
1.0
 70
    11
 71
     3
 72
    16
 73
    12
 74
     0
 42
0.0000000001
 43
0.0000000001
 40
0.0
 40
0.0
 40
0.0
 40
0.0
 40
0.25
 40
0.25
 40
0.25
 40
0.25
 40
0.5
 40
0.5
 40
0.5
 40
0.5
 40
1.0
 40
1.0
 40
1.0
 40
1.0
 10
27.6154
 20
-12.9865
 30
0.0
 10
27.6154
 20
-12.9865
 30
0.0
 10
26.7048
 20
-12.9865
 30
0.0
 10
26.7048
 20
-12.9865
 30
0.0
 10
26.7048
 20
-12.9865
 30
0.0
 10
26.7048
 20
-12.9865
 30
0.0
 10
27.6154
 20
-13.6186
 30
0.0
 10
27.6154
 20
-13.6186
 30
0.0
 10
27.6154
 20
-13.6186
 30
0.0
 10
27.6154
 20
-13.6186
 30
0.0
 10
27.6154
 20
-12.9865
 30
0.0
 10
27.6154
 20
-12.9865
 30
0.0
  0
SPLINE
  5
DF
330
1F
100
AcDbEntity
  8
VRSTVA_1
 62
   250
100
AcDbSpline
210
0.0
220
0.0
230
1.0
 70
    11
 71
     3
 72
    52
 73
    48
 74
     0
 42
0.0000000001
 43
0.0000000001
 40
0.0
 40
0.0
 40
0.0
 40
0.0
 40
0.0769230769230769
 40
0.0769230769230769
 40
0.0769230769230769
 40
0.0769230769230769
 40
0.1538461538461539
 40
0.1538461538461539
 40
0.1538461538461539
 40
0.1538461538461539
 40
0.2307692307692308
 40
0.2307692307692308
 40
0.2307692307692308
 40
0.2307692307692308
 40
0.3076923076923077
 40
0.3076923076923077
 40
0.3076923076923077
 40
0.3076923076923077
 40
0.3846153846153846
 40
0.3846153846153846
 40
0.3846153846153846
 40
0.3846153846153846
 40
0.4615384615384616
 40
0.4615384615384616
 40
0.4615384615384616
 40
0.4615384615384616
 40
0.5384615384615384
 40
0.5384615384615384
 40
0.5384615384615384
 40
0.5384615384615384
 40
0.6153846153846154
 40
0.6153846153846154
 40
0.6153846153846154
 40
0.6153846153846154
 40
0.6923076923076923
 40
0.6923076923076923
 40
0.6923076923076923
 40
0.6923076923076923
 40
0.7692307692307693
 40
0.7692307692307693
 40
0.7692307692307693
 40
0.7692307692307693
 40
0.8461538461538461
 40
0.8461538461538461
 40
0.8461538461538461
 40
0.8461538461538461
 40
1.0
 40
1.0
 40
1.0
 40
1.0
 10
27.3304
 20
-12.2118
 30
0.0
 10
27.0914
 20
-12.2118
 30
0.0
 10
26.899
 20
-12.1873
 30
0.0
 10
26.7537
 20
-12.1379
 30
0.0
 10
26.7537
 20
-12.1379
 30
0.0
 10
26.6079
 20
-12.089
 30
0.0
 10
26.4955
 20
-12.0156
 30
0.0
 10
26.4164
 20
-11.9187
 30
0.0
 10
26.4164
 20
-11.9187
 30
0.0
 10
26.3374
 20
-11.8218
 30
0.0
 10
26.2979
 20
-11.7
 30
0.0
 10
26.2979
 20
-11.5533
 30
0.0
 10
26.2979
 20
-11.5533
 30
0.0
 10
26.2979
 20
-11.4446
 30
0.0
 10
26.32
 20
-11.3496
 30
0.0
 10
26.3638
 20
-11.2678
 30
0.0
 10
26.3638
 20
-11.2678
 30
0.0
 10
26.407
 20
-11.1859
 30
0.0
 10
26.4701
 20
-11.1186
 30
0.0
 10
26.5524
 20
-11.065
 30
0.0
 10
26.5524
 20
-11.065
 30
0.0
 10
26.6347
 20
-11.0119
 30
0.0
 10
26.7349
 20
-10.97
 30
0.0
 10
26.8529
 20
-10.9399
 30
0.0
 10
26.8529
 20
-10.9399
 30
0.0
 10
26.971
 20
-10.9093
 30
0.0
 10
27.13
 20
-10.8943
 30
0.0
 10
27.3304
 20
-10.8943
 30
0.0
 10
27.3304
 20
-10.8943
 30
0.0
 10
27.5674
 20
-10.8943
 30
0.0
 10
27.7584
 20
-10.9187
 30
0.0
 10
27.9042
 20
-10.9672
 30
0.0
 10
27.9042
 20
-10.9672
 30
0.0
 10
28.05
 20
-11.0161
 30
0.0
 10
28.1624
 20
-11.089
 30
0.0
 10
28.2419
 20
-11.1859
 30
0.0
 10
28.2419
 20
-11.1859
 30
0.0
 10
28.3214
 20
-11.2828
 30
0.0
 10
28.3609
 20
-11.4051
 30
0.0
 10
28.3609
 20
-11.5533
 30
0.0
 10
28.3609
 20
-11.5533
 30
0.0
 10
28.3609
 20
-11.748
 30
0.0
 10
28.2913
 20
-11.9009
 30
0.0
 10
28.1516
 20
-12.0119
 30
0.0
 10
28.1516
 20
-12.0119
 30
0.0
 10
27.9837
 20
-12.145
 30
0.0
 10
27.7095
 20
-12.2118
 30
0.0
 10
27.3304
 20
-12.2118
 30
0.0
  0
SPLINE
  5
E0
330
1F
100
AcDbEntity
  8
VRSTVA_1
 62
   250
100
AcDbSpline
210
0.0
220
0.0
230
1.0
 70
    11
 71
     3
 72
    36
 73
    32
 74
     0
 42
0.0000000001
 43
0.0000000001
 40
0.0
 40
0.0
 40
0.0
 40
0.0
 40
0.1111111111111111
 40
0.1111111111111111
 40
0.1111111111111111
 40
0.1111111111111111
 40
0.2222222222222222
 40
0.2222222222222222
 40
0.2222222222222222
 40
0.2222222222222222
 40
0.3333333333333333
 40
0.3333333333333333
 40
0.3333333333333333
 40
0.3333333333333333
 40
0.4444444444444444
 40
0.4444444444444444
 40
0.4444444444444444
 40
0.4444444444444444
 40
0.5555555555555556
 40
0.5555555555555556
 40
0.5555555555555556
 40
0.5555555555555556
 40
0.6666666666666666
 40
0.6666666666666666
 40
0.6666666666666666
 40
0.6666666666666666
 40
0.7777777777777778
 40
0.7777777777777778
 40
0.7777777777777778
 40
0.7777777777777778
 40
1.0
 40
1.0
 40
1.0
 40
1.0
 10
27.3304
 20
-11.9568
 30
0.0
 10
27.662
 20
-11.9568
 30
0.0
 10
27.8826
 20
-11.9178
 30
0.0
 10
27.9926
 20
-11.8402
 30
0.0
 10
27.9926
 20
-11.8402
 30
0.0
 10
28.1022
 20
-11.7626
 30
0.0
 10
28.1573
 20
-11.6671
 30
0.0
 10
28.1573
 20
-11.5533
 30
0.0
 10
28.1573
 20
-11.5533
 30
0.0
 10
28.1573
 20
-11.439
 30
0.0
 10
28.1018
 20
-11.3435
 30
0.0
 10
27.9917
 20
-11.2659
 30
0.0
 10
27.9917
 20
-11.2659
 30
0.0
 10
27.8816
 20
-11.1883
 30
0.0
 10
27.661
 20
-11.1492
 30
0.0
 10
27.3304
 20
-11.1492
 30
0.0
 10
27.3304
 20
-11.1492
 30
0.0
 10
26.9978
 20
-11.1492
 30
0.0
 10
26.7767
 20
-11.1883
 30
0.0
 10
26.6676
 20
-11.2659
 30
0.0
 10
26.6676
 20
-11.2659
 30
0.0
 10
26.558
 20
-11.3435
 30
0.0
 10
26.5035
 20
-11.4399
 30
0.0
 10
26.5035
 20
-11.5556
 30
0.0
 10
26.5035
 20
-11.5556
 30
0.0
 10
26.5035
 20
-11.6699
 30
0.0
 10
26.5519
 20
-11.7607
 30
0.0
 10
26.6483
 20
-11.8289
 30
0.0
 10
26.6483
 20
-11.8289
 30
0.0
 10
26.7711
 20
-11.914
 30
0.0
 10
26.9988
 20
-11.9568
 30
0.0
 10
27.3304
 20
-11.9568
 30
0.0
  0
SPLINE
  5
E1
330
1F
100
AcDbEntity
  8
VRSTVA_1
 62
   250
100
AcDbSpline
210
0.0
220
0.0
230
1.0
 70
    11
 71
     3
 72
    20
 73
    16
 74
     0
 42
0.0000000001
 43
0.0000000001
 40
0.0
 40
0.0
 40
0.0
 40
0.0
 40
0.2
 40
0.2
 40
0.2
 40
0.2
 40
0.4
 40
0.4
 40
0.4
 40
0.4
 40
0.6
 40
0.6
 40
0.6
 40
0.6
 40
1.0
 40
1.0
 40
1.0
 40
1.0
 10
28.4307
 20
-7.6776
 30
0.0
 10
28.4307
 20
-7.6776
 30
0.0
 10
28.8541
 20
-4.6776
 30
0.0
 10
28.8541
 20
-4.6776
 30
0.0
 10
28.8541
 20
-4.6776
 30
0.0
 10
28.8541
 20
-4.6776
 30
0.0
 10
28.9481
 20
-4.6776
 30
0.0
 10
28.9481
 20
-4.6776
 30
0.0
 10
28.9481
 20
-4.6776
 30
0.0
 10
28.9481
 20
-4.6776
 30
0.0
 10
29.3996
 20
-7.6776
 30
0.0
 10
29.3996
 20
-7.6776
 30
0.0
 10
29.3996
 20
-7.6776
 30
0.0
 10
29.3996
 20
-7.6776
 30
0.0
 10
28.4307
 20
-7.6776
 30
0.0
 10
28.4307
 20
-7.6776
 30
0.0
  0
SPLINE
  5
E2
330
1F
100
AcDbEntity
  8
VRSTVA_1
 62
   250
100
AcDbSpline
210
0.0
220
0.0
230
1.0
 70
    11
 71
     3
 72
    20
 73
    16
 74
     0
 42
0.0000000001
 43
0.0000000001
 40
0.0
 40
0.0
 40
0.0
 40
0.0
 40
0.2
 40
0.2
 40
0.2
 40
0.2
 40
0.4
 40
0.4
 40
0.4
 40
0.4
 40
0.6
 40
0.6
 40
0.6
 40
0.6
 40
1.0
 40
1.0
 40
1.0
 40
1.0
 10
29.4302
 20
-17.3522
 30
0.0
 10
29.4302
 20
-17.3522
 30
0.0
 10
29.0068
 20
-20.3522
 30
0.0
 10
29.0068
 20
-20.3522
 30
0.0
 10
29.0068
 20
-20.3522
 30
0.0
 10
29.0068
 20
-20.3522
 30
0.0
 10
28.9128
 20
-20.3522
 30
0.0
 10
28.9128
 20
-20.3522
 30
0.0
 10
28.9128
 20
-20.3522
 30
0.0
 10
28.9128
 20
-20.3522
 30
0.0
 10
28.4613
 20
-17.3522
 30
0.0
 10
28.4613
 20
-17.3522
 30
0.0
 10
28.4613
 20
-17.3522
 30
0.0
 10
28.4613
 20
-17.3522
 30
0.0
 10
29.4302
 20
-17.3522
 30
0.0
 10
29.4302
 20
-17.3522
 30
0.0
  0
SPLINE
  5
E3
330
1F
100
AcDbEntity
  8
VRSTVA_1
 62
   250
100
AcDbSpline
210
0.0
220
0.0
230
1.0
 70
    11
 71
     3
 72
    36
 73
    32
 74
     0
 42
0.0000000001
 43
0.0000000001
 40
0.0
 40
0.0
 40
0.0
 40
0.0
 40
0.1111111111111111
 40
0.1111111111111111
 40
0.1111111111111111
 40
0.1111111111111111
 40
0.2222222222222222
 40
0.2222222222222222
 40
0.2222222222222222
 40
0.2222222222222222
 40
0.3333333333333333
 40
0.3333333333333333
 40
0.3333333333333333
 40
0.3333333333333333
 40
0.4444444444444444
 40
0.4444444444444444
 40
0.4444444444444444
 40
0.4444444444444444
 40
0.5555555555555556
 40
0.5555555555555556
 40
0.5555555555555556
 40
0.5555555555555556
 40
0.6666666666666666
 40
0.6666666666666666
 40
0.6666666666666666
 40
0.6666666666666666
 40
0.7777777777777778
 40
0.7777777777777778
 40
0.7777777777777778
 40
0.7777777777777778
 40
1.0
 40
1.0
 40
1.0
 40
1.0
 10
-17.481
 20
12.1731
 30
0.0
 10
-17.481
 20
12.1731
 30
0.0
 10
-21.7891
 20
12.5477
 30
0.0
 10
-21.7891
 20
12.5477
 30
0.0
 10
-21.7891
 20
12.5477
 30
0.0
 10
-21.7891
 20
12.5477
 30
0.0
 10
-22.4044
 20
13.1656
 30
0.0
 10
-22.4044
 20
13.1656
 30
0.0
 10
-22.4044
 20
13.1656
 30
0.0
 10
-22.4044
 20
13.1656
 30
0.0
 10
-22.4044
 20
13.4517
 30
0.0
 10
-22.4044
 20
13.4517
 30
0.0
 10
-22.4044
 20
13.4517
 30
0.0
 10
-22.4044
 20
13.4517
 30
0.0
 10
7.7299
 20
13.4197
 30
0.0
 10
7.7299
 20
13.4197
 30
0.0
 10
7.7299
 20
13.4197
 30
0.0
 10
7.7299
 20
13.4197
 30
0.0
 10
7.7299
 20
13.1973
 30
0.0
 10
7.7299
 20
13.1973
 30
0.0
 10
7.7299
 20
13.1973
 30
0.0
 10
7.7299
 20
13.1973
 30
0.0
 10
7.1272
 20
12.5935
 30
0.0
 10
7.1272
 20
12.5935
 30
0.0
 10
7.1272
 20
12.5935
 30
0.0
 10
7.1272
 20
12.5935
 30
0.0
 10
2.718
 20
12.1167
 30
0.0
 10
2.718
 20
12.1167
 30
0.0
 10
2.718
 20
12.1167
 30
0.0
 10
2.718
 20
12.1167
 30
0.0
 10
-17.481
 20
12.1731
 30
0.0
 10
-17.481
 20
12.1731
 30
0.0
  0
SPLINE
  5
E4
330
1F
100
AcDbEntity
  8
VRSTVA_1
 62
   250
100
AcDbSpline
210
0.0
220
0.0
230
1.0
 70
     8
 71
     3
 72
    16
 73
    12
 74
     0
 42
0.0000000001
 43
0.0000000001
 40
0.0
 40
0.0
 40
0.0
 40
0.0
 40
0.25
 40
0.25
 40
0.25
 40
0.25
 40
0.5
 40
0.5
 40
0.5
 40
0.5
 40
1.0
 40
1.0
 40
1.0
 40
1.0
 10
-15.8848
 20
18.0674
 30
0.0
 10
-15.8848
 20
18.0674
 30
0.0
 10
-15.8663
 20
16.3496
 30
0.0
 10
-15.8663
 20
16.3496
 30
0.0
 10
-15.8663
 20
16.3496
 30
0.0
 10
-15.8663
 20
16.3496
 30
0.0
 10
1.1413
 20
16.3496
 30
0.0
 10
1.1413
 20
16.3496
 30
0.0
 10
1.1413
 20
16.3496
 30
0.0
 10
1.1413
 20
16.3496
 30
0.0
 10
1.1173
 20
18.0674
 30
0.0
 10
1.1173
 20
18.0674
 30
0.0
  0
SPLINE
  5
E5
330
1F
100
AcDbEntity
  8
VRSTVA_1
 62
   250
100
AcDbSpline
210
0.0
220
0.0
230
1.0
 70
    24
 71
     3
 72
     8
 73
     4
 74
     0
 42
0.0000000001
 43
0.0000000001
 40
0.0
 40
0.0
 40
0.0
 40
0.0
 40
1.0
 40
1.0
 40
1.0
 40
1.0
 10
-15.6726
 20
16.3496
 30
0.0
 10
-15.6726
 20
16.3496
 30
0.0
 10
-15.6726
 20
15.7869
 30
0.0
 10
-15.6726
 20
15.7869
 30
0.0
  0
SPLINE
  5
E6
330
1F
100
AcDbEntity
  8
VRSTVA_1
 62
   250
100
AcDbSpline
210
0.0
220
0.0
230
1.0
 70
    24
 71
     3
 72
     8
 73
     4
 74
     0
 42
0.0000000001
 43
0.0000000001
 40
0.0
 40
0.0
 40
0.0
 40
0.0
 40
1.0
 40
1.0
 40
1.0
 40
1.0
 10
-15.6726
 20
15.19
 30
0.0
 10
-15.6726
 20
15.19
 30
0.0
 10
-15.6726
 20
14.6273
 30
0.0
 10
-15.6726
 20
14.6273
 30
0.0
  0
SPLINE
  5
E7
330
1F
100
AcDbEntity
  8
VRSTVA_1
 62
   250
100
AcDbSpline
210
0.0
220
0.0
230
1.0
 70
    24
 71
     3
 72
     8
 73
     4
 74
     0
 42
0.0000000001
 43
0.0000000001
 40
0.0
 40
0.0
 40
0.0
 40
0.0
 40
1.0
 40
1.0
 40
1.0
 40
1.0
 10
-9.9459
 20
14.1968
 30
0.0
 10
-9.9459
 20
14.1968
 30
0.0
 10
-9.9459
 20
13.4648
 30
0.0
 10
-9.9459
 20
13.4648
 30
0.0
  0
SPLINE
  5
E8
330
1F
100
AcDbEntity
  8
VRSTVA_1
 62
   250
100
AcDbSpline
210
0.0
220
0.0
230
1.0
 70
    24
 71
     3
 72
     8
 73
     4
 74
     0
 42
0.0000000001
 43
0.0000000001
 40
0.0
 40
0.0
 40
0.0
 40
0.0
 40
1.0
 40
1.0
 40
1.0
 40
1.0
 10
-4.779
 20
14.1968
 30
0.0
 10
-4.779
 20
14.1968
 30
0.0
 10
-4.779
 20
13.4648
 30
0.0
 10
-4.779
 20
13.4648
 30
0.0
  0
SPLINE
  5
E9
330
1F
100
AcDbEntity
  8
VRSTVA_1
 62
   250
100
AcDbSpline
210
0.0
220
0.0
230
1.0
 70
    24
 71
     3
 72
     8
 73
     4
 74
     0
 42
0.0000000001
 43
0.0000000001
 40
0.0
 40
0.0
 40
0.0
 40
0.0
 40
1.0
 40
1.0
 40
1.0
 40
1.0
 10
0.9475
 20
16.3496
 30
0.0
 10
0.9475
 20
16.3496
 30
0.0
 10
0.9475
 20
15.7869
 30
0.0
 10
0.9475
 20
15.7869
 30
0.0
  0
SPLINE
  5
EA
330
1F
100
AcDbEntity
  8
VRSTVA_1
 62
   250
100
AcDbSpline
210
0.0
220
0.0
230
1.0
 70
    24
 71
     3
 72
     8
 73
     4
 74
     0
 42
0.0000000001
 43
0.0000000001
 40
0.0
 40
0.0
 40
0.0
 40
0.0
 40
1.0
 40
1.0
 40
1.0
 40
1.0
 10
0.9475
 20
15.19
 30
0.0
 10
0.9475
 20
15.19
 30
0.0
 10
0.9475
 20
14.6273
 30
0.0
 10
0.9475
 20
14.6273
 30
0.0
  0
SPLINE
  5
EB
330
1F
100
AcDbEntity
  8
VRSTVA_1
 62
   250
100
AcDbSpline
210
0.0
220
0.0
230
1.0
 70
    11
 71
     3
 72
    24
 73
    20
 74
     0
 42
0.0000000001
 43
0.0000000001
 40
0.0
 40
0.0
 40
0.0
 40
0.0
 40
0.1666666666666667
 40
0.1666666666666667
 40
0.1666666666666667
 40
0.1666666666666667
 40
0.3333333333333333
 40
0.3333333333333333
 40
0.3333333333333333
 40
0.3333333333333333
 40
0.5
 40
0.5
 40
0.5
 40
0.5
 40
0.6666666666666666
 40
0.6666666666666666
 40
0.6666666666666666
 40
0.6666666666666666
 40
1.0
 40
1.0
 40
1.0
 40
1.0
 10
7.7075
 20
18.5024
 30
0.0
 10
-1.8061
 20
23.1311
 30
0.0
 10
-12.9189
 20
23.1311
 30
0.0
 10
-22.4326
 20
18.5024
 30
0.0
 10
-22.4326
 20
18.5024
 30
0.0
 10
-22.4326
 20
18.5024
 30
0.0
 10
-22.4312
 20
18.0416
 30
0.0
 10
-22.4312
 20
18.0416
 30
0.0
 10
-22.4312
 20
18.0416
 30
0.0
 10
-22.4312
 20
18.0416
 30
0.0
 10
-6.5138
 20
18.0719
 30
0.0
 10
-6.5138
 20
18.0719
 30
0.0
 10
-6.5138
 20
18.0719
 30
0.0
 10
-6.5138
 20
18.0719
 30
0.0
 10
7.7231
 20
18.0938
 30
0.0
 10
7.7231
 20
18.0938
 30
0.0
 10
7.7231
 20
18.0938
 30
0.0
 10
7.7231
 20
18.0938
 30
0.0
 10
7.7075
 20
18.5024
 30
0.0
 10
7.7075
 20
18.5024
 30
0.0
  0
SPLINE
  5
EC
330
1F
100
AcDbEntity
  8
VRSTVA_1
 62
   250
100
AcDbSpline
210
0.0
220
0.0
230
1.0
 70
    11
 71
     3
 72
    44
 73
    40
 74
     0
 42
0.0000000001
 43
0.0000000001
 40
0.0
 40
0.0
 40
0.0
 40
0.0
 40
0.0909090909090909
 40
0.0909090909090909
 40
0.0909090909090909
 40
0.0909090909090909
 40
0.1818181818181818
 40
0.1818181818181818
 40
0.1818181818181818
 40
0.1818181818181818
 40
0.2727272727272727
 40
0.2727272727272727
 40
0.2727272727272727
 40
0.2727272727272727
 40
0.3636363636363636
 40
0.3636363636363636
 40
0.3636363636363636
 40
0.3636363636363636
 40
0.4545454545454545
 40
0.4545454545454545
 40
0.4545454545454545
 40
0.4545454545454545
 40
0.5454545454545454
 40
0.5454545454545454
 40
0.5454545454545454
 40
0.5454545454545454
 40
0.6363636363636364
 40
0.6363636363636364
 40
0.6363636363636364
 40
0.6363636363636364
 40
0.7272727272727273
 40
0.7272727272727273
 40
0.7272727272727273
 40
0.7272727272727273
 40
0.8181818181818182
 40
0.8181818181818182
 40
0.8181818181818182
 40
0.8181818181818182
 40
1.0
 40
1.0
 40
1.0
 40
1.0
 10
-16.6423
 20
15.3178
 30
0.0
 10
-16.728
 20
15.3291
 30
0.0
 10
-16.7921
 20
15.4021
 30
0.0
 10
-16.7921
 20
15.4885
 30
0.0
 10
-16.7921
 20
15.4885
 30
0.0
 10
-16.7921
 20
15.575
 30
0.0
 10
-16.728
 20
15.648
 30
0.0
 10
-16.6423
 20
15.6593
 30
0.0
 10
-16.6423
 20
15.6593
 30
0.0
 10
-16.6423
 20
15.6593
 30
0.0
 10
-15.5009
 20
15.7774
 30
0.0
 10
-15.5009
 20
15.7774
 30
0.0
 10
-15.5009
 20
15.7774
 30
0.0
 10
-15.5009
 20
15.7774
 30
0.0
 10
0.9711
 20
15.8143
 30
0.0
 10
0.9711
 20
15.8143
 30
0.0
 10
0.9711
 20
15.8143
 30
0.0
 10
0.9711
 20
15.8143
 30
0.0
 10
2.0678
 20
15.5944
 30
0.0
 10
2.0678
 20
15.5944
 30
0.0
 10
2.0678
 20
15.5944
 30
0.0
 10
2.0678
 20
15.5944
 30
0.0
 10
2.0678
 20
15.4478
 30
0.0
 10
2.0678
 20
15.4478
 30
0.0
 10
2.0678
 20
15.4478
 30
0.0
 10
2.0678
 20
15.4478
 30
0.0
 10
1.8486
 20
15.3561
 30
0.0
 10
1.8486
 20
15.3561
 30
0.0
 10
1.8486
 20
15.3561
 30
0.0
 10
1.8486
 20
15.3561
 30
0.0
 10
0.9527
 20
15.2463
 30
0.0
 10
0.9527
 20
15.2463
 30
0.0
 10
0.9527
 20
15.2463
 30
0.0
 10
0.9527
 20
15.2463
 30
0.0
 10
-15.702
 20
15.1731
 30
0.0
 10
-15.702
 20
15.1731
 30
0.0
 10
-15.702
 20
15.1731
 30
0.0
 10
-15.702
 20
15.1731
 30
0.0
 10
-16.6423
 20
15.3178
 30
0.0
 10
-16.6423
 20
15.3178
 30
0.0
  0
SPLINE
  5
ED
330
1F
100
AcDbEntity
  8
VRSTVA_1
 62
   250
100
AcDbSpline
210
0.0
220
0.0
230
1.0
 70
    11
 71
     3
 72
    20
 73
    16
 74
     0
 42
0.0000000001
 43
0.0000000001
 40
0.0
 40
0.0
 40
0.0
 40
0.0
 40
0.2
 40
0.2
 40
0.2
 40
0.2
 40
0.4
 40
0.4
 40
0.4
 40
0.4
 40
0.6
 40
0.6
 40
0.6
 40
0.6
 40
1.0
 40
1.0
 40
1.0
 40
1.0
 10
-15.8793
 20
14.6221
 30
0.0
 10
-15.8793
 20
14.6221
 30
0.0
 10
1.1257
 20
14.6221
 30
0.0
 10
1.1257
 20
14.6221
 30
0.0
 10
1.1257
 20
14.6221
 30
0.0
 10
1.1257
 20
14.6221
 30
0.0
 10
1.1257
 20
14.1937
 30
0.0
 10
1.1257
 20
14.1937
 30
0.0
 10
1.1257
 20
14.1937
 30
0.0
 10
1.1257
 20
14.1937
 30
0.0
 10
-15.8793
 20
14.1937
 30
0.0
 10
-15.8793
 20
14.1937
 30
0.0
 10
-15.8793
 20
14.1937
 30
0.0
 10
-15.8793
 20
14.1937
 30
0.0
 10
-15.8793
 20
14.6221
 30
0.0
 10
-15.8793
 20
14.6221
 30
0.0
  0
ENDSEC
  0
SECTION
  2
OBJECTS
  0
DICTIONARY
  5
C
330
0
100
AcDbDictionary
  3
ACAD_GROUP
350
D
  3
ACAD_LAYOUT
350
1A
  3
ACAD_MATERIAL
350
3B
  3
ACAD_MLEADERSTYLE
350
110
  3
ACAD_MLINESTYLE
350
17
  3
ACAD_PLOTSETTINGS
350
19
  3
ACAD_VISUALSTYLE
350
2A
  3
ACDBHEADERROUNDTRIPXREC
350
EE
  3
ACDBVARIABLEDICTIONARY
350
10E
  0
DICTIONARY
  5
D
102
{ACAD_REACTORS
330
C
102
}
330
C
100
AcDbDictionary
  0
DICTIONARY
  5
1A
102
{ACAD_REACTORS
330
C
102
}
330
C
100
AcDbDictionary
  0
DICTIONARY
  5
3B
102
{ACAD_REACTORS
330
C
102
}
330
C
100
AcDbDictionary
  3
BYBLOCK
350
3D
  3
BYLAYER
350
3C
  3
GLOBAL
350
3E
  0
DICTIONARY
  5
110
102
{ACAD_REACTORS
330
C
102
}
330
C
100
AcDbDictionary
  0
DICTIONARY
  5
17
102
{ACAD_REACTORS
330
C
102
}
330
C
100
AcDbDictionary
  3
STANDARD
350
18
  0
DICTIONARY
  5
19
102
{ACAD_REACTORS
330
C
102
}
330
C
100
AcDbDictionary
  0
DICTIONARY
  5
2A
102
{ACAD_REACTORS
330
C
102
}
330
C
100
AcDbDictionary
  3
2DWIREFRAME
350
2F
  3
3D_HIDDEN
350
31
  3
3DWIREFRAME
350
30
  3
BASIC
350
32
  3
BRIGHTEN
350
36
  3
COLORCHANGE
350
3A
  3
CONCEPTUAL
350
34
  3
DIM
350
35
  3
FACEPATTERN
350
39
  3
FLAT
350
2B
  3
FLATWITHEDGES
350
2C
  3
GOURAUD
350
2D
  3
GOURAUDWITHEDGES
350
2E
  3
LINEPATTERN
350
38
  3
REALISTIC
350
33
  3
THICKEN
350
37
  0
DICTIONARY
  5
EE
102
{ACAD_REACTORS
330
C
102
}
330
C
100
AcDbDictionary
  3
CEPSNTYPE
350
F7
  3
DIMSTYLEDATA
350
10D
  3
FINGERPRINTGUID
350
F8
  3
HYPERLINKBASE
350
F1
  3
INSUNITS
350
F6
  3
LAYOUTDICT
350
F3
  3
LWETCUNION
350
F5
  3
PLOTSETDICT
350
F4
  3
PSVPSCALE
350
FA
  3
PUCSBASE
350
FD
  3
PUCSORGBACK
350
103
  3
PUCSORGBOTTOM
350
FF
  3
PUCSORGFRONT
350
102
  3
PUCSORGLEFT
350
100
  3
PUCSORGRIGHT
350
101
  3
PUCSORGTOP
350
FE
  3
PUCSORTHOREF
350
FB
  3
PUCSORTHOVIEW
350
FC
  3
STYLESHEET
350
F2
  3
TSTACKALIGN
350
EF
  3
TSTACKSIZE
350
F0
  3
UCSBASE
350
106
  3
UCSORGBACK
350
10C
  3
UCSORGBOTTOM
350
108
  3
UCSORGFRONT
350
10B
  3
UCSORGLEFT
350
109
  3
UCSORGRIGHT
350
10A
  3
UCSORGTOP
350
107
  3
UCSORTHOREF
350
104
  3
UCSORTHOVIEW
350
105
  3
VERSIONGUID
350
F9
  0
DICTIONARY
  5
10E
102
{ACAD_REACTORS
330
C
102
}
330
C
100
AcDbDictionary
  3
DIMASSOC
350
111
  3
HIDETEXT
350
112
  0
MATERIAL
  5
3D
102
{ACAD_REACTORS
330
3B
102
}
102
{ACAD_XDICTIONARY
360
115
102
}
330
3B
100
AcDbMaterial
  1
ByBlock
  0
MATERIAL
  5
3C
102
{ACAD_REACTORS
330
3B
102
}
102
{ACAD_XDICTIONARY
360
113
102
}
330
3B
100
AcDbMaterial
  1
ByLayer
  0
MATERIAL
  5
3E
102
{ACAD_REACTORS
330
3B
102
}
102
{ACAD_XDICTIONARY
360
117
102
}
330
3B
100
AcDbMaterial
  1
Global
  0
MLINESTYLE
  5
18
102
{ACAD_REACTORS
330
17
102
}
330
17
100
AcDbMlineStyle
  2
Standard
 70
     0
  3

 62
   256
 51
90.0
 52
90.0
 71
     2
 49
0.5
 62
   256
  6
BYLAYER
 49
-0.5
 62
   256
  6
BYLAYER
  0
ACAD_PROXY_OBJECT
  5
2F
102
{ACAD_REACTORS
330
2A
102
}
330
2A
100
AcDbProxyObject
 90
      499
 91
      501
 93
      436
310
42CC9915DA5C99599C985B595049028333333333333E3BF0000000000000FB0107901411070040501600405405064090741402480A0340
1001
ACAD
1000
AcDbSavedByObjectVersion
1070
     0
  0
ACAD_PROXY_OBJECT
  5
31
102
{ACAD_REACTORS
330
2A
102
}
330
2A
100
AcDbProxyObject
 90
      499
 91
      501
 93
      500
310
424CD108121A5919195B90640502408333333333333E3BF0000000000000FB01079024090700405020000000000001110200405405064090740C02480A0340
1001
ACAD
1000
AcDbSavedByObjectVersion
1070
     0
  0
ACAD_PROXY_OBJECT
  5
30
102
{ACAD_REACTORS
330
2A
102
}
330
2A
100
AcDbProxyObject
 90
      499
 91
      501
 93
      436
310
42CCD915DA5C99599C985B595059028333333333333E3BF0000000000000FB0107901411070040501600405405064090741402480A0340
1001
ACAD
1000
AcDbSavedByObjectVersion
1070
     0
  0
ACAD_PROXY_OBJECT
  5
32
102
{ACAD_REACTORS
330
2A
102
}
330
2A
100
AcDbProxyObject
 90
      499
 91
      501
 93
      388
310
4150985CDA58D07406404333333333333E3BF0000000000000FB0107A41107004050150841D405064090741402480A0350
1001
ACAD
1000
AcDbSavedByObjectVersion
1070
     0
  0
ACAD_PROXY_OBJECT
  5
36
102
{ACAD_REACTORS
330
2A
102
}
330
2A
100
AcDbProxyObject
 90
      499
 91
      501
 93
      428
310
42109C9A59DA1D195B90C409028333333333333E3BF0000000000000FB010790141107004050150841D405064090741402480A029950
1001
ACAD
1000
AcDbSavedByObjectVersion
1070
     0
  0
ACAD_PROXY_OBJECT
  5
3A
102
{ACAD_REACTORS
330
2A
102
}
330
2A
100
AcDbProxyObject
 90
      499
 91
      501
 93
      452
310
42D0DBDB1BDC90DA185B99D95104090240C333333333333E3BF0000000000000FB0108901411070040501508421405064090741402480A0350
1001
ACAD
1000
AcDbSavedByObjectVersion
1070
     0
  0
ACAD_PROXY_OBJECT
  5
34
102
{ACAD_REACTORS
330
2A
102
}
330
2A
100
AcDbProxyObject
 90
      499
 91
      501
 93
      500
310
4290DBDB98D95C1D1D585B10940D028333333333333E3BF0000000000000FB0107902409070040501000000000000111010841D405064090740C02480A0340
1001
ACAD
1000
AcDbSavedByObjectVersion
1070
     0
  0
ACAD_PROXY_OBJECT
  5
35
102
{ACAD_REACTORS
330
2A
102
}
330
2A
100
AcDbProxyObject
 90
      499
 91
      501
 93
      412
310
40D11A5B50B409028333333333333E3BF0000000000000FB010790141107004050150841D405064090741402480A02677FFFFFD0
1001
ACAD
1000
AcDbSavedByObjectVersion
1070
     0
  0
ACAD_PROXY_OBJECT
  5
39
102
{ACAD_REACTORS
330
2A
102
}
330
2A
100
AcDbProxyObject
 90
      499
 91
      501
 93
      444
310
42D19858D95C185D1D195C9B90F409028333333333333E3BF0000000000000FB010790141107004050150841D405064090741402480A0350
1001
ACAD
1000
AcDbSavedByObjectVersion
1070
     0
  0
ACAD_PROXY_OBJECT
  5
2B
102
{ACAD_REACTORS
330
2A
102
}
330
2A
100
AcDbProxyObject
 90
      499
 91
      501
 93
      388
310
41119B185D240901404333333333333E3BF0000000000000F9010740A41107004050150841D405064090741402480A1B50
1001
ACAD
1000
AcDbSavedByObjectVersion
1070
     0
  0
ACAD_PROXY_OBJECT
  5
2C
102
{ACAD_REACTORS
330
2A
102
}
330
2A
100
AcDbProxyObject
 90
      499
 91
      501
 93
      476
310
43519B185D15DA5D1A115919D95CD0140901404333333333333E3BF0000000000000F9010740901411070040501600405405064090741402480A1B50
1001
ACAD
1000
AcDbSavedByObjectVersion
1070
     0
  0
ACAD_PROXY_OBJECT
  5
2D
102
{ACAD_REACTORS
330
2A
102
}
330
2A
100
AcDbProxyObject
 90
      499
 91
      501
 93
      412
310
41D1DBDD5C985D5910240902404333333333333E3BF0000000000000F9010740A411070040501641D405064090741402480A1B50
1001
ACAD
1000
AcDbSavedByObjectVersion
1070
     0
  0
ACAD_PROXY_OBJECT
  5
2E
102
{ACAD_REACTORS
330
2A
102
}
330
2A
100
AcDbProxyObject
 90
      499
 91
      501
 93
      500
310
4411DBDD5C985D5915DA5D1A115919D95CD0340902404333333333333E3BF0000000000000F9010740901411070040501600405405064090741402480A1B50
1001
ACAD
1000
AcDbSavedByObjectVersion
1070
     0
  0
ACAD_PROXY_OBJECT
  5
38
102
{ACAD_REACTORS
330
2A
102
}
330
2A
100
AcDbProxyObject
 90
      499
 91
      501
 93
      444
310
42D31A5B995C185D1D195C9B90E409028333333333333E3BF0000000000000FB010790141107004050750841D405064090741402483A0350
1001
ACAD
1000
AcDbSavedByObjectVersion
1070
     0
  0
ACAD_PROXY_OBJECT
  5
33
102
{ACAD_REACTORS
330
2A
102
}
330
2A
100
AcDbProxyObject
 90
      499
 91
      501
 93
      420
310
425499585B1A5CDD1A58D08409028333333333333E3BF0000000000000FB01079019070040501508421405064090741402480A1B40
1001
ACAD
1000
AcDbSavedByObjectVersion
1070
     0
  0
ACAD_PROXY_OBJECT
  5
37
102
{ACAD_REACTORS
330
2A
102
}
330
2A
100
AcDbProxyObject
 90
      499
 91
      501
 93
      412
310
41D51A1A58DAD95B90D409028333333333333E3BF0000000000000FB010790141107004050150C41D405064090741402480A0350
1001
ACAD
1000
AcDbSavedByObjectVersion
1070
     0
  0
XRECORD
  5
F7
102
{ACAD_REACTORS
330
EE
102
}
330
EE
100
AcDbXrecord
 90
        0
  0
XRECORD
  5
10D
102
{ACAD_REACTORS
330
EE
102
}
330
EE
100
AcDbXrecord
1000
DSTYLE
1002
{
1070
   340
340
11
1002
}
  0
XRECORD
  5
F8
102
{ACAD_REACTORS
330
EE
102
}
330
EE
100
AcDbXrecord
  1
{B1B27F9E-A6FB-4145-A5F3-DBC1C7A26B2C}
  0
XRECORD
  5
F1
102
{ACAD_REACTORS
330
EE
102
}
330
EE
100
AcDbXrecord
  1

  0
XRECORD
  5
F6
102
{ACAD_REACTORS
330
EE
102
}
330
EE
100
AcDbXrecord
 90
        4
  0
XRECORD
  5
F3
102
{ACAD_REACTORS
330
EE
102
}
330
EE
100
AcDbXrecord
340
1A
  0
XRECORD
  5
F5
102
{ACAD_REACTORS
330
EE
102
}
330
EE
100
AcDbXrecord
 90
    10781
  0
XRECORD
  5
F4
102
{ACAD_REACTORS
330
EE
102
}
330
EE
100
AcDbXrecord
340
19
  0
XRECORD
  5
FA
102
{ACAD_REACTORS
330
EE
102
}
330
EE
100
AcDbXrecord
 40
0.0
  0
XRECORD
  5
FD
102
{ACAD_REACTORS
330
EE
102
}
330
EE
100
AcDbXrecord
340
0
  0
XRECORD
  5
103
102
{ACAD_REACTORS
330
EE
102
}
330
EE
100
AcDbXrecord
 10
0.0
 20
0.0
 30
0.0
  0
XRECORD
  5
FF
102
{ACAD_REACTORS
330
EE
102
}
330
EE
100
AcDbXrecord
 10
0.0
 20
0.0
 30
0.0
  0
XRECORD
  5
102
102
{ACAD_REACTORS
330
EE
102
}
330
EE
100
AcDbXrecord
 10
0.0
 20
0.0
 30
0.0
  0
XRECORD
  5
100
102
{ACAD_REACTORS
330
EE
102
}
330
EE
100
AcDbXrecord
 10
0.0
 20
0.0
 30
0.0
  0
XRECORD
  5
101
102
{ACAD_REACTORS
330
EE
102
}
330
EE
100
AcDbXrecord
 10
0.0
 20
0.0
 30
0.0
  0
XRECORD
  5
FE
102
{ACAD_REACTORS
330
EE
102
}
330
EE
100
AcDbXrecord
 10
0.0
 20
0.0
 30
0.0
  0
XRECORD
  5
FB
102
{ACAD_REACTORS
330
EE
102
}
330
EE
100
AcDbXrecord
340
0
  0
XRECORD
  5
FC
102
{ACAD_REACTORS
330
EE
102
}
330
EE
100
AcDbXrecord
 70
     0
  0
XRECORD
  5
F2
102
{ACAD_REACTORS
330
EE
102
}
330
EE
100
AcDbXrecord
  1

  0
XRECORD
  5
EF
102
{ACAD_REACTORS
330
EE
102
}
330
EE
100
AcDbXrecord
 90
        1
  0
XRECORD
  5
F0
102
{ACAD_REACTORS
330
EE
102
}
330
EE
100
AcDbXrecord
 90
       70
  0
XRECORD
  5
106
102
{ACAD_REACTORS
330
EE
102
}
330
EE
100
AcDbXrecord
340
0
  0
XRECORD
  5
10C
102
{ACAD_REACTORS
330
EE
102
}
330
EE
100
AcDbXrecord
 10
0.0
 20
0.0
 30
0.0
  0
XRECORD
  5
108
102
{ACAD_REACTORS
330
EE
102
}
330
EE
100
AcDbXrecord
 10
0.0
 20
0.0
 30
0.0
  0
XRECORD
  5
10B
102
{ACAD_REACTORS
330
EE
102
}
330
EE
100
AcDbXrecord
 10
0.0
 20
0.0
 30
0.0
  0
XRECORD
  5
109
102
{ACAD_REACTORS
330
EE
102
}
330
EE
100
AcDbXrecord
 10
0.0
 20
0.0
 30
0.0
  0
XRECORD
  5
10A
102
{ACAD_REACTORS
330
EE
102
}
330
EE
100
AcDbXrecord
 10
0.0
 20
0.0
 30
0.0
  0
XRECORD
  5
107
102
{ACAD_REACTORS
330
EE
102
}
330
EE
100
AcDbXrecord
 10
0.0
 20
0.0
 30
0.0
  0
XRECORD
  5
104
102
{ACAD_REACTORS
330
EE
102
}
330
EE
100
AcDbXrecord
340
0
  0
XRECORD
  5
105
102
{ACAD_REACTORS
330
EE
102
}
330
EE
100
AcDbXrecord
 70
     0
  0
XRECORD
  5
F9
102
{ACAD_REACTORS
330
EE
102
}
330
EE
100
AcDbXrecord
  1
{FAEB1C32-E019-11D5-929B-00C0DF256EC4}
  0
DICTIONARYVAR
  5
111
102
{ACAD_REACTORS
330
10E
102
}
330
10E
100
DictionaryVariables
280
     0
  1
2
  0
DICTIONARYVAR
  5
112
102
{ACAD_REACTORS
330
10E
102
}
330
10E
100
DictionaryVariables
280
     0
  1
1
  0
DICTIONARY
  5
115
330
3D
100
AcDbDictionary
280
     1
  3
ACAD_XREC_ROUNDTRIP
360
116
  0
DICTIONARY
  5
113
330
3C
100
AcDbDictionary
280
     1
  3
ACAD_XREC_ROUNDTRIP
360
114
  0
DICTIONARY
  5
117
330
3E
100
AcDbDictionary
280
     1
  3
ACAD_XREC_ROUNDTRIP
360
118
  0
XRECORD
  5
116
102
{ACAD_REACTORS
330
115
102
}
330
115
100
AcDbXrecord
102
MATERIAL
148
0.0
149
0.0
149
0.0
 93
        0
 94
      127
282
     0
 72
     1
 77
     1
171
     1
175
     1
179
     1
273
     0
  0
XRECORD
  5
114
102
{ACAD_REACTORS
330
113
102
}
330
113
100
AcDbXrecord
102
MATERIAL
148
0.0
149
0.0
149
0.0
 93
        0
 94
      127
282
     0
 72
     1
 77
     1
171
     1
175
     1
179
     1
273
     0
  0
XRECORD
  5
118
102
{ACAD_REACTORS
330
117
102
}
330
117
100
AcDbXrecord
102
MATERIAL
148
0.0
149
0.0
149
0.0
 93
        0
 94
      127
282
     0
 72
     1
 77
     1
171
     1
175
     1
179
     1
273
     0
  0
ENDSEC
  0
EOF
