  0
SECTION
  2
HEADER
  9
$ACADVER
  1
AC1014
  9
$ACADMAINTVER
 70
     9
  9
$DWGCODEPAGE
  3
ANSI_1250
  9
$INSBASE
 10
0.0
 20
0.0
 30
0.0
  9
$EXTMIN
 10
-25.9077
 20
-34.907
 30
0.0
  9
$EXTMAX
 10
25.9743
 20
34.907
 30
0.0
  9
$LIMMIN
 10
0.0
 20
0.0
  9
$LIMMAX
 10
12.0
 20
9.0
  9
$ORTHOMODE
 70
     0
  9
$REGENMODE
 70
     1
  9
$FILLMODE
 70
     1
  9
$QTEXTMODE
 70
     0
  9
$MIRRTEXT
 70
     1
  9
$DRAGMODE
 70
     2
  9
$LTSCALE
 40
1.0
  9
$OSMODE
 70
    37
  9
$ATTMODE
 70
     1
  9
$TEXTSIZE
 40
0.2
  9
$TRACEWID
 40
0.05
  9
$TEXTSTYLE
  7
STANDARD
  9
$CLAYER
  8
0
  9
$CELTYPE
  6
BYLAYER
  9
$CECOLOR
 62
   256
  9
$CELTSCALE
 40
1.0
  9
$DELOBJ
 70
     1
  9
$DISPSILH
 70
     0
  9
$DIMSCALE
 40
1.0
  9
$DIMASZ
 40
0.18
  9
$DIMEXO
 40
0.0625
  9
$DIMDLI
 40
0.38
  9
$DIMRND
 40
0.0
  9
$DIMDLE
 40
0.0
  9
$DIMEXE
 40
0.18
  9
$DIMTP
 40
0.0
  9
$DIMTM
 40
0.0
  9
$DIMTXT
 40
0.18
  9
$DIMCEN
 40
0.09
  9
$DIMTSZ
 40
0.0
  9
$DIMTOL
 70
     0
  9
$DIMLIM
 70
     0
  9
$DIMTIH
 70
     1
  9
$DIMTOH
 70
     1
  9
$DIMSE1
 70
     0
  9
$DIMSE2
 70
     0
  9
$DIMTAD
 70
     0
  9
$DIMZIN
 70
     0
  9
$DIMBLK
  1

  9
$DIMASO
 70
     1
  9
$DIMSHO
 70
     1
  9
$DIMPOST
  1

  9
$DIMAPOST
  1

  9
$DIMALT
 70
     0
  9
$DIMALTD
 70
     2
  9
$DIMALTF
 40
25.4
  9
$DIMLFAC
 40
1.0
  9
$DIMTOFL
 70
     0
  9
$DIMTVP
 40
0.0
  9
$DIMTIX
 70
     0
  9
$DIMSOXD
 70
     0
  9
$DIMSAH
 70
     0
  9
$DIMBLK1
  1

  9
$DIMBLK2
  1

  9
$DIMSTYLE
  2
STANDARD
  9
$DIMCLRD
 70
     0
  9
$DIMCLRE
 70
     0
  9
$DIMCLRT
 70
     0
  9
$DIMTFAC
 40
1.0
  9
$DIMGAP
 40
0.09
  9
$DIMJUST
 70
     0
  9
$DIMSD1
 70
     0
  9
$DIMSD2
 70
     0
  9
$DIMTOLJ
 70
     1
  9
$DIMTZIN
 70
     0
  9
$DIMALTZ
 70
     0
  9
$DIMALTTZ
 70
     0
  9
$DIMFIT
 70
     3
  9
$DIMUPT
 70
     0
  9
$DIMUNIT
 70
     2
  9
$DIMDEC
 70
     4
  9
$DIMTDEC
 70
     4
  9
$DIMALTU
 70
     2
  9
$DIMALTTD
 70
     2
  9
$DIMTXSTY
  7
STANDARD
  9
$DIMAUNIT
 70
     0
  9
$LUNITS
 70
     2
  9
$LUPREC
 70
     4
  9
$SKETCHINC
 40
0.1
  9
$FILLETRAD
 40
0.5
  9
$AUNITS
 70
     0
  9
$AUPREC
 70
     0
  9
$MENU
  1
.
  9
$ELEVATION
 40
0.0
  9
$PELEVATION
 40
0.0
  9
$THICKNESS
 40
0.0
  9
$LIMCHECK
 70
     0
  9
$CHAMFERA
 40
0.5
  9
$CHAMFERB
 40
0.5
  9
$CHAMFERC
 40
1.0
  9
$CHAMFERD
 40
0.0
  9
$SKPOLY
 70
     0
  9
$TDCREATE
 40
2456240.624722639
  9
$TDUPDATE
 40
2456240.62472265
  9
$TDINDWG
 40
0.0000000116
  9
$TDUSRTIMER
 40
0.0000000116
  9
$USRTIMER
 70
     1
  9
$ANGBASE
 50
0.0
  9
$ANGDIR
 70
     0
  9
$PDMODE
 70
     0
  9
$PDSIZE
 40
0.0
  9
$PLINEWID
 40
0.0
  9
$COORDS
 70
     1
  9
$SPLFRAME
 70
     0
  9
$SPLINETYPE
 70
     6
  9
$SPLINESEGS
 70
     8
  9
$ATTDIA
 70
     0
  9
$ATTREQ
 70
     1
  9
$HANDLING
 70
     1
  9
$HANDSEED
  5
120
  9
$SURFTAB1
 70
     6
  9
$SURFTAB2
 70
     6
  9
$SURFTYPE
 70
     6
  9
$SURFU
 70
     6
  9
$SURFV
 70
     6
  9
$UCSNAME
  2

  9
$UCSORG
 10
0.0
 20
0.0
 30
0.0
  9
$UCSXDIR
 10
1.0
 20
0.0
 30
0.0
  9
$UCSYDIR
 10
0.0
 20
1.0
 30
0.0
  9
$PUCSNAME
  2

  9
$PUCSORG
 10
0.0
 20
0.0
 30
0.0
  9
$PUCSXDIR
 10
1.0
 20
0.0
 30
0.0
  9
$PUCSYDIR
 10
0.0
 20
1.0
 30
0.0
  9
$USERI1
 70
     0
  9
$USERI2
 70
     0
  9
$USERI3
 70
     0
  9
$USERI4
 70
     0
  9
$USERI5
 70
     0
  9
$USERR1
 40
0.0
  9
$USERR2
 40
0.0
  9
$USERR3
 40
0.0
  9
$USERR4
 40
0.0
  9
$USERR5
 40
0.0
  9
$WORLDVIEW
 70
     1
  9
$SHADEDGE
 70
     3
  9
$SHADEDIF
 70
    70
  9
$TILEMODE
 70
     1
  9
$MAXACTVP
 70
    64
  9
$PINSBASE
 10
0.0
 20
0.0
 30
0.0
  9
$PLIMCHECK
 70
     0
  9
$PEXTMIN
 10
1.000000000000000E+20
 20
1.000000000000000E+20
 30
1.000000000000000E+20
  9
$PEXTMAX
 10
-1.000000000000000E+20
 20
-1.000000000000000E+20
 30
-1.000000000000000E+20
  9
$PLIMMIN
 10
0.0
 20
0.0
  9
$PLIMMAX
 10
12.0
 20
9.0
  9
$UNITMODE
 70
     0
  9
$VISRETAIN
 70
     1
  9
$PLINEGEN
 70
     0
  9
$PSLTSCALE
 70
     1
  9
$TREEDEPTH
 70
  3020
  9
$PICKSTYLE
 70
     1
  9
$CMLSTYLE
  2
STANDARD
  9
$CMLJUST
 70
     0
  9
$CMLSCALE
 40
1.0
  9
$PROXYGRAPHICS
 70
     1
  9
$MEASUREMENT
 70
     0
  0
ENDSEC
  0
SECTION
  2
CLASSES
  0
CLASS
  1
ACDBDICTIONARYWDFLT
  2
AcDbDictionaryWithDefault
  3
ObjectDBX Classes
 90
        0
280
     0
281
     0
  0
CLASS
  1
VISUALSTYLE
  2
AcDbVisualStyle
  3
ObjectDBX Classes
 90
     4095
280
     0
281
     0
  0
CLASS
  1
MATERIAL
  2
AcDbMaterial
  3
ObjectDBX Classes
 90
     1153
280
     0
281
     0
  0
CLASS
  1
DICTIONARYVAR
  2
AcDbDictionaryVar
  3
ObjectDBX Classes
 90
        0
280
     0
281
     0
  0
CLASS
  1
XRECORD
  2
AcDbXrecord
  3
AutoCAD 2000
 90
        0
280
     0
281
     0
  0
CLASS
  1
LWPOLYLINE
  2
AcDbPolyline
  3
AutoCAD 2000
 90
        0
280
     0
281
     1
  0
CLASS
  1
HATCH
  2
AcDbHatch
  3
AutoCAD 2000
 90
        0
280
     0
281
     1
  0
CLASS
  1
ACDBPLACEHOLDER
  2
AcDbPlaceHolder
  3
ObjectDBX Classes
 90
        0
280
     0
281
     0
  0
CLASS
  1
LAYOUT
  2
AcDbLayout
  3
ObjectDBX Classes
 90
        0
280
     0
281
     0
  0
ENDSEC
  0
SECTION
  2
TABLES
  0
TABLE
  2
VPORT
  5
8
330
0
100
AcDbSymbolTable
 70
     1
  0
VPORT
  5
29
330
8
100
AcDbSymbolTableRecord
100
AcDbViewportTableRecord
  2
*ACTIVE
 70
     0
 10
0.0
 20
0.0
 11
1.0
 21
1.0
 12
10.42990654205607
 22
4.5
 13
0.0
 23
0.0
 14
0.5
 24
0.5
 15
0.5
 25
0.5
 16
0.0
 26
0.0
 36
1.0
 17
0.0
 27
0.0
 37
0.0
 40
9.0
 41
1.972972972850329
 42
50.0
 43
0.0
 44
0.0
 50
0.0
 51
0.0
 71
     0
 72
   100
 73
     1
 74
     3
 75
     0
 76
     0
 77
     0
 78
     0
  0
ENDTAB
  0
TABLE
  2
LTYPE
  5
5
330
0
100
AcDbSymbolTable
 70
     3
  0
LTYPE
  5
14
330
5
100
AcDbSymbolTableRecord
100
AcDbLinetypeTableRecord
  2
BYBLOCK
 70
     0
  3

 72
    65
 73
     0
 40
0.0
  0
LTYPE
  5
15
330
5
100
AcDbSymbolTableRecord
100
AcDbLinetypeTableRecord
  2
BYLAYER
 70
     0
  3

 72
    65
 73
     0
 40
0.0
  0
LTYPE
  5
16
330
5
100
AcDbSymbolTableRecord
100
AcDbLinetypeTableRecord
  2
CONTINUOUS
 70
     0
  3
Solid line
 72
    65
 73
     0
 40
0.0
  0
LTYPE
  5
A1
330
5
100
AcDbSymbolTableRecord
100
AcDbLinetypeTableRecord
  2
NEW_LINE1
 70
     0
  3

 72
    65
 73
     4
 40
1.2
 49
0.5
 74
     4
 75
     0
340
0
 46
1.0
 50
0.0
 44
0.0
 45
0.0
 49
-0.3
 74
     4
 75
     0
340
0
 46
1.0
 50
0.0
 44
0.0
 45
0.0
 49
0.1
 74
     4
 75
     0
340
0
 46
1.0
 50
0.0
 44
0.0
 45
0.0
 49
-0.3
 74
     4
 75
     0
340
0
 46
1.0
 50
0.0
 44
0.0
 45
0.0
  0
LTYPE
  5
A3
330
5
100
AcDbSymbolTableRecord
100
AcDbLinetypeTableRecord
  2
NEW_LINE2
 70
     0
  3

 72
    65
 73
     4
 40
1.2
 49
0.5
 74
     4
 75
     0
340
0
 46
1.0
 50
0.0
 44
0.0
 45
0.0
 49
-0.3
 74
     4
 75
     0
340
0
 46
1.0
 50
0.0
 44
0.0
 45
0.0
 49
0.1
 74
     4
 75
     0
340
0
 46
1.0
 50
0.0
 44
0.0
 45
0.0
 49
-0.3
 74
     4
 75
     0
340
0
 46
1.0
 50
0.0
 44
0.0
 45
0.0
  0
ENDTAB
  0
TABLE
  2
LAYER
  5
2
330
0
100
AcDbSymbolTable
 70
     2
  0
LAYER
  5
10
330
2
100
AcDbSymbolTableRecord
100
AcDbLayerTableRecord
  2
0
 70
     0
 62
     7
  6
CONTINUOUS
  0
LAYER
  5
40
330
2
100
AcDbSymbolTableRecord
100
AcDbLayerTableRecord
  2
DEFAULT_1
 70
     0
 62
     7
  6
CONTINUOUS
  0
ENDTAB
  0
TABLE
  2
STYLE
  5
3
330
0
100
AcDbSymbolTable
 70
     1
  0
STYLE
  5
11
330
3
100
AcDbSymbolTableRecord
100
AcDbTextStyleTableRecord
  2
STANDARD
 70
     0
 40
0.0
 41
1.0
 50
0.0
 71
     0
 42
0.2
  3
txt
  4

  0
ENDTAB
  0
TABLE
  2
VIEW
  5
6
330
0
100
AcDbSymbolTable
 70
     0
  0
ENDTAB
  0
TABLE
  2
UCS
  5
7
330
0
100
AcDbSymbolTable
 70
     0
  0
ENDTAB
  0
TABLE
  2
APPID
  5
9
330
0
100
AcDbSymbolTable
 70
     2
  0
APPID
  5
12
330
9
100
AcDbSymbolTableRecord
100
AcDbRegAppTableRecord
  2
ACAD
 70
     0
  0
APPID
  5
3F
330
9
100
AcDbSymbolTableRecord
100
AcDbRegAppTableRecord
  2
ODA
 70
     0
  0
ENDTAB
  0
TABLE
  2
DIMSTYLE
  5
A
330
0
100
AcDbSymbolTable
 70
     1
  0
DIMSTYLE
105
27
330
A
100
AcDbSymbolTableRecord
100
AcDbDimStyleTableRecord
  2
STANDARD
 70
     0
  3

  4

  5

  6

  7

 40
1.0
 41
0.18
 42
0.0625
 43
0.38
 44
0.18
 45
0.0
 46
0.0
 47
0.0
 48
0.0
140
0.18
141
0.09
142
0.0
143
25.4
144
1.0
145
0.0
146
1.0
147
0.09
 71
     0
 72
     0
 73
     1
 74
     1
 75
     0
 76
     0
 77
     0
 78
     0
170
     0
171
     2
172
     0
173
     0
174
     0
175
     0
176
     0
177
     0
178
     0
270
     2
271
     4
272
     4
273
     2
274
     2
340
11
275
     0
280
     0
281
     0
282
     0
283
     1
284
     0
285
     0
286
     0
287
     3
288
     0
  0
ENDTAB
  0
TABLE
  2
BLOCK_RECORD
  5
1
330
0
100
AcDbSymbolTable
 70
     1
  0
BLOCK_RECORD
  5
1F
330
1
100
AcDbSymbolTableRecord
100
AcDbBlockTableRecord
  2
*MODEL_SPACE
  0
BLOCK_RECORD
  5
1B
330
1
100
AcDbSymbolTableRecord
100
AcDbBlockTableRecord
  2
*PAPER_SPACE
  0
ENDTAB
  0
ENDSEC
  0
SECTION
  2
BLOCKS
  0
BLOCK
  5
20
330
1F
100
AcDbEntity
  8
0
100
AcDbBlockBegin
  2
*MODEL_SPACE
 70
     0
 10
0.0
 20
0.0
 30
0.0
  3
*MODEL_SPACE
  1

  0
ENDBLK
  5
21
330
1F
100
AcDbEntity
  8
0
100
AcDbBlockEnd
  0
BLOCK
  5
1C
330
1B
100
AcDbEntity
 67
     1
  8
0
100
AcDbBlockBegin
  2
*PAPER_SPACE
 70
     0
 10
0.0
 20
0.0
 30
0.0
  3
*PAPER_SPACE
  1

  0
ENDBLK
  5
1D
330
1B
100
AcDbEntity
 67
     1
  8
0
100
AcDbBlockEnd
  0
ENDSEC
  0
SECTION
  2
ENTITIES
  0
SPLINE
  5
41
330
1F
100
AcDbEntity
  8
DEFAULT_1
 62
   250
100
AcDbSpline
210
0.0
220
0.0
230
1.0
 70
    24
 71
     3
 72
     8
 73
     4
 74
     0
 42
0.0000000001
 43
0.0000000001
 40
0.0
 40
0.0
 40
0.0
 40
0.0
 40
1.0
 40
1.0
 40
1.0
 40
1.0
 10
19.2326
 20
8.0424
 30
0.0
 10
19.2326
 20
8.0424
 30
0.0
 10
19.2326
 20
-3.3918
 30
0.0
 10
19.2326
 20
-3.3918
 30
0.0
  0
SPLINE
  5
42
330
1F
100
AcDbEntity
  8
DEFAULT_1
 62
   250
100
AcDbSpline
210
0.0
220
0.0
230
1.0
 70
    24
 71
     3
 72
     8
 73
     4
 74
     0
 42
0.0000000001
 43
0.0000000001
 40
0.0
 40
0.0
 40
0.0
 40
0.0
 40
1.0
 40
1.0
 40
1.0
 40
1.0
 10
19.2734
 20
8.5774
 30
0.0
 10
19.2734
 20
8.5774
 30
0.0
 10
19.9416
 20
4.1227
 30
0.0
 10
19.9416
 20
4.1227
 30
0.0
  0
SPLINE
  5
43
330
1F
100
AcDbEntity
  8
DEFAULT_1
 62
   250
100
AcDbSpline
210
0.0
220
0.0
230
1.0
 70
     8
 71
     3
 72
    12
 73
     8
 74
     0
 42
0.0000000001
 43
0.0000000001
 40
0.0
 40
0.0
 40
0.0
 40
0.0
 40
0.3333333333333333
 40
0.3333333333333333
 40
0.3333333333333333
 40
0.3333333333333333
 40
1.0
 40
1.0
 40
1.0
 40
1.0
 10
19.9416
 20
4.1227
 30
0.0
 10
19.9416
 20
4.1227
 30
0.0
 10
18.6052
 20
4.1227
 30
0.0
 10
18.6052
 20
4.1227
 30
0.0
 10
18.6052
 20
4.1227
 30
0.0
 10
18.6052
 20
4.1227
 30
0.0
 10
19.2734
 20
8.5774
 30
0.0
 10
19.2734
 20
8.5774
 30
0.0
  0
SPLINE
  5
44
330
1F
100
AcDbEntity
  8
DEFAULT_1
 62
   250
100
AcDbSpline
210
0.0
220
0.0
230
1.0
 70
    24
 71
     3
 72
     8
 73
     4
 74
     0
 42
0.0000000001
 43
0.0000000001
 40
0.0
 40
0.0
 40
0.0
 40
0.0
 40
1.0
 40
1.0
 40
1.0
 40
1.0
 10
18.5972
 20
-18.7526
 30
0.0
 10
18.5972
 20
-18.7526
 30
0.0
 10
25.8023
 20
-18.7526
 30
0.0
 10
25.8023
 20
-18.7526
 30
0.0
  0
SPLINE
  5
45
330
1F
100
AcDbEntity
  8
DEFAULT_1
 62
   250
100
AcDbSpline
210
0.0
220
0.0
230
1.0
 70
    24
 71
     3
 72
     8
 73
     4
 74
     0
 42
0.0000000001
 43
0.0000000001
 40
0.0
 40
0.0
 40
0.0
 40
0.0
 40
1.0
 40
1.0
 40
1.0
 40
1.0
 10
18.832
 20
-30.5304
 30
0.0
 10
18.832
 20
-30.5304
 30
0.0
 10
25.8432
 20
-30.5304
 30
0.0
 10
25.8432
 20
-30.5304
 30
0.0
  0
SPLINE
  5
46
330
1F
100
AcDbEntity
  8
DEFAULT_1
 62
   250
100
AcDbSpline
210
0.0
220
0.0
230
1.0
 70
    24
 71
     3
 72
     8
 73
     4
 74
     0
 42
0.0000000001
 43
0.0000000001
 40
0.0
 40
0.0
 40
0.0
 40
0.0
 40
1.0
 40
1.0
 40
1.0
 40
1.0
 10
-13.6461
 20
-34.0169
 30
0.0
 10
-13.6461
 20
-34.0169
 30
0.0
 10
-23.842
 20
-34.0169
 30
0.0
 10
-23.842
 20
-34.0169
 30
0.0
  0
SPLINE
  5
47
330
1F
100
AcDbEntity
  8
DEFAULT_1
 62
   250
100
AcDbSpline
210
0.0
220
0.0
230
1.0
 70
    24
 71
     3
 72
     8
 73
     4
 74
     0
 42
0.0000000001
 43
0.0000000001
 40
0.0
 40
0.0
 40
0.0
 40
0.0
 40
1.0
 40
1.0
 40
1.0
 40
1.0
 10
-19.3462
 20
-9.6996
 30
0.0
 10
-19.3462
 20
-9.6996
 30
0.0
 10
-23.842
 20
-9.6996
 30
0.0
 10
-23.842
 20
-9.6996
 30
0.0
  0
SPLINE
  5
48
330
1F
100
AcDbEntity
  8
DEFAULT_1
 62
   250
100
AcDbSpline
210
0.0
220
0.0
230
1.0
 70
    24
 71
     3
 72
     8
 73
     4
 74
     0
 42
0.0000000001
 43
0.0000000001
 40
0.0
 40
0.0
 40
0.0
 40
0.0
 40
1.0
 40
1.0
 40
1.0
 40
1.0
 10
15.2631
 20
27.53
 30
0.0
 10
15.2631
 20
27.53
 30
0.0
 10
15.2631
 20
33.1556
 30
0.0
 10
15.2631
 20
33.1556
 30
0.0
  0
SPLINE
  5
49
330
1F
100
AcDbEntity
  8
DEFAULT_1
 62
   250
100
AcDbSpline
210
0.0
220
0.0
230
1.0
 70
    24
 71
     3
 72
     8
 73
     4
 74
     0
 42
0.0000000001
 43
0.0000000001
 40
0.0
 40
0.0
 40
0.0
 40
0.0
 40
1.0
 40
1.0
 40
1.0
 40
1.0
 10
-18.4364
 20
27.38
 30
0.0
 10
-18.4364
 20
27.38
 30
0.0
 10
-18.4364
 20
33.23
 30
0.0
 10
-18.4364
 20
33.23
 30
0.0
  0
SPLINE
  5
4A
330
1F
100
AcDbEntity
  8
DEFAULT_1
 62
   250
100
AcDbSpline
210
0.0
220
0.0
230
1.0
 70
    24
 71
     3
 72
     8
 73
     4
 74
     0
 42
0.0000000001
 43
0.0000000001
 40
0.0
 40
0.0
 40
0.0
 40
0.0
 40
1.0
 40
1.0
 40
1.0
 40
1.0
 10
-14.0385
 20
-2.353
 30
0.0
 10
-14.0385
 20
-2.353
 30
0.0
 10
-14.0385
 20
-0.5167
 30
0.0
 10
-14.0385
 20
-0.5167
 30
0.0
  0
SPLINE
  5
4B
330
1F
100
AcDbEntity
  8
DEFAULT_1
 62
   250
100
AcDbSpline
210
0.0
220
0.0
230
1.0
 70
    24
 71
     3
 72
     8
 73
     4
 74
     0
 42
0.0000000001
 43
0.0000000001
 40
0.0
 40
0.0
 40
0.0
 40
0.0
 40
1.0
 40
1.0
 40
1.0
 40
1.0
 10
10.8647
 20
-2.4169
 30
0.0
 10
10.8647
 20
-2.4169
 30
0.0
 10
10.8647
 20
-0.3628
 30
0.0
 10
10.8647
 20
-0.3628
 30
0.0
  0
SPLINE
  5
4C
330
1F
100
AcDbEntity
  8
DEFAULT_1
 62
   250
100
AcDbSpline
210
0.0
220
0.0
230
1.0
 70
    24
 71
     3
 72
     8
 73
     4
 74
     0
 42
0.0000000001
 43
0.0000000001
 40
0.0
 40
0.0
 40
0.0
 40
0.0
 40
1.0
 40
1.0
 40
1.0
 40
1.0
 10
-11.6437
 20
-34.0169
 30
0.0
 10
-11.6437
 20
-34.0169
 30
0.0
 10
8.4698
 20
-34.0169
 30
0.0
 10
8.4698
 20
-34.0169
 30
0.0
  0
SPLINE
  5
4D
330
1F
100
AcDbEntity
  8
DEFAULT_1
 62
   250
100
AcDbSpline
210
0.0
220
0.0
230
1.0
 70
    24
 71
     3
 72
     8
 73
     4
 74
     0
 42
0.0000000001
 43
0.0000000001
 40
0.0
 40
0.0
 40
0.0
 40
0.0
 40
1.0
 40
1.0
 40
1.0
 40
1.0
 10
17.1637
 20
-32.6985
 30
0.0
 10
17.1637
 20
-32.6985
 30
0.0
 10
13.648
 20
-32.6985
 30
0.0
 10
13.648
 20
-32.6985
 30
0.0
  0
SPLINE
  5
4E
330
1F
100
AcDbEntity
  8
DEFAULT_1
 62
   250
100
AcDbSpline
210
0.0
220
0.0
230
1.0
 70
    24
 71
     3
 72
     8
 73
     4
 74
     0
 42
0.0000000001
 43
0.0000000001
 40
0.0
 40
0.0
 40
0.0
 40
0.0
 40
1.0
 40
1.0
 40
1.0
 40
1.0
 10
17.7497
 20
-32.552
 30
0.0
 10
17.7497
 20
-32.552
 30
0.0
 10
17.1637
 20
-32.552
 30
0.0
 10
17.1637
 20
-32.552
 30
0.0
  0
SPLINE
  5
4F
330
1F
100
AcDbEntity
  8
DEFAULT_1
 62
   250
100
AcDbSpline
210
0.0
220
0.0
230
1.0
 70
    24
 71
     3
 72
     8
 73
     4
 74
     0
 42
0.0000000001
 43
0.0000000001
 40
0.0
 40
0.0
 40
0.0
 40
0.0
 40
1.0
 40
1.0
 40
1.0
 40
1.0
 10
16.5778
 20
-32.5302
 30
0.0
 10
16.5778
 20
-32.5302
 30
0.0
 10
14.5269
 20
-32.5302
 30
0.0
 10
14.5269
 20
-32.5302
 30
0.0
  0
SPLINE
  5
50
330
1F
100
AcDbEntity
  8
DEFAULT_1
 62
   250
100
AcDbSpline
210
0.0
220
0.0
230
1.0
 70
    24
 71
     3
 72
     8
 73
     4
 74
     0
 42
0.0000000001
 43
0.0000000001
 40
0.0
 40
0.0
 40
0.0
 40
0.0
 40
1.0
 40
1.0
 40
1.0
 40
1.0
 10
13.0913
 20
-31.5998
 30
0.0
 10
13.0913
 20
-31.5998
 30
0.0
 10
13.648
 20
-31.5998
 30
0.0
 10
13.648
 20
-31.5998
 30
0.0
  0
SPLINE
  5
51
330
1F
100
AcDbEntity
  8
DEFAULT_1
 62
   250
100
AcDbSpline
210
0.0
220
0.0
230
1.0
 70
    24
 71
     3
 72
     8
 73
     4
 74
     0
 42
0.0000000001
 43
0.0000000001
 40
0.0
 40
0.0
 40
0.0
 40
0.0
 40
1.0
 40
1.0
 40
1.0
 40
1.0
 10
11.588
 20
-31.0804
 30
0.0
 10
11.588
 20
-31.0804
 30
0.0
 10
13.0913
 20
-31.0804
 30
0.0
 10
13.0913
 20
-31.0804
 30
0.0
  0
SPLINE
  5
52
330
1F
100
AcDbEntity
  8
DEFAULT_1
 62
   250
100
AcDbSpline
210
0.0
220
0.0
230
1.0
 70
    24
 71
     3
 72
     8
 73
     4
 74
     0
 42
0.0000000001
 43
0.0000000001
 40
0.0
 40
0.0
 40
0.0
 40
0.0
 40
1.0
 40
1.0
 40
1.0
 40
1.0
 10
14.5269
 20
-30.7379
 30
0.0
 10
14.5269
 20
-30.7379
 30
0.0
 10
16.5778
 20
-30.7379
 30
0.0
 10
16.5778
 20
-30.7379
 30
0.0
  0
SPLINE
  5
53
330
1F
100
AcDbEntity
  8
DEFAULT_1
 62
   250
100
AcDbSpline
210
0.0
220
0.0
230
1.0
 70
    24
 71
     3
 72
     8
 73
     4
 74
     0
 42
0.0000000001
 43
0.0000000001
 40
0.0
 40
0.0
 40
0.0
 40
0.0
 40
1.0
 40
1.0
 40
1.0
 40
1.0
 10
14.5269
 20
-29.9092
 30
0.0
 10
14.5269
 20
-29.9092
 30
0.0
 10
16.5778
 20
-29.9092
 30
0.0
 10
16.5778
 20
-29.9092
 30
0.0
  0
SPLINE
  5
54
330
1F
100
AcDbEntity
  8
DEFAULT_1
 62
   250
100
AcDbSpline
210
0.0
220
0.0
230
1.0
 70
    24
 71
     3
 72
     8
 73
     4
 74
     0
 42
0.0000000001
 43
0.0000000001
 40
0.0
 40
0.0
 40
0.0
 40
0.0
 40
1.0
 40
1.0
 40
1.0
 40
1.0
 10
-18.8727
 20
-12.6294
 30
0.0
 10
-18.8727
 20
-12.6294
 30
0.0
 10
-18.8727
 20
-11.604
 30
0.0
 10
-18.8727
 20
-11.604
 30
0.0
  0
SPLINE
  5
55
330
1F
100
AcDbEntity
  8
DEFAULT_1
 62
   250
100
AcDbSpline
210
0.0
220
0.0
230
1.0
 70
    24
 71
     3
 72
     8
 73
     4
 74
     0
 42
0.0000000001
 43
0.0000000001
 40
0.0
 40
0.0
 40
0.0
 40
0.0
 40
1.0
 40
1.0
 40
1.0
 40
1.0
 10
-18.4332
 20
-11.604
 30
0.0
 10
-18.4332
 20
-11.604
 30
0.0
 10
-18.4332
 20
-9.6996
 30
0.0
 10
-18.4332
 20
-9.6996
 30
0.0
  0
SPLINE
  5
56
330
1F
100
AcDbEntity
  8
DEFAULT_1
 62
   250
100
AcDbSpline
210
0.0
220
0.0
230
1.0
 70
    24
 71
     3
 72
     8
 73
     4
 74
     0
 42
0.0000000001
 43
0.0000000001
 40
0.0
 40
0.0
 40
0.0
 40
0.0
 40
1.0
 40
1.0
 40
1.0
 40
1.0
 10
-18.2867
 20
-2.9611
 30
0.0
 10
-18.2867
 20
-2.9611
 30
0.0
 10
-18.2867
 20
-2.6681
 30
0.0
 10
-18.2867
 20
-2.6681
 30
0.0
  0
SPLINE
  5
57
330
1F
100
AcDbEntity
  8
DEFAULT_1
 62
   250
100
AcDbSpline
210
0.0
220
0.0
230
1.0
 70
    24
 71
     3
 72
     8
 73
     4
 74
     0
 42
0.0000000001
 43
0.0000000001
 40
0.0
 40
0.0
 40
0.0
 40
0.0
 40
1.0
 40
1.0
 40
1.0
 40
1.0
 10
14.5269
 20
-25.2275
 30
0.0
 10
14.5269
 20
-25.2275
 30
0.0
 10
16.5778
 20
-25.2275
 30
0.0
 10
16.5778
 20
-25.2275
 30
0.0
  0
SPLINE
  5
58
330
1F
100
AcDbEntity
  8
DEFAULT_1
 62
   250
100
AcDbSpline
210
0.0
220
0.0
230
1.0
 70
    24
 71
     3
 72
     8
 73
     4
 74
     0
 42
0.0000000001
 43
0.0000000001
 40
0.0
 40
0.0
 40
0.0
 40
0.0
 40
1.0
 40
1.0
 40
1.0
 40
1.0
 10
14.5269
 20
-24.0556
 30
0.0
 10
14.5269
 20
-24.0556
 30
0.0
 10
16.5778
 20
-24.0556
 30
0.0
 10
16.5778
 20
-24.0556
 30
0.0
  0
SPLINE
  5
59
330
1F
100
AcDbEntity
  8
DEFAULT_1
 62
   250
100
AcDbSpline
210
0.0
220
0.0
230
1.0
 70
    24
 71
     3
 72
     8
 73
     4
 74
     0
 42
0.0000000001
 43
0.0000000001
 40
0.0
 40
0.0
 40
0.0
 40
0.0
 40
1.0
 40
1.0
 40
1.0
 40
1.0
 10
-17.2312
 20
-13.1527
 30
0.0
 10
-17.2312
 20
-13.1527
 30
0.0
 10
-15.0788
 20
-15.9603
 30
0.0
 10
-15.0788
 20
-15.9603
 30
0.0
  0
SPLINE
  5
5A
330
1F
100
AcDbEntity
  8
DEFAULT_1
 62
   250
100
AcDbSpline
210
0.0
220
0.0
230
1.0
 70
    24
 71
     3
 72
     8
 73
     4
 74
     0
 42
0.0000000001
 43
0.0000000001
 40
0.0
 40
0.0
 40
0.0
 40
0.0
 40
1.0
 40
1.0
 40
1.0
 40
1.0
 10
-15.0824
 20
-15.9556
 30
0.0
 10
-15.0824
 20
-15.9556
 30
0.0
 10
-14.771
 20
-19.5144
 30
0.0
 10
-14.771
 20
-19.5144
 30
0.0
  0
SPLINE
  5
5B
330
1F
100
AcDbEntity
  8
DEFAULT_1
 62
   250
100
AcDbSpline
210
0.0
220
0.0
230
1.0
 70
    24
 71
     3
 72
     8
 73
     4
 74
     0
 42
0.0000000001
 43
0.0000000001
 40
0.0
 40
0.0
 40
0.0
 40
0.0
 40
1.0
 40
1.0
 40
1.0
 40
1.0
 10
-14.771
 20
-30.8896
 30
0.0
 10
-14.771
 20
-30.8896
 30
0.0
 10
-14.771
 20
-19.5144
 30
0.0
 10
-14.771
 20
-19.5144
 30
0.0
  0
SPLINE
  5
5C
330
1F
100
AcDbEntity
  8
DEFAULT_1
 62
   250
100
AcDbSpline
210
0.0
220
0.0
230
1.0
 70
    24
 71
     3
 72
     8
 73
     4
 74
     0
 42
0.0000000001
 43
0.0000000001
 40
0.0
 40
0.0
 40
0.0
 40
0.0
 40
1.0
 40
1.0
 40
1.0
 40
1.0
 10
-14.0385
 20
-9.6996
 30
0.0
 10
-14.0385
 20
-9.6996
 30
0.0
 10
-14.0385
 20
-5.5979
 30
0.0
 10
-14.0385
 20
-5.5979
 30
0.0
  0
SPLINE
  5
5D
330
1F
100
AcDbEntity
  8
DEFAULT_1
 62
   250
100
AcDbSpline
210
0.0
220
0.0
230
1.0
 70
    24
 71
     3
 72
     8
 73
     4
 74
     0
 42
0.0000000001
 43
0.0000000001
 40
0.0
 40
0.0
 40
0.0
 40
0.0
 40
1.0
 40
1.0
 40
1.0
 40
1.0
 10
14.5269
 20
-19.3738
 30
0.0
 10
14.5269
 20
-19.3738
 30
0.0
 10
16.5778
 20
-19.3738
 30
0.0
 10
16.5778
 20
-19.3738
 30
0.0
  0
SPLINE
  5
5E
330
1F
100
AcDbEntity
  8
DEFAULT_1
 62
   250
100
AcDbSpline
210
0.0
220
0.0
230
1.0
 70
    24
 71
     3
 72
     8
 73
     4
 74
     0
 42
0.0000000001
 43
0.0000000001
 40
0.0
 40
0.0
 40
0.0
 40
0.0
 40
1.0
 40
1.0
 40
1.0
 40
1.0
 10
-14.0385
 20
-5.5979
 30
0.0
 10
-14.0385
 20
-5.5979
 30
0.0
 10
-14.2204
 20
-4.5664
 30
0.0
 10
-14.2204
 20
-4.5664
 30
0.0
  0
SPLINE
  5
5F
330
1F
100
AcDbEntity
  8
DEFAULT_1
 62
   250
100
AcDbSpline
210
0.0
220
0.0
230
1.0
 70
    24
 71
     3
 72
     8
 73
     4
 74
     0
 42
0.0000000001
 43
0.0000000001
 40
0.0
 40
0.0
 40
0.0
 40
0.0
 40
1.0
 40
1.0
 40
1.0
 40
1.0
 10
14.5269
 20
-18.5452
 30
0.0
 10
14.5269
 20
-18.5452
 30
0.0
 10
16.5778
 20
-18.5452
 30
0.0
 10
16.5778
 20
-18.5452
 30
0.0
  0
SPLINE
  5
60
330
1F
100
AcDbEntity
  8
DEFAULT_1
 62
   250
100
AcDbSpline
210
0.0
220
0.0
230
1.0
 70
    24
 71
     3
 72
     8
 73
     4
 74
     0
 42
0.0000000001
 43
0.0000000001
 40
0.0
 40
0.0
 40
0.0
 40
0.0
 40
1.0
 40
1.0
 40
1.0
 40
1.0
 10
11.711
 20
-18.196
 30
0.0
 10
11.711
 20
-18.196
 30
0.0
 10
13.0913
 20
-18.196
 30
0.0
 10
13.0913
 20
-18.196
 30
0.0
  0
SPLINE
  5
61
330
1F
100
AcDbEntity
  8
DEFAULT_1
 62
   250
100
AcDbSpline
210
0.0
220
0.0
230
1.0
 70
    24
 71
     3
 72
     8
 73
     4
 74
     0
 42
0.0000000001
 43
0.0000000001
 40
0.0
 40
0.0
 40
0.0
 40
0.0
 40
1.0
 40
1.0
 40
1.0
 40
1.0
 10
13.0913
 20
-17.6833
 30
0.0
 10
13.0913
 20
-17.6833
 30
0.0
 10
13.648
 20
-17.6833
 30
0.0
 10
13.648
 20
-17.6833
 30
0.0
  0
SPLINE
  5
62
330
1F
100
AcDbEntity
  8
DEFAULT_1
 62
   250
100
AcDbSpline
210
0.0
220
0.0
230
1.0
 70
    24
 71
     3
 72
     8
 73
     4
 74
     0
 42
0.0000000001
 43
0.0000000001
 40
0.0
 40
0.0
 40
0.0
 40
0.0
 40
1.0
 40
1.0
 40
1.0
 40
1.0
 10
15.3662
 20
-12.9224
 30
0.0
 10
15.3662
 20
-12.9224
 30
0.0
 10
14.0569
 20
-13.1533
 30
0.0
 10
14.0569
 20
-13.1533
 30
0.0
  0
SPLINE
  5
63
330
1F
100
AcDbEntity
  8
DEFAULT_1
 62
   250
100
AcDbSpline
210
0.0
220
0.0
230
1.0
 70
    24
 71
     3
 72
     8
 73
     4
 74
     0
 42
0.0000000001
 43
0.0000000001
 40
0.0
 40
0.0
 40
0.0
 40
0.0
 40
1.0
 40
1.0
 40
1.0
 40
1.0
 10
16.5778
 20
-16.7528
 30
0.0
 10
16.5778
 20
-16.7528
 30
0.0
 10
14.5269
 20
-16.7528
 30
0.0
 10
14.5269
 20
-16.7528
 30
0.0
  0
SPLINE
  5
64
330
1F
100
AcDbEntity
  8
DEFAULT_1
 62
   250
100
AcDbSpline
210
0.0
220
0.0
230
1.0
 70
    24
 71
     3
 72
     8
 73
     4
 74
     0
 42
0.0000000001
 43
0.0000000001
 40
0.0
 40
0.0
 40
0.0
 40
0.0
 40
1.0
 40
1.0
 40
1.0
 40
1.0
 10
17.7497
 20
-16.7311
 30
0.0
 10
17.7497
 20
-16.7311
 30
0.0
 10
17.1637
 20
-16.7311
 30
0.0
 10
17.1637
 20
-16.7311
 30
0.0
  0
SPLINE
  5
65
330
1F
100
AcDbEntity
  8
DEFAULT_1
 62
   250
100
AcDbSpline
210
0.0
220
0.0
230
1.0
 70
    24
 71
     3
 72
     8
 73
     4
 74
     0
 42
0.0000000001
 43
0.0000000001
 40
0.0
 40
0.0
 40
0.0
 40
0.0
 40
1.0
 40
1.0
 40
1.0
 40
1.0
 10
17.1637
 20
-16.5846
 30
0.0
 10
17.1637
 20
-16.5846
 30
0.0
 10
13.648
 20
-16.5846
 30
0.0
 10
13.648
 20
-16.5846
 30
0.0
  0
SPLINE
  5
66
330
1F
100
AcDbEntity
  8
DEFAULT_1
 62
   250
100
AcDbSpline
210
0.0
220
0.0
230
1.0
 70
    24
 71
     3
 72
     8
 73
     4
 74
     0
 42
0.0000000001
 43
0.0000000001
 40
0.0
 40
0.0
 40
0.0
 40
0.0
 40
1.0
 40
1.0
 40
1.0
 40
1.0
 10
-18.5401
 20
-12.9224
 30
0.0
 10
-18.5401
 20
-12.9224
 30
0.0
 10
-17.2308
 20
-13.1533
 30
0.0
 10
-17.2308
 20
-13.1533
 30
0.0
  0
SPLINE
  5
67
330
1F
100
AcDbEntity
  8
DEFAULT_1
 62
   250
100
AcDbSpline
210
0.0
220
0.0
230
1.0
 70
    24
 71
     3
 72
     8
 73
     4
 74
     0
 42
0.0000000001
 43
0.0000000001
 40
0.0
 40
0.0
 40
0.0
 40
0.0
 40
1.0
 40
1.0
 40
1.0
 40
1.0
 10
12.785
 20
-13.377
 30
0.0
 10
12.785
 20
-13.377
 30
0.0
 10
-1.2939
 20
-13.377
 30
0.0
 10
-1.2939
 20
-13.377
 30
0.0
  0
SPLINE
  5
68
330
1F
100
AcDbEntity
  8
DEFAULT_1
 62
   250
100
AcDbSpline
210
0.0
220
0.0
230
1.0
 70
    24
 71
     3
 72
     8
 73
     4
 74
     0
 42
0.0000000001
 43
0.0000000001
 40
0.0
 40
0.0
 40
0.0
 40
0.0
 40
1.0
 40
1.0
 40
1.0
 40
1.0
 10
-1.8799
 20
-13.377
 30
0.0
 10
-1.8799
 20
-13.377
 30
0.0
 10
-15.9589
 20
-13.377
 30
0.0
 10
-15.9589
 20
-13.377
 30
0.0
  0
SPLINE
  5
69
330
1F
100
AcDbEntity
  8
DEFAULT_1
 62
   250
100
AcDbSpline
210
0.0
220
0.0
230
1.0
 70
    24
 71
     3
 72
     8
 73
     4
 74
     0
 42
0.0000000001
 43
0.0000000001
 40
0.0
 40
0.0
 40
0.0
 40
0.0
 40
1.0
 40
1.0
 40
1.0
 40
1.0
 10
15.6988
 20
-12.6294
 30
0.0
 10
15.6988
 20
-12.6294
 30
0.0
 10
-18.8727
 20
-12.6294
 30
0.0
 10
-18.8727
 20
-12.6294
 30
0.0
  0
SPLINE
  5
6A
330
1F
100
AcDbEntity
  8
DEFAULT_1
 62
   250
100
AcDbSpline
210
0.0
220
0.0
230
1.0
 70
    24
 71
     3
 72
     8
 73
     4
 74
     0
 42
0.0000000001
 43
0.0000000001
 40
0.0
 40
0.0
 40
0.0
 40
0.0
 40
1.0
 40
1.0
 40
1.0
 40
1.0
 10
-18.8727
 20
-11.604
 30
0.0
 10
-18.8727
 20
-11.604
 30
0.0
 10
15.6988
 20
-11.604
 30
0.0
 10
15.6988
 20
-11.604
 30
0.0
  0
SPLINE
  5
6B
330
1F
100
AcDbEntity
  8
DEFAULT_1
 62
   250
100
AcDbSpline
210
0.0
220
0.0
230
1.0
 70
    24
 71
     3
 72
     8
 73
     4
 74
     0
 42
0.0000000001
 43
0.0000000001
 40
0.0
 40
0.0
 40
0.0
 40
0.0
 40
1.0
 40
1.0
 40
1.0
 40
1.0
 10
-16.7644
 20
-3.84
 30
0.0
 10
-16.7644
 20
-3.84
 30
0.0
 10
-18.2867
 20
-2.9611
 30
0.0
 10
-18.2867
 20
-2.9611
 30
0.0
  0
SPLINE
  5
6C
330
1F
100
AcDbEntity
  8
DEFAULT_1
 62
   250
100
AcDbSpline
210
0.0
220
0.0
230
1.0
 70
    24
 71
     3
 72
     8
 73
     4
 74
     0
 42
0.0000000001
 43
0.0000000001
 40
0.0
 40
0.0
 40
0.0
 40
0.0
 40
1.0
 40
1.0
 40
1.0
 40
1.0
 10
-18.4332
 20
-9.6996
 30
0.0
 10
-18.4332
 20
-9.6996
 30
0.0
 10
15.2593
 20
-9.6996
 30
0.0
 10
15.2593
 20
-9.6996
 30
0.0
  0
SPLINE
  5
6D
330
1F
100
AcDbEntity
  8
DEFAULT_1
 62
   250
100
AcDbSpline
210
0.0
220
0.0
230
1.0
 70
    24
 71
     3
 72
     8
 73
     4
 74
     0
 42
0.0000000001
 43
0.0000000001
 40
0.0
 40
0.0
 40
0.0
 40
0.0
 40
1.0
 40
1.0
 40
1.0
 40
1.0
 10
-1.8799
 20
-13.1519
 30
0.0
 10
-1.8799
 20
-13.1519
 30
0.0
 10
-1.8799
 20
-16.0367
 30
0.0
 10
-1.8799
 20
-16.0367
 30
0.0
  0
SPLINE
  5
6E
330
1F
100
AcDbEntity
  8
DEFAULT_1
 62
   250
100
AcDbSpline
210
0.0
220
0.0
230
1.0
 70
    24
 71
     3
 72
     8
 73
     4
 74
     0
 42
0.0000000001
 43
0.0000000001
 40
0.0
 40
0.0
 40
0.0
 40
0.0
 40
1.0
 40
1.0
 40
1.0
 40
1.0
 10
-1.2939
 20
-13.1519
 30
0.0
 10
-1.2939
 20
-13.1519
 30
0.0
 10
-1.2939
 20
-16.0367
 30
0.0
 10
-1.2939
 20
-16.0367
 30
0.0
  0
SPLINE
  5
6F
330
1F
100
AcDbEntity
  8
DEFAULT_1
 62
   250
100
AcDbSpline
210
0.0
220
0.0
230
1.0
 70
    24
 71
     3
 72
     8
 73
     4
 74
     0
 42
0.0000000001
 43
0.0000000001
 40
0.0
 40
0.0
 40
0.0
 40
0.0
 40
1.0
 40
1.0
 40
1.0
 40
1.0
 10
-16.7644
 20
-3.84
 30
0.0
 10
-16.7644
 20
-3.84
 30
0.0
 10
13.5905
 20
-3.84
 30
0.0
 10
13.5905
 20
-3.84
 30
0.0
  0
SPLINE
  5
70
330
1F
100
AcDbEntity
  8
DEFAULT_1
 62
   250
100
AcDbSpline
210
0.0
220
0.0
230
1.0
 70
    24
 71
     3
 72
     8
 73
     4
 74
     0
 42
0.0000000001
 43
0.0000000001
 40
0.0
 40
0.0
 40
0.0
 40
0.0
 40
1.0
 40
1.0
 40
1.0
 40
1.0
 10
-18.2867
 20
-2.6681
 30
0.0
 10
-18.2867
 20
-2.6681
 30
0.0
 10
15.1129
 20
-2.6681
 30
0.0
 10
15.1129
 20
-2.6681
 30
0.0
  0
SPLINE
  5
71
330
1F
100
AcDbEntity
  8
DEFAULT_1
 62
   250
100
AcDbSpline
210
0.0
220
0.0
230
1.0
 70
    24
 71
     3
 72
     8
 73
     4
 74
     0
 42
0.0000000001
 43
0.0000000001
 40
0.0
 40
0.0
 40
0.0
 40
0.0
 40
1.0
 40
1.0
 40
1.0
 40
1.0
 10
13.5905
 20
-3.84
 30
0.0
 10
13.5905
 20
-3.84
 30
0.0
 10
15.1129
 20
-2.9611
 30
0.0
 10
15.1129
 20
-2.9611
 30
0.0
  0
SPLINE
  5
72
330
1F
100
AcDbEntity
  8
DEFAULT_1
 62
   250
100
AcDbSpline
210
0.0
220
0.0
230
1.0
 70
    24
 71
     3
 72
     8
 73
     4
 74
     0
 42
0.0000000001
 43
0.0000000001
 40
0.0
 40
0.0
 40
0.0
 40
0.0
 40
1.0
 40
1.0
 40
1.0
 40
1.0
 10
10.8647
 20
-9.6996
 30
0.0
 10
10.8647
 20
-9.6996
 30
0.0
 10
10.8647
 20
-5.5979
 30
0.0
 10
10.8647
 20
-5.5979
 30
0.0
  0
SPLINE
  5
73
330
1F
100
AcDbEntity
  8
DEFAULT_1
 62
   250
100
AcDbSpline
210
0.0
220
0.0
230
1.0
 70
    24
 71
     3
 72
     8
 73
     4
 74
     0
 42
0.0000000001
 43
0.0000000001
 40
0.0
 40
0.0
 40
0.0
 40
0.0
 40
1.0
 40
1.0
 40
1.0
 40
1.0
 10
10.8647
 20
-5.5979
 30
0.0
 10
10.8647
 20
-5.5979
 30
0.0
 10
11.0465
 20
-4.5664
 30
0.0
 10
11.0465
 20
-4.5664
 30
0.0
  0
SPLINE
  5
74
330
1F
100
AcDbEntity
  8
DEFAULT_1
 62
   250
100
AcDbSpline
210
0.0
220
0.0
230
1.0
 70
    24
 71
     3
 72
     8
 73
     4
 74
     0
 42
0.0000000001
 43
0.0000000001
 40
0.0
 40
0.0
 40
0.0
 40
0.0
 40
1.0
 40
1.0
 40
1.0
 40
1.0
 10
13.0913
 20
-17.6833
 30
0.0
 10
13.0913
 20
-17.6833
 30
0.0
 10
13.0913
 20
-31.5998
 30
0.0
 10
13.0913
 20
-31.5998
 30
0.0
  0
SPLINE
  5
75
330
1F
100
AcDbEntity
  8
DEFAULT_1
 62
   250
100
AcDbSpline
210
0.0
220
0.0
230
1.0
 70
    24
 71
     3
 72
     8
 73
     4
 74
     0
 42
0.0000000001
 43
0.0000000001
 40
0.0
 40
0.0
 40
0.0
 40
0.0
 40
1.0
 40
1.0
 40
1.0
 40
1.0
 10
11.9084
 20
-15.9556
 30
0.0
 10
11.9084
 20
-15.9556
 30
0.0
 10
11.7124
 20
-18.1968
 30
0.0
 10
11.7124
 20
-18.1968
 30
0.0
  0
SPLINE
  5
76
330
1F
100
AcDbEntity
  8
DEFAULT_1
 62
   250
100
AcDbSpline
210
0.0
220
0.0
230
1.0
 70
    24
 71
     3
 72
     8
 73
     4
 74
     0
 42
0.0000000001
 43
0.0000000001
 40
0.0
 40
0.0
 40
0.0
 40
0.0
 40
1.0
 40
1.0
 40
1.0
 40
1.0
 10
13.648
 20
-16.5846
 30
0.0
 10
13.648
 20
-16.5846
 30
0.0
 10
13.648
 20
-32.6985
 30
0.0
 10
13.648
 20
-32.6985
 30
0.0
  0
SPLINE
  5
77
330
1F
100
AcDbEntity
  8
DEFAULT_1
 62
   250
100
AcDbSpline
210
0.0
220
0.0
230
1.0
 70
    24
 71
     3
 72
     8
 73
     4
 74
     0
 42
0.0000000001
 43
0.0000000001
 40
0.0
 40
0.0
 40
0.0
 40
0.0
 40
1.0
 40
1.0
 40
1.0
 40
1.0
 10
14.5269
 20
-16.6059
 30
0.0
 10
14.5269
 20
-16.6059
 30
0.0
 10
14.5269
 20
-18.5452
 30
0.0
 10
14.5269
 20
-18.5452
 30
0.0
  0
SPLINE
  5
78
330
1F
100
AcDbEntity
  8
DEFAULT_1
 62
   250
100
AcDbSpline
210
0.0
220
0.0
230
1.0
 70
    24
 71
     3
 72
     8
 73
     4
 74
     0
 42
0.0000000001
 43
0.0000000001
 40
0.0
 40
0.0
 40
0.0
 40
0.0
 40
1.0
 40
1.0
 40
1.0
 40
1.0
 10
14.5269
 20
-19.3738
 30
0.0
 10
14.5269
 20
-19.3738
 30
0.0
 10
14.5269
 20
-24.0556
 30
0.0
 10
14.5269
 20
-24.0556
 30
0.0
  0
SPLINE
  5
79
330
1F
100
AcDbEntity
  8
DEFAULT_1
 62
   250
100
AcDbSpline
210
0.0
220
0.0
230
1.0
 70
    24
 71
     3
 72
     8
 73
     4
 74
     0
 42
0.0000000001
 43
0.0000000001
 40
0.0
 40
0.0
 40
0.0
 40
0.0
 40
1.0
 40
1.0
 40
1.0
 40
1.0
 10
14.5269
 20
-25.2275
 30
0.0
 10
14.5269
 20
-25.2275
 30
0.0
 10
14.5269
 20
-29.9092
 30
0.0
 10
14.5269
 20
-29.9092
 30
0.0
  0
SPLINE
  5
7A
330
1F
100
AcDbEntity
  8
DEFAULT_1
 62
   250
100
AcDbSpline
210
0.0
220
0.0
230
1.0
 70
    24
 71
     3
 72
     8
 73
     4
 74
     0
 42
0.0000000001
 43
0.0000000001
 40
0.0
 40
0.0
 40
0.0
 40
0.0
 40
1.0
 40
1.0
 40
1.0
 40
1.0
 10
14.5269
 20
-30.7379
 30
0.0
 10
14.5269
 20
-30.7379
 30
0.0
 10
14.5269
 20
-32.6771
 30
0.0
 10
14.5269
 20
-32.6771
 30
0.0
  0
SPLINE
  5
7B
330
1F
100
AcDbEntity
  8
DEFAULT_1
 62
   250
100
AcDbSpline
210
0.0
220
0.0
230
1.0
 70
    24
 71
     3
 72
     8
 73
     4
 74
     0
 42
0.0000000001
 43
0.0000000001
 40
0.0
 40
0.0
 40
0.0
 40
0.0
 40
1.0
 40
1.0
 40
1.0
 40
1.0
 10
15.1129
 20
-2.9611
 30
0.0
 10
15.1129
 20
-2.9611
 30
0.0
 10
15.1129
 20
-2.6681
 30
0.0
 10
15.1129
 20
-2.6681
 30
0.0
  0
SPLINE
  5
7C
330
1F
100
AcDbEntity
  8
DEFAULT_1
 62
   250
100
AcDbSpline
210
0.0
220
0.0
230
1.0
 70
    24
 71
     3
 72
     8
 73
     4
 74
     0
 42
0.0000000001
 43
0.0000000001
 40
0.0
 40
0.0
 40
0.0
 40
0.0
 40
1.0
 40
1.0
 40
1.0
 40
1.0
 10
15.2593
 20
-11.604
 30
0.0
 10
15.2593
 20
-11.604
 30
0.0
 10
15.2593
 20
-9.6996
 30
0.0
 10
15.2593
 20
-9.6996
 30
0.0
  0
SPLINE
  5
7D
330
1F
100
AcDbEntity
  8
DEFAULT_1
 62
   250
100
AcDbSpline
210
0.0
220
0.0
230
1.0
 70
    24
 71
     3
 72
     8
 73
     4
 74
     0
 42
0.0000000001
 43
0.0000000001
 40
0.0
 40
0.0
 40
0.0
 40
0.0
 40
1.0
 40
1.0
 40
1.0
 40
1.0
 10
11.9049
 20
-15.9603
 30
0.0
 10
11.9049
 20
-15.9603
 30
0.0
 10
14.0574
 20
-13.1527
 30
0.0
 10
14.0574
 20
-13.1527
 30
0.0
  0
SPLINE
  5
7E
330
1F
100
AcDbEntity
  8
DEFAULT_1
 62
   250
100
AcDbSpline
210
0.0
220
0.0
230
1.0
 70
    24
 71
     3
 72
     8
 73
     4
 74
     0
 42
0.0000000001
 43
0.0000000001
 40
0.0
 40
0.0
 40
0.0
 40
0.0
 40
1.0
 40
1.0
 40
1.0
 40
1.0
 10
15.6988
 20
-12.6294
 30
0.0
 10
15.6988
 20
-12.6294
 30
0.0
 10
15.6988
 20
-11.604
 30
0.0
 10
15.6988
 20
-11.604
 30
0.0
  0
SPLINE
  5
7F
330
1F
100
AcDbEntity
  8
DEFAULT_1
 62
   250
100
AcDbSpline
210
0.0
220
0.0
230
1.0
 70
    24
 71
     3
 72
     8
 73
     4
 74
     0
 42
0.0000000001
 43
0.0000000001
 40
0.0
 40
0.0
 40
0.0
 40
0.0
 40
1.0
 40
1.0
 40
1.0
 40
1.0
 10
17.1637
 20
-16.5846
 30
0.0
 10
17.1637
 20
-16.5846
 30
0.0
 10
17.1637
 20
-16.7311
 30
0.0
 10
17.1637
 20
-16.7311
 30
0.0
  0
SPLINE
  5
80
330
1F
100
AcDbEntity
  8
DEFAULT_1
 62
   250
100
AcDbSpline
210
0.0
220
0.0
230
1.0
 70
    24
 71
     3
 72
     8
 73
     4
 74
     0
 42
0.0000000001
 43
0.0000000001
 40
0.0
 40
0.0
 40
0.0
 40
0.0
 40
1.0
 40
1.0
 40
1.0
 40
1.0
 10
17.1637
 20
-32.6985
 30
0.0
 10
17.1637
 20
-32.6985
 30
0.0
 10
17.1637
 20
-32.552
 30
0.0
 10
17.1637
 20
-32.552
 30
0.0
  0
SPLINE
  5
81
330
1F
100
AcDbEntity
  8
DEFAULT_1
 62
   250
100
AcDbSpline
210
0.0
220
0.0
230
1.0
 70
    24
 71
     3
 72
     8
 73
     4
 74
     0
 42
0.0000000001
 43
0.0000000001
 40
0.0
 40
0.0
 40
0.0
 40
0.0
 40
1.0
 40
1.0
 40
1.0
 40
1.0
 10
18.3356
 20
-31.966
 30
0.0
 10
18.3356
 20
-31.966
 30
0.0
 10
18.3356
 20
-17.317
 30
0.0
 10
18.3356
 20
-17.317
 30
0.0
  0
SPLINE
  5
82
330
1F
100
AcDbEntity
  8
DEFAULT_1
 62
   250
100
AcDbSpline
210
0.0
220
0.0
230
1.0
 70
    24
 71
     3
 72
     8
 73
     4
 74
     0
 42
0.0000000001
 43
0.0000000001
 40
0.0
 40
0.0
 40
0.0
 40
0.0
 40
1.0
 40
1.0
 40
1.0
 40
1.0
 10
10.4362
 20
-33.3199
 30
0.0
 10
10.4362
 20
-33.3199
 30
0.0
 10
13.0913
 20
-31.1772
 30
0.0
 10
13.0913
 20
-31.1772
 30
0.0
  0
SPLINE
  5
83
330
1F
100
AcDbEntity
  8
DEFAULT_1
 62
   250
100
AcDbSpline
210
0.0
220
0.0
230
1.0
 70
     8
 71
     3
 72
    12
 73
     8
 74
     0
 42
0.0000000001
 43
0.0000000001
 40
0.0
 40
0.0
 40
0.0
 40
0.0
 40
0.3333333333333333
 40
0.3333333333333333
 40
0.3333333333333333
 40
0.3333333333333333
 40
1.0
 40
1.0
 40
1.0
 40
1.0
 10
16.5778
 20
-25.2275
 30
0.0
 10
16.9014
 20
-25.2275
 30
0.0
 10
17.1637
 20
-24.9651
 30
0.0
 10
17.1637
 20
-24.6415
 30
0.0
 10
17.1637
 20
-24.6415
 30
0.0
 10
17.1637
 20
-24.3179
 30
0.0
 10
16.9014
 20
-24.0556
 30
0.0
 10
16.5778
 20
-24.0556
 30
0.0
  0
SPLINE
  5
84
330
1F
100
AcDbEntity
  8
DEFAULT_1
 62
   250
100
AcDbSpline
210
0.0
220
0.0
230
1.0
 70
     8
 71
     3
 72
     8
 73
     4
 74
     0
 42
0.0000000001
 43
0.0000000001
 40
0.0
 40
0.0
 40
0.0
 40
0.0
 40
1.0
 40
1.0
 40
1.0
 40
1.0
 10
17.7497
 20
-32.552
 30
0.0
 10
18.0733
 20
-32.552
 30
0.0
 10
18.3356
 20
-32.2896
 30
0.0
 10
18.3356
 20
-31.966
 30
0.0
  0
SPLINE
  5
85
330
1F
100
AcDbEntity
  8
DEFAULT_1
 62
   250
100
AcDbSpline
210
0.0
220
0.0
230
1.0
 70
     8
 71
     3
 72
     8
 73
     4
 74
     0
 42
0.0000000001
 43
0.0000000001
 40
0.0
 40
0.0
 40
0.0
 40
0.0
 40
1.0
 40
1.0
 40
1.0
 40
1.0
 10
18.3356
 20
-17.317
 30
0.0
 10
18.3356
 20
-16.9934
 30
0.0
 10
18.0733
 20
-16.7311
 30
0.0
 10
17.7497
 20
-16.7311
 30
0.0
  0
SPLINE
  5
86
330
1F
100
AcDbEntity
  8
DEFAULT_1
 62
   250
100
AcDbSpline
210
0.0
220
0.0
230
1.0
 70
     8
 71
     3
 72
     8
 73
     4
 74
     0
 42
0.0000000001
 43
0.0000000001
 40
0.0
 40
0.0
 40
0.0
 40
0.0
 40
1.0
 40
1.0
 40
1.0
 40
1.0
 10
-14.2204
 20
-4.5664
 30
0.0
 10
-14.2945
 20
-4.1463
 30
0.0
 10
-14.6595
 20
-3.84
 30
0.0
 10
-15.086
 20
-3.84
 30
0.0
  0
SPLINE
  5
87
330
1F
100
AcDbEntity
  8
DEFAULT_1
 62
   250
100
AcDbSpline
210
0.0
220
0.0
230
1.0
 70
     8
 71
     3
 72
     8
 73
     4
 74
     0
 42
0.0000000001
 43
0.0000000001
 40
0.0
 40
0.0
 40
0.0
 40
0.0
 40
1.0
 40
1.0
 40
1.0
 40
1.0
 10
11.9121
 20
-3.84
 30
0.0
 10
11.4856
 20
-3.84
 30
0.0
 10
11.1206
 20
-4.1463
 30
0.0
 10
11.0465
 20
-4.5664
 30
0.0
  0
SPLINE
  5
88
330
1F
100
AcDbEntity
  8
DEFAULT_1
 62
   250
100
AcDbSpline
210
0.0
220
0.0
230
1.0
 70
     8
 71
     3
 72
     8
 73
     4
 74
     0
 42
0.0000000001
 43
0.0000000001
 40
0.0
 40
0.0
 40
0.0
 40
0.0
 40
1.0
 40
1.0
 40
1.0
 40
1.0
 10
-18.8727
 20
-12.6294
 30
0.0
 10
-18.8727
 20
-12.7912
 30
0.0
 10
-18.7415
 20
-12.9224
 30
0.0
 10
-18.5797
 20
-12.9224
 30
0.0
  0
SPLINE
  5
89
330
1F
100
AcDbEntity
  8
DEFAULT_1
 62
   250
100
AcDbSpline
210
0.0
220
0.0
230
1.0
 70
     8
 71
     3
 72
     8
 73
     4
 74
     0
 42
0.0000000001
 43
0.0000000001
 40
0.0
 40
0.0
 40
0.0
 40
0.0
 40
1.0
 40
1.0
 40
1.0
 40
1.0
 10
15.4058
 20
-12.9224
 30
0.0
 10
15.5676
 20
-12.9224
 30
0.0
 10
15.6988
 20
-12.7912
 30
0.0
 10
15.6988
 20
-12.6294
 30
0.0
  0
SPLINE
  5
8A
330
1F
100
AcDbEntity
  8
DEFAULT_1
 62
   250
100
AcDbSpline
210
0.0
220
0.0
230
1.0
 70
     8
 71
     3
 72
     8
 73
     4
 74
     0
 42
0.0000000001
 43
0.0000000001
 40
0.0
 40
0.0
 40
0.0
 40
0.0
 40
1.0
 40
1.0
 40
1.0
 40
1.0
 10
-14.771
 20
-30.8896
 30
0.0
 10
-14.771
 20
-32.6167
 30
0.0
 10
-13.3709
 20
-34.0169
 30
0.0
 10
-11.6437
 20
-34.0169
 30
0.0
  0
SPLINE
  5
8B
330
1F
100
AcDbEntity
  8
DEFAULT_1
 62
   250
100
AcDbSpline
210
0.0
220
0.0
230
1.0
 70
     8
 71
     3
 72
     8
 73
     4
 74
     0
 42
0.0000000001
 43
0.0000000001
 40
0.0
 40
0.0
 40
0.0
 40
0.0
 40
1.0
 40
1.0
 40
1.0
 40
1.0
 10
8.4698
 20
-34.0169
 30
0.0
 10
9.1849
 20
-34.0169
 30
0.0
 10
9.8783
 20
-33.7718
 30
0.0
 10
10.4346
 20
-33.3226
 30
0.0
  0
SPLINE
  5
8C
330
1F
100
AcDbEntity
  8
DEFAULT_1
 62
   250
100
AcDbSpline
210
0.0
220
0.0
230
1.0
 70
     8
 71
     3
 72
    28
 73
    24
 74
     0
 42
0.0000000001
 43
0.0000000001
 40
0.0
 40
0.0
 40
0.0
 40
0.0
 40
0.1428571428571428
 40
0.1428571428571428
 40
0.1428571428571428
 40
0.1428571428571428
 40
0.2857142857142857
 40
0.2857142857142857
 40
0.2857142857142857
 40
0.2857142857142857
 40
0.4285714285714285
 40
0.4285714285714285
 40
0.4285714285714285
 40
0.4285714285714285
 40
0.5714285714285714
 40
0.5714285714285714
 40
0.5714285714285714
 40
0.5714285714285714
 40
0.7142857142857143
 40
0.7142857142857143
 40
0.7142857142857143
 40
0.7142857142857143
 40
1.0
 40
1.0
 40
1.0
 40
1.0
 10
17.1637
 20
-18.9444
 30
0.0
 10
17.1637
 20
-18.9444
 30
0.0
 10
17.1438
 20
-18.8383
 30
0.0
 10
17.1438
 20
-18.8383
 30
0.0
 10
17.1438
 20
-18.8383
 30
0.0
 10
17.1438
 20
-18.8383
 30
0.0
 10
17.0853
 20
-18.7411
 30
0.0
 10
17.0853
 20
-18.7411
 30
0.0
 10
17.0853
 20
-18.7411
 30
0.0
 10
17.0853
 20
-18.7411
 30
0.0
 10
16.9921
 20
-18.659
 30
0.0
 10
16.9921
 20
-18.659
 30
0.0
 10
16.9921
 20
-18.659
 30
0.0
 10
16.9921
 20
-18.659
 30
0.0
 10
16.8706
 20
-18.5969
 30
0.0
 10
16.8706
 20
-18.5969
 30
0.0
 10
16.8706
 20
-18.5969
 30
0.0
 10
16.8706
 20
-18.5969
 30
0.0
 10
16.7292
 20
-18.5583
 30
0.0
 10
16.7292
 20
-18.5583
 30
0.0
 10
16.7292
 20
-18.5583
 30
0.0
 10
16.7292
 20
-18.5583
 30
0.0
 10
16.5778
 20
-18.5452
 30
0.0
 10
16.5778
 20
-18.5452
 30
0.0
  0
SPLINE
  5
8D
330
1F
100
AcDbEntity
  8
DEFAULT_1
 62
   250
100
AcDbSpline
210
0.0
220
0.0
230
1.0
 70
     8
 71
     3
 72
    28
 73
    24
 74
     0
 42
0.0000000001
 43
0.0000000001
 40
0.0
 40
0.0
 40
0.0
 40
0.0
 40
0.1428571428571428
 40
0.1428571428571428
 40
0.1428571428571428
 40
0.1428571428571428
 40
0.2857142857142857
 40
0.2857142857142857
 40
0.2857142857142857
 40
0.2857142857142857
 40
0.4285714285714285
 40
0.4285714285714285
 40
0.4285714285714285
 40
0.4285714285714285
 40
0.5714285714285714
 40
0.5714285714285714
 40
0.5714285714285714
 40
0.5714285714285714
 40
0.7142857142857143
 40
0.7142857142857143
 40
0.7142857142857143
 40
0.7142857142857143
 40
1.0
 40
1.0
 40
1.0
 40
1.0
 10
17.1637
 20
-30.3386
 30
0.0
 10
17.1637
 20
-30.3386
 30
0.0
 10
17.1438
 20
-30.4447
 30
0.0
 10
17.1438
 20
-30.4447
 30
0.0
 10
17.1438
 20
-30.4447
 30
0.0
 10
17.1438
 20
-30.4447
 30
0.0
 10
17.0853
 20
-30.5419
 30
0.0
 10
17.0853
 20
-30.5419
 30
0.0
 10
17.0853
 20
-30.5419
 30
0.0
 10
17.0853
 20
-30.5419
 30
0.0
 10
16.9921
 20
-30.6241
 30
0.0
 10
16.9921
 20
-30.6241
 30
0.0
 10
16.9921
 20
-30.6241
 30
0.0
 10
16.9921
 20
-30.6241
 30
0.0
 10
16.8706
 20
-30.6862
 30
0.0
 10
16.8706
 20
-30.6862
 30
0.0
 10
16.8706
 20
-30.6862
 30
0.0
 10
16.8706
 20
-30.6862
 30
0.0
 10
16.7292
 20
-30.7248
 30
0.0
 10
16.7292
 20
-30.7248
 30
0.0
 10
16.7292
 20
-30.7248
 30
0.0
 10
16.7292
 20
-30.7248
 30
0.0
 10
16.5778
 20
-30.7379
 30
0.0
 10
16.5778
 20
-30.7379
 30
0.0
  0
SPLINE
  5
8E
330
1F
100
AcDbEntity
  8
DEFAULT_1
 62
   250
100
AcDbSpline
210
0.0
220
0.0
230
1.0
 70
     8
 71
     3
 72
    32
 73
    28
 74
     0
 42
0.0000000001
 43
0.0000000001
 40
0.0
 40
0.0
 40
0.0
 40
0.0
 40
0.125
 40
0.125
 40
0.125
 40
0.125
 40
0.25
 40
0.25
 40
0.25
 40
0.25
 40
0.375
 40
0.375
 40
0.375
 40
0.375
 40
0.5
 40
0.5
 40
0.5
 40
0.5
 40
0.625
 40
0.625
 40
0.625
 40
0.625
 40
0.75
 40
0.75
 40
0.75
 40
0.75
 40
1.0
 40
1.0
 40
1.0
 40
1.0
 10
16.5778
 20
-16.7528
 30
0.0
 10
16.5778
 20
-16.7528
 30
0.0
 10
16.7074
 20
-16.7518
 30
0.0
 10
16.7074
 20
-16.7518
 30
0.0
 10
16.7074
 20
-16.7518
 30
0.0
 10
16.7074
 20
-16.7518
 30
0.0
 10
16.833
 20
-16.7487
 30
0.0
 10
16.833
 20
-16.7487
 30
0.0
 10
16.833
 20
-16.7487
 30
0.0
 10
16.833
 20
-16.7487
 30
0.0
 10
16.9441
 20
-16.7443
 30
0.0
 10
16.9441
 20
-16.7443
 30
0.0
 10
16.9441
 20
-16.7443
 30
0.0
 10
16.9441
 20
-16.7443
 30
0.0
 10
17.0354
 20
-16.7396
 30
0.0
 10
17.0354
 20
-16.7396
 30
0.0
 10
17.0354
 20
-16.7396
 30
0.0
 10
17.0354
 20
-16.7396
 30
0.0
 10
17.1059
 20
-16.7352
 30
0.0
 10
17.1059
 20
-16.7352
 30
0.0
 10
17.1059
 20
-16.7352
 30
0.0
 10
17.1059
 20
-16.7352
 30
0.0
 10
17.1495
 20
-16.7321
 30
0.0
 10
17.1495
 20
-16.7321
 30
0.0
 10
17.1495
 20
-16.7321
 30
0.0
 10
17.1495
 20
-16.7321
 30
0.0
 10
17.1637
 20
-16.7311
 30
0.0
 10
17.1637
 20
-16.7311
 30
0.0
  0
SPLINE
  5
8F
330
1F
100
AcDbEntity
  8
DEFAULT_1
 62
   250
100
AcDbSpline
210
0.0
220
0.0
230
1.0
 70
     8
 71
     3
 72
    28
 73
    24
 74
     0
 42
0.0000000001
 43
0.0000000001
 40
0.0
 40
0.0
 40
0.0
 40
0.0
 40
0.1428571428571428
 40
0.1428571428571428
 40
0.1428571428571428
 40
0.1428571428571428
 40
0.2857142857142857
 40
0.2857142857142857
 40
0.2857142857142857
 40
0.2857142857142857
 40
0.4285714285714285
 40
0.4285714285714285
 40
0.4285714285714285
 40
0.4285714285714285
 40
0.5714285714285714
 40
0.5714285714285714
 40
0.5714285714285714
 40
0.5714285714285714
 40
0.7142857142857143
 40
0.7142857142857143
 40
0.7142857142857143
 40
0.7142857142857143
 40
1.0
 40
1.0
 40
1.0
 40
1.0
 10
16.5778
 20
-29.9092
 30
0.0
 10
16.5778
 20
-29.9092
 30
0.0
 10
16.7292
 20
-29.9243
 30
0.0
 10
16.7292
 20
-29.9243
 30
0.0
 10
16.7292
 20
-29.9243
 30
0.0
 10
16.7292
 20
-29.9243
 30
0.0
 10
16.8706
 20
-29.9684
 30
0.0
 10
16.8706
 20
-29.9684
 30
0.0
 10
16.8706
 20
-29.9684
 30
0.0
 10
16.8706
 20
-29.9684
 30
0.0
 10
16.9921
 20
-30.0381
 30
0.0
 10
16.9921
 20
-30.0381
 30
0.0
 10
16.9921
 20
-30.0381
 30
0.0
 10
16.9921
 20
-30.0381
 30
0.0
 10
17.0853
 20
-30.1278
 30
0.0
 10
17.0853
 20
-30.1278
 30
0.0
 10
17.0853
 20
-30.1278
 30
0.0
 10
17.0853
 20
-30.1278
 30
0.0
 10
17.1438
 20
-30.2305
 30
0.0
 10
17.1438
 20
-30.2305
 30
0.0
 10
17.1438
 20
-30.2305
 30
0.0
 10
17.1438
 20
-30.2305
 30
0.0
 10
17.1637
 20
-30.3386
 30
0.0
 10
17.1637
 20
-30.3386
 30
0.0
  0
SPLINE
  5
90
330
1F
100
AcDbEntity
  8
DEFAULT_1
 62
   250
100
AcDbSpline
210
0.0
220
0.0
230
1.0
 70
     8
 71
     3
 72
    32
 73
    28
 74
     0
 42
0.0000000001
 43
0.0000000001
 40
0.0
 40
0.0
 40
0.0
 40
0.0
 40
0.125
 40
0.125
 40
0.125
 40
0.125
 40
0.25
 40
0.25
 40
0.25
 40
0.25
 40
0.375
 40
0.375
 40
0.375
 40
0.375
 40
0.5
 40
0.5
 40
0.5
 40
0.5
 40
0.625
 40
0.625
 40
0.625
 40
0.625
 40
0.75
 40
0.75
 40
0.75
 40
0.75
 40
1.0
 40
1.0
 40
1.0
 40
1.0
 10
17.1637
 20
-32.552
 30
0.0
 10
17.1637
 20
-32.552
 30
0.0
 10
17.1494
 20
-32.5509
 30
0.0
 10
17.1494
 20
-32.5509
 30
0.0
 10
17.1494
 20
-32.5509
 30
0.0
 10
17.1494
 20
-32.5509
 30
0.0
 10
17.1057
 20
-32.5479
 30
0.0
 10
17.1057
 20
-32.5479
 30
0.0
 10
17.1057
 20
-32.5479
 30
0.0
 10
17.1057
 20
-32.5479
 30
0.0
 10
17.0353
 20
-32.5435
 30
0.0
 10
17.0353
 20
-32.5435
 30
0.0
 10
17.0353
 20
-32.5435
 30
0.0
 10
17.0353
 20
-32.5435
 30
0.0
 10
16.9441
 20
-32.5387
 30
0.0
 10
16.9441
 20
-32.5387
 30
0.0
 10
16.9441
 20
-32.5387
 30
0.0
 10
16.9441
 20
-32.5387
 30
0.0
 10
16.8327
 20
-32.5343
 30
0.0
 10
16.8327
 20
-32.5343
 30
0.0
 10
16.8327
 20
-32.5343
 30
0.0
 10
16.8327
 20
-32.5343
 30
0.0
 10
16.7071
 20
-32.5313
 30
0.0
 10
16.7071
 20
-32.5313
 30
0.0
 10
16.7071
 20
-32.5313
 30
0.0
 10
16.7071
 20
-32.5313
 30
0.0
 10
16.5778
 20
-32.5302
 30
0.0
 10
16.5778
 20
-32.5302
 30
0.0
  0
SPLINE
  5
91
330
1F
100
AcDbEntity
  8
DEFAULT_1
 62
   250
100
AcDbSpline
210
0.0
220
0.0
230
1.0
 70
     8
 71
     3
 72
    28
 73
    24
 74
     0
 42
0.0000000001
 43
0.0000000001
 40
0.0
 40
0.0
 40
0.0
 40
0.0
 40
0.1428571428571428
 40
0.1428571428571428
 40
0.1428571428571428
 40
0.1428571428571428
 40
0.2857142857142857
 40
0.2857142857142857
 40
0.2857142857142857
 40
0.2857142857142857
 40
0.4285714285714285
 40
0.4285714285714285
 40
0.4285714285714285
 40
0.4285714285714285
 40
0.5714285714285714
 40
0.5714285714285714
 40
0.5714285714285714
 40
0.5714285714285714
 40
0.7142857142857143
 40
0.7142857142857143
 40
0.7142857142857143
 40
0.7142857142857143
 40
1.0
 40
1.0
 40
1.0
 40
1.0
 10
16.5778
 20
-19.3738
 30
0.0
 10
16.5778
 20
-19.3738
 30
0.0
 10
16.7292
 20
-19.3587
 30
0.0
 10
16.7292
 20
-19.3587
 30
0.0
 10
16.7292
 20
-19.3587
 30
0.0
 10
16.7292
 20
-19.3587
 30
0.0
 10
16.8706
 20
-19.3146
 30
0.0
 10
16.8706
 20
-19.3146
 30
0.0
 10
16.8706
 20
-19.3146
 30
0.0
 10
16.8706
 20
-19.3146
 30
0.0
 10
16.9921
 20
-19.2449
 30
0.0
 10
16.9921
 20
-19.2449
 30
0.0
 10
16.9921
 20
-19.2449
 30
0.0
 10
16.9921
 20
-19.2449
 30
0.0
 10
17.0853
 20
-19.1552
 30
0.0
 10
17.0853
 20
-19.1552
 30
0.0
 10
17.0853
 20
-19.1552
 30
0.0
 10
17.0853
 20
-19.1552
 30
0.0
 10
17.1438
 20
-19.0525
 30
0.0
 10
17.1438
 20
-19.0525
 30
0.0
 10
17.1438
 20
-19.0525
 30
0.0
 10
17.1438
 20
-19.0525
 30
0.0
 10
17.1637
 20
-18.9444
 30
0.0
 10
17.1637
 20
-18.9444
 30
0.0
  0
SPLINE
  5
92
330
1F
100
AcDbEntity
  8
DEFAULT_1
 62
   250
100
AcDbSpline
210
0.0
220
0.0
230
1.0
 70
     8
 71
     3
 72
    16
 73
    12
 74
     0
 42
0.0000000001
 43
0.0000000001
 40
0.0
 40
0.0
 40
0.0
 40
0.0
 40
0.25
 40
0.25
 40
0.25
 40
0.25
 40
0.5
 40
0.5
 40
0.5
 40
0.5
 40
1.0
 40
1.0
 40
1.0
 40
1.0
 10
11.5017
 20
-30.8896
 30
0.0
 10
11.5017
 20
-30.8896
 30
0.0
 10
11.5444
 20
-30.9813
 30
0.0
 10
11.5444
 20
-30.9813
 30
0.0
 10
11.5444
 20
-30.9813
 30
0.0
 10
11.5444
 20
-30.9813
 30
0.0
 10
11.5729
 20
-31.0454
 30
0.0
 10
11.5729
 20
-31.0454
 30
0.0
 10
11.5729
 20
-31.0454
 30
0.0
 10
11.5729
 20
-31.0454
 30
0.0
 10
11.588
 20
-31.0804
 30
0.0
 10
11.588
 20
-31.0804
 30
0.0
  0
SPLINE
  5
93
330
1F
100
AcDbEntity
  8
DEFAULT_1
 62
   250
100
AcDbSpline
210
0.0
220
0.0
230
1.0
 70
     8
 71
     3
 72
    24
 73
    20
 74
     0
 42
0.0000000001
 43
0.0000000001
 40
0.0
 40
0.0
 40
0.0
 40
0.0
 40
0.1666666666666667
 40
0.1666666666666667
 40
0.1666666666666667
 40
0.1666666666666667
 40
0.3333333333333333
 40
0.3333333333333333
 40
0.3333333333333333
 40
0.3333333333333333
 40
0.5
 40
0.5
 40
0.5
 40
0.5
 40
0.6666666666666666
 40
0.6666666666666666
 40
0.6666666666666666
 40
0.6666666666666666
 40
1.0
 40
1.0
 40
1.0
 40
1.0
 10
12.785
 20
-13.377
 30
0.0
 10
12.785
 20
-13.377
 30
0.0
 10
12.5681
 20
-13.4451
 30
0.0
 10
12.5681
 20
-13.4451
 30
0.0
 10
12.5681
 20
-13.4451
 30
0.0
 10
12.5681
 20
-13.4451
 30
0.0
 10
12.3723
 20
-13.5695
 30
0.0
 10
12.3723
 20
-13.5695
 30
0.0
 10
12.3723
 20
-13.5695
 30
0.0
 10
12.3723
 20
-13.5695
 30
0.0
 10
12.2178
 20
-13.7381
 30
0.0
 10
12.2178
 20
-13.7381
 30
0.0
 10
12.2178
 20
-13.7381
 30
0.0
 10
12.2178
 20
-13.7381
 30
0.0
 10
12.1108
 20
-13.944
 30
0.0
 10
12.1108
 20
-13.944
 30
0.0
 10
12.1108
 20
-13.944
 30
0.0
 10
12.1108
 20
-13.944
 30
0.0
 10
12.0619
 20
-14.166
 30
0.0
 10
12.0619
 20
-14.166
 30
0.0
  0
SPLINE
  5
94
330
1F
100
AcDbEntity
  8
DEFAULT_1
 62
   250
100
AcDbSpline
210
0.0
220
0.0
230
1.0
 70
     8
 71
     3
 72
    24
 73
    20
 74
     0
 42
0.0000000001
 43
0.0000000001
 40
0.0
 40
0.0
 40
0.0
 40
0.0
 40
0.1666666666666667
 40
0.1666666666666667
 40
0.1666666666666667
 40
0.1666666666666667
 40
0.3333333333333333
 40
0.3333333333333333
 40
0.3333333333333333
 40
0.3333333333333333
 40
0.5
 40
0.5
 40
0.5
 40
0.5
 40
0.6666666666666666
 40
0.6666666666666666
 40
0.6666666666666666
 40
0.6666666666666666
 40
1.0
 40
1.0
 40
1.0
 40
1.0
 10
-15.2358
 20
-14.166
 30
0.0
 10
-15.2358
 20
-14.166
 30
0.0
 10
-15.2847
 20
-13.944
 30
0.0
 10
-15.2847
 20
-13.944
 30
0.0
 10
-15.2847
 20
-13.944
 30
0.0
 10
-15.2847
 20
-13.944
 30
0.0
 10
-15.3917
 20
-13.7381
 30
0.0
 10
-15.3917
 20
-13.7381
 30
0.0
 10
-15.3917
 20
-13.7381
 30
0.0
 10
-15.3917
 20
-13.7381
 30
0.0
 10
-15.5462
 20
-13.5695
 30
0.0
 10
-15.5462
 20
-13.5695
 30
0.0
 10
-15.5462
 20
-13.5695
 30
0.0
 10
-15.5462
 20
-13.5695
 30
0.0
 10
-15.742
 20
-13.4451
 30
0.0
 10
-15.742
 20
-13.4451
 30
0.0
 10
-15.742
 20
-13.4451
 30
0.0
 10
-15.742
 20
-13.4451
 30
0.0
 10
-15.9589
 20
-13.377
 30
0.0
 10
-15.9589
 20
-13.377
 30
0.0
  0
SPLINE
  5
95
330
1F
100
AcDbEntity
  8
DEFAULT_1
 62
   250
100
AcDbSpline
210
0.0
220
0.0
230
1.0
 70
     8
 71
     3
 72
    20
 73
    16
 74
     0
 42
0.0000000001
 43
0.0000000001
 40
0.0
 40
0.0
 40
0.0
 40
0.0
 40
0.2
 40
0.2
 40
0.2
 40
0.2
 40
0.4
 40
0.4
 40
0.4
 40
0.4
 40
0.6
 40
0.6
 40
0.6
 40
0.6
 40
1.0
 40
1.0
 40
1.0
 40
1.0
 10
11.0052
 20
-19.5144
 30
0.0
 10
11.0052
 20
-19.5144
 30
0.0
 10
11.266
 20
-19.0068
 30
0.0
 10
11.266
 20
-19.0068
 30
0.0
 10
11.266
 20
-19.0068
 30
0.0
 10
11.266
 20
-19.0068
 30
0.0
 10
11.477
 20
-18.6155
 30
0.0
 10
11.477
 20
-18.6155
 30
0.0
 10
11.477
 20
-18.6155
 30
0.0
 10
11.477
 20
-18.6155
 30
0.0
 10
11.6256
 20
-18.3489
 30
0.0
 10
11.6256
 20
-18.3489
 30
0.0
 10
11.6256
 20
-18.3489
 30
0.0
 10
11.6256
 20
-18.3489
 30
0.0
 10
11.7028
 20
-18.2129
 30
0.0
 10
11.7028
 20
-18.2129
 30
0.0
  0
SPLINE
  5
96
330
1F
100
AcDbEntity
  8
DEFAULT_1
 62
   250
100
AcDbSpline
210
0.0
220
0.0
230
1.0
 70
     8
 71
     3
 72
    72
 73
    68
 74
     0
 42
0.0000000001
 43
0.0000000001
 40
0.0
 40
0.0
 40
0.0
 40
0.0
 40
0.0555555555555556
 40
0.0555555555555556
 40
0.0555555555555556
 40
0.0555555555555556
 40
0.1111111111111111
 40
0.1111111111111111
 40
0.1111111111111111
 40
0.1111111111111111
 40
0.1666666666666667
 40
0.1666666666666667
 40
0.1666666666666667
 40
0.1666666666666667
 40
0.2222222222222222
 40
0.2222222222222222
 40
0.2222222222222222
 40
0.2222222222222222
 40
0.2777777777777778
 40
0.2777777777777778
 40
0.2777777777777778
 40
0.2777777777777778
 40
0.3333333333333333
 40
0.3333333333333333
 40
0.3333333333333333
 40
0.3333333333333333
 40
0.3888888888888889
 40
0.3888888888888889
 40
0.3888888888888889
 40
0.3888888888888889
 40
0.4444444444444444
 40
0.4444444444444444
 40
0.4444444444444444
 40
0.4444444444444444
 40
0.5
 40
0.5
 40
0.5
 40
0.5
 40
0.5555555555555556
 40
0.5555555555555556
 40
0.5555555555555556
 40
0.5555555555555556
 40
0.6111111111111112
 40
0.6111111111111112
 40
0.6111111111111112
 40
0.6111111111111112
 40
0.6666666666666666
 40
0.6666666666666666
 40
0.6666666666666666
 40
0.6666666666666666
 40
0.7222222222222222
 40
0.7222222222222222
 40
0.7222222222222222
 40
0.7222222222222222
 40
0.7777777777777778
 40
0.7777777777777778
 40
0.7777777777777778
 40
0.7777777777777778
 40
0.8333333333333334
 40
0.8333333333333334
 40
0.8333333333333334
 40
0.8333333333333334
 40
0.8888888888888888
 40
0.8888888888888888
 40
0.8888888888888888
 40
0.8888888888888888
 40
1.0
 40
1.0
 40
1.0
 40
1.0
 10
11.0052
 20
-19.5144
 30
0.0
 10
11.0052
 20
-19.5144
 30
0.0
 10
10.7551
 20
-20.1635
 30
0.0
 10
10.7551
 20
-20.1635
 30
0.0
 10
10.7551
 20
-20.1635
 30
0.0
 10
10.7551
 20
-20.1635
 30
0.0
 10
10.4994
 20
-20.9258
 30
0.0
 10
10.4994
 20
-20.9258
 30
0.0
 10
10.4994
 20
-20.9258
 30
0.0
 10
10.4994
 20
-20.9258
 30
0.0
 10
10.2652
 20
-21.7782
 30
0.0
 10
10.2652
 20
-21.7782
 30
0.0
 10
10.2652
 20
-21.7782
 30
0.0
 10
10.2652
 20
-21.7782
 30
0.0
 10
10.0798
 20
-22.6822
 30
0.0
 10
10.0798
 20
-22.6822
 30
0.0
 10
10.0798
 20
-22.6822
 30
0.0
 10
10.0798
 20
-22.6822
 30
0.0
 10
9.961
 20
-23.6018
 30
0.0
 10
9.961
 20
-23.6018
 30
0.0
 10
9.961
 20
-23.6018
 30
0.0
 10
9.961
 20
-23.6018
 30
0.0
 10
9.9146
 20
-24.5315
 30
0.0
 10
9.9146
 20
-24.5315
 30
0.0
 10
9.9146
 20
-24.5315
 30
0.0
 10
9.9146
 20
-24.5315
 30
0.0
 10
9.9439
 20
-25.4695
 30
0.0
 10
9.9439
 20
-25.4695
 30
0.0
 10
9.9439
 20
-25.4695
 30
0.0
 10
9.9439
 20
-25.4695
 30
0.0
 10
10.0463
 20
-26.3904
 30
0.0
 10
10.0463
 20
-26.3904
 30
0.0
 10
10.0463
 20
-26.3904
 30
0.0
 10
10.0463
 20
-26.3904
 30
0.0
 10
10.2071
 20
-27.2538
 30
0.0
 10
10.2071
 20
-27.2538
 30
0.0
 10
10.2071
 20
-27.2538
 30
0.0
 10
10.2071
 20
-27.2538
 30
0.0
 10
10.402
 20
-28.0268
 30
0.0
 10
10.402
 20
-28.0268
 30
0.0
 10
10.402
 20
-28.0268
 30
0.0
 10
10.402
 20
-28.0268
 30
0.0
 10
10.6025
 20
-28.68
 30
0.0
 10
10.6025
 20
-28.68
 30
0.0
 10
10.6025
 20
-28.68
 30
0.0
 10
10.6025
 20
-28.68
 30
0.0
 10
10.7921
 20
-29.2205
 30
0.0
 10
10.7921
 20
-29.2205
 30
0.0
 10
10.7921
 20
-29.2205
 30
0.0
 10
10.7921
 20
-29.2205
 30
0.0
 10
10.9677
 20
-29.6759
 30
0.0
 10
10.9677
 20
-29.6759
 30
0.0
 10
10.9677
 20
-29.6759
 30
0.0
 10
10.9677
 20
-29.6759
 30
0.0
 10
11.1307
 20
-30.0696
 30
0.0
 10
11.1307
 20
-30.0696
 30
0.0
 10
11.1307
 20
-30.0696
 30
0.0
 10
11.1307
 20
-30.0696
 30
0.0
 10
11.2785
 20
-30.4075
 30
0.0
 10
11.2785
 20
-30.4075
 30
0.0
 10
11.2785
 20
-30.4075
 30
0.0
 10
11.2785
 20
-30.4075
 30
0.0
 10
11.4044
 20
-30.6833
 30
0.0
 10
11.4044
 20
-30.6833
 30
0.0
 10
11.4044
 20
-30.6833
 30
0.0
 10
11.4044
 20
-30.6833
 30
0.0
 10
11.5017
 20
-30.8896
 30
0.0
 10
11.5017
 20
-30.8896
 30
0.0
  0
SPLINE
  5
97
330
1F
100
AcDbEntity
  8
DEFAULT_1
 62
   250
100
AcDbSpline
210
0.0
220
0.0
230
1.0
 70
     8
 71
     3
 72
    12
 73
     8
 74
     0
 42
0.0000000001
 43
0.0000000001
 40
0.0
 40
0.0
 40
0.0
 40
0.0
 40
0.3333333333333333
 40
0.3333333333333333
 40
0.3333333333333333
 40
0.3333333333333333
 40
1.0
 40
1.0
 40
1.0
 40
1.0
 10
-1.2939
 20
-13.1519
 30
0.0
 10
-1.2939
 20
-13.1519
 30
0.0
 10
-1.4404
 20
-13.1523
 30
0.0
 10
-1.4404
 20
-13.1523
 30
0.0
 10
-1.4404
 20
-13.1523
 30
0.0
 10
-1.4404
 20
-13.1523
 30
0.0
 10
-1.5869
 20
-13.1525
 30
0.0
 10
-1.5869
 20
-13.1525
 30
0.0
  0
SPLINE
  5
98
330
1F
100
AcDbEntity
  8
DEFAULT_1
 62
   250
100
AcDbSpline
210
0.0
220
0.0
230
1.0
 70
     8
 71
     3
 72
    12
 73
     8
 74
     0
 42
0.0000000001
 43
0.0000000001
 40
0.0
 40
0.0
 40
0.0
 40
0.0
 40
0.3333333333333333
 40
0.3333333333333333
 40
0.3333333333333333
 40
0.3333333333333333
 40
1.0
 40
1.0
 40
1.0
 40
1.0
 10
-1.5869
 20
-13.1525
 30
0.0
 10
-1.5869
 20
-13.1525
 30
0.0
 10
-1.7334
 20
-13.1523
 30
0.0
 10
-1.7334
 20
-13.1523
 30
0.0
 10
-1.7334
 20
-13.1523
 30
0.0
 10
-1.7334
 20
-13.1523
 30
0.0
 10
-1.8799
 20
-13.1519
 30
0.0
 10
-1.8799
 20
-13.1519
 30
0.0
  0
SPLINE
  5
99
330
1F
100
AcDbEntity
  8
DEFAULT_1
 62
   250
100
AcDbSpline
210
0.0
220
0.0
230
1.0
 70
     8
 71
     3
 72
    12
 73
     8
 74
     0
 42
0.0000000001
 43
0.0000000001
 40
0.0
 40
0.0
 40
0.0
 40
0.0
 40
0.3333333333333333
 40
0.3333333333333333
 40
0.3333333333333333
 40
0.3333333333333333
 40
1.0
 40
1.0
 40
1.0
 40
1.0
 10
-1.5869
 20
-16.0319
 30
0.0
 10
-1.5869
 20
-16.0319
 30
0.0
 10
-1.7334
 20
-16.0331
 30
0.0
 10
-1.7334
 20
-16.0331
 30
0.0
 10
-1.7334
 20
-16.0331
 30
0.0
 10
-1.7334
 20
-16.0331
 30
0.0
 10
-1.8799
 20
-16.0367
 30
0.0
 10
-1.8799
 20
-16.0367
 30
0.0
  0
SPLINE
  5
9A
330
1F
100
AcDbEntity
  8
DEFAULT_1
 62
   250
100
AcDbSpline
210
0.0
220
0.0
230
1.0
 70
     8
 71
     3
 72
    12
 73
     8
 74
     0
 42
0.0000000001
 43
0.0000000001
 40
0.0
 40
0.0
 40
0.0
 40
0.0
 40
0.3333333333333333
 40
0.3333333333333333
 40
0.3333333333333333
 40
0.3333333333333333
 40
1.0
 40
1.0
 40
1.0
 40
1.0
 10
-1.2939
 20
-16.0367
 30
0.0
 10
-1.2939
 20
-16.0367
 30
0.0
 10
-1.4405
 20
-16.0331
 30
0.0
 10
-1.4405
 20
-16.0331
 30
0.0
 10
-1.4405
 20
-16.0331
 30
0.0
 10
-1.4405
 20
-16.0331
 30
0.0
 10
-1.5869
 20
-16.0319
 30
0.0
 10
-1.5869
 20
-16.0319
 30
0.0
  0
SPLINE
  5
9B
330
1F
100
AcDbEntity
  8
DEFAULT_1
 62
   250
100
AcDbSpline
210
0.0
220
0.0
230
1.0
 70
     8
 71
     3
 72
    16
 73
    12
 74
     0
 42
0.0000000001
 43
0.0000000001
 40
0.0
 40
0.0
 40
0.0
 40
0.0
 40
0.25
 40
0.25
 40
0.25
 40
0.25
 40
0.5
 40
0.5
 40
0.5
 40
0.5
 40
1.0
 40
1.0
 40
1.0
 40
1.0
 10
12.0619
 20
-14.166
 30
0.0
 10
12.0619
 20
-14.166
 30
0.0
 10
12.0095
 20
-14.7645
 30
0.0
 10
12.0095
 20
-14.7645
 30
0.0
 10
12.0095
 20
-14.7645
 30
0.0
 10
12.0095
 20
-14.7645
 30
0.0
 10
11.9572
 20
-15.3626
 30
0.0
 10
11.9572
 20
-15.3626
 30
0.0
 10
11.9572
 20
-15.3626
 30
0.0
 10
11.9572
 20
-15.3626
 30
0.0
 10
11.9049
 20
-15.9603
 30
0.0
 10
11.9049
 20
-15.9603
 30
0.0
  0
SPLINE
  5
9C
330
1F
100
AcDbEntity
  8
DEFAULT_1
 62
   250
100
AcDbSpline
210
0.0
220
0.0
230
1.0
 70
     8
 71
     3
 72
    12
 73
     8
 74
     0
 42
0.0000000001
 43
0.0000000001
 40
0.0
 40
0.0
 40
0.0
 40
0.0
 40
0.3333333333333333
 40
0.3333333333333333
 40
0.3333333333333333
 40
0.3333333333333333
 40
1.0
 40
1.0
 40
1.0
 40
1.0
 10
14.0574
 20
-13.1527
 30
0.0
 10
14.0574
 20
-13.1527
 30
0.0
 10
13.4188
 20
-13.2653
 30
0.0
 10
13.4188
 20
-13.2653
 30
0.0
 10
13.4188
 20
-13.2653
 30
0.0
 10
13.4188
 20
-13.2653
 30
0.0
 10
12.785
 20
-13.377
 30
0.0
 10
12.785
 20
-13.377
 30
0.0
  0
SPLINE
  5
9D
330
1F
100
AcDbEntity
  8
DEFAULT_1
 62
   250
100
AcDbSpline
210
0.0
220
0.0
230
1.0
 70
     8
 71
     3
 72
    12
 73
     8
 74
     0
 42
0.0000000001
 43
0.0000000001
 40
0.0
 40
0.0
 40
0.0
 40
0.0
 40
0.3333333333333333
 40
0.3333333333333333
 40
0.3333333333333333
 40
0.3333333333333333
 40
1.0
 40
1.0
 40
1.0
 40
1.0
 10
-15.9589
 20
-13.377
 30
0.0
 10
-15.9589
 20
-13.377
 30
0.0
 10
-16.5926
 20
-13.2653
 30
0.0
 10
-16.5926
 20
-13.2653
 30
0.0
 10
-16.5926
 20
-13.2653
 30
0.0
 10
-16.5926
 20
-13.2653
 30
0.0
 10
-17.2312
 20
-13.1527
 30
0.0
 10
-17.2312
 20
-13.1527
 30
0.0
  0
SPLINE
  5
9E
330
1F
100
AcDbEntity
  8
DEFAULT_1
 62
   250
100
AcDbSpline
210
0.0
220
0.0
230
1.0
 70
     8
 71
     3
 72
    36
 73
    32
 74
     0
 42
0.0000000001
 43
0.0000000001
 40
0.0
 40
0.0
 40
0.0
 40
0.0
 40
0.1111111111111111
 40
0.1111111111111111
 40
0.1111111111111111
 40
0.1111111111111111
 40
0.2222222222222222
 40
0.2222222222222222
 40
0.2222222222222222
 40
0.2222222222222222
 40
0.3333333333333333
 40
0.3333333333333333
 40
0.3333333333333333
 40
0.3333333333333333
 40
0.4444444444444444
 40
0.4444444444444444
 40
0.4444444444444444
 40
0.4444444444444444
 40
0.5555555555555556
 40
0.5555555555555556
 40
0.5555555555555556
 40
0.5555555555555556
 40
0.6666666666666666
 40
0.6666666666666666
 40
0.6666666666666666
 40
0.6666666666666666
 40
0.7777777777777778
 40
0.7777777777777778
 40
0.7777777777777778
 40
0.7777777777777778
 40
1.0
 40
1.0
 40
1.0
 40
1.0
 10
11.588
 20
-31.0804
 30
0.0
 10
11.588
 20
-31.0804
 30
0.0
 10
11.5438
 20
-31.4466
 30
0.0
 10
11.5438
 20
-31.4466
 30
0.0
 10
11.5438
 20
-31.4466
 30
0.0
 10
11.5438
 20
-31.4466
 30
0.0
 10
11.4645
 20
-31.7796
 30
0.0
 10
11.4645
 20
-31.7796
 30
0.0
 10
11.4645
 20
-31.7796
 30
0.0
 10
11.4645
 20
-31.7796
 30
0.0
 10
11.3561
 20
-32.0855
 30
0.0
 10
11.3561
 20
-32.0855
 30
0.0
 10
11.3561
 20
-32.0855
 30
0.0
 10
11.3561
 20
-32.0855
 30
0.0
 10
11.2215
 20
-32.3693
 30
0.0
 10
11.2215
 20
-32.3693
 30
0.0
 10
11.2215
 20
-32.3693
 30
0.0
 10
11.2215
 20
-32.3693
 30
0.0
 10
11.0612
 20
-32.6351
 30
0.0
 10
11.0612
 20
-32.6351
 30
0.0
 10
11.0612
 20
-32.6351
 30
0.0
 10
11.0612
 20
-32.6351
 30
0.0
 10
10.8758
 20
-32.8832
 30
0.0
 10
10.8758
 20
-32.8832
 30
0.0
 10
10.8758
 20
-32.8832
 30
0.0
 10
10.8758
 20
-32.8832
 30
0.0
 10
10.6668
 20
-33.1117
 30
0.0
 10
10.6668
 20
-33.1117
 30
0.0
 10
10.6668
 20
-33.1117
 30
0.0
 10
10.6668
 20
-33.1117
 30
0.0
 10
10.4362
 20
-33.3199
 30
0.0
 10
10.4362
 20
-33.3199
 30
0.0
  0
SPLINE
  5
9F
330
1F
100
AcDbEntity
  8
DEFAULT_1
 62
   250
100
AcDbSpline
210
0.0
220
0.0
230
1.0
 70
     8
 71
     3
 72
    16
 73
    12
 74
     0
 42
0.0000000001
 43
0.0000000001
 40
0.0
 40
0.0
 40
0.0
 40
0.0
 40
0.25
 40
0.25
 40
0.25
 40
0.25
 40
0.5
 40
0.5
 40
0.5
 40
0.5
 40
1.0
 40
1.0
 40
1.0
 40
1.0
 10
-15.0788
 20
-15.9603
 30
0.0
 10
-15.0788
 20
-15.9603
 30
0.0
 10
-15.1311
 20
-15.3626
 30
0.0
 10
-15.1311
 20
-15.3626
 30
0.0
 10
-15.1311
 20
-15.3626
 30
0.0
 10
-15.1311
 20
-15.3626
 30
0.0
 10
-15.1834
 20
-14.7645
 30
0.0
 10
-15.1834
 20
-14.7645
 30
0.0
 10
-15.1834
 20
-14.7645
 30
0.0
 10
-15.1834
 20
-14.7645
 30
0.0
 10
-15.2358
 20
-14.166
 30
0.0
 10
-15.2358
 20
-14.166
 30
0.0
  0
SPLINE
  5
A0
330
1F
100
AcDbEntity
  8
DEFAULT_1
  6
NEW_LINE1
 62
   250
100
AcDbSpline
210
0.0
220
0.0
230
1.0
 70
    24
 71
     3
 72
     8
 73
     4
 74
     0
 42
0.0000000001
 43
0.0000000001
 40
0.0
 40
0.0
 40
0.0
 40
0.0
 40
1.0
 40
1.0
 40
1.0
 40
1.0
 10
7.7373
 20
-24.6415
 30
0.0
 10
7.7373
 20
-24.6415
 30
0.0
 10
19.3056
 20
-24.6415
 30
0.0
 10
19.3056
 20
-24.6415
 30
0.0
  0
SPLINE
  5
A2
330
1F
100
AcDbEntity
  8
DEFAULT_1
  6
NEW_LINE2
 62
   250
100
AcDbSpline
210
0.0
220
0.0
230
1.0
 70
    24
 71
     3
 72
     8
 73
     4
 74
     0
 42
0.0000000001
 43
0.0000000001
 40
0.0
 40
0.0
 40
0.0
 40
0.0
 40
1.0
 40
1.0
 40
1.0
 40
1.0
 10
-1.5869
 20
29.5938
 30
0.0
 10
-1.5869
 20
29.5938
 30
0.0
 10
-1.5869
 20
-34.907
 30
0.0
 10
-1.5869
 20
-34.907
 30
0.0
  0
SPLINE
  5
A4
330
1F
100
AcDbEntity
  8
DEFAULT_1
 62
   250
100
AcDbSpline
210
0.0
220
0.0
230
1.0
 70
    24
 71
     3
 72
     8
 73
     4
 74
     0
 42
0.0000000001
 43
0.0000000001
 40
0.0
 40
0.0
 40
0.0
 40
0.0
 40
1.0
 40
1.0
 40
1.0
 40
1.0
 10
-23.4055
 20
-10.3856
 30
0.0
 10
-23.4055
 20
-10.3856
 30
0.0
 10
-23.4055
 20
-33.4039
 30
0.0
 10
-23.4055
 20
-33.4039
 30
0.0
  0
SPLINE
  5
A5
330
1F
100
AcDbEntity
  8
DEFAULT_1
 62
   250
100
AcDbSpline
210
0.0
220
0.0
230
1.0
 70
    24
 71
     3
 72
     8
 73
     4
 74
     0
 42
0.0000000001
 43
0.0000000001
 40
0.0
 40
0.0
 40
0.0
 40
0.0
 40
1.0
 40
1.0
 40
1.0
 40
1.0
 10
10.592
 20
-0.7139
 30
0.0
 10
10.592
 20
-0.7139
 30
0.0
 10
-12.3955
 20
-0.7139
 30
0.0
 10
-12.3955
 20
-0.7139
 30
0.0
  0
SPLINE
  5
A6
330
1F
100
AcDbEntity
  8
DEFAULT_1
 62
   250
100
AcDbSpline
210
0.0
220
0.0
230
1.0
 70
    11
 71
     3
 72
    84
 73
    80
 74
     0
 42
0.0000000001
 43
0.0000000001
 40
0.0
 40
0.0
 40
0.0
 40
0.0
 40
0.0476190476190476
 40
0.0476190476190476
 40
0.0476190476190476
 40
0.0476190476190476
 40
0.0952380952380952
 40
0.0952380952380952
 40
0.0952380952380952
 40
0.0952380952380952
 40
0.1428571428571428
 40
0.1428571428571428
 40
0.1428571428571428
 40
0.1428571428571428
 40
0.1904761904761905
 40
0.1904761904761905
 40
0.1904761904761905
 40
0.1904761904761905
 40
0.2380952380952381
 40
0.2380952380952381
 40
0.2380952380952381
 40
0.2380952380952381
 40
0.2857142857142857
 40
0.2857142857142857
 40
0.2857142857142857
 40
0.2857142857142857
 40
0.3333333333333333
 40
0.3333333333333333
 40
0.3333333333333333
 40
0.3333333333333333
 40
0.3809523809523809
 40
0.3809523809523809
 40
0.3809523809523809
 40
0.3809523809523809
 40
0.4285714285714285
 40
0.4285714285714285
 40
0.4285714285714285
 40
0.4285714285714285
 40
0.4761904761904762
 40
0.4761904761904762
 40
0.4761904761904762
 40
0.4761904761904762
 40
0.5238095238095238
 40
0.5238095238095238
 40
0.5238095238095238
 40
0.5238095238095238
 40
0.5714285714285714
 40
0.5714285714285714
 40
0.5714285714285714
 40
0.5714285714285714
 40
0.6190476190476191
 40
0.6190476190476191
 40
0.6190476190476191
 40
0.6190476190476191
 40
0.6666666666666666
 40
0.6666666666666666
 40
0.6666666666666666
 40
0.6666666666666666
 40
0.7142857142857143
 40
0.7142857142857143
 40
0.7142857142857143
 40
0.7142857142857143
 40
0.7619047619047619
 40
0.7619047619047619
 40
0.7619047619047619
 40
0.7619047619047619
 40
0.8095238095238095
 40
0.8095238095238095
 40
0.8095238095238095
 40
0.8095238095238095
 40
0.8571428571428571
 40
0.8571428571428571
 40
0.8571428571428571
 40
0.8571428571428571
 40
0.9047619047619048
 40
0.9047619047619048
 40
0.9047619047619048
 40
0.9047619047619048
 40
1.0
 40
1.0
 40
1.0
 40
1.0
 10
-1.9787
 20
1.6279
 30
0.0
 10
-1.9787
 20
1.6279
 30
0.0
 10
-1.7473
 20
1.887
 30
0.0
 10
-1.7473
 20
1.887
 30
0.0
 10
-1.7473
 20
1.887
 30
0.0
 10
-1.7473
 20
1.887
 30
0.0
 10
-1.6109
 20
1.7713
 30
0.0
 10
-1.6109
 20
1.7713
 30
0.0
 10
-1.6109
 20
1.7713
 30
0.0
 10
-1.6109
 20
1.7713
 30
0.0
 10
-1.8531
 20
1.4985
 30
0.0
 10
-1.8531
 20
1.4985
 30
0.0
 10
-1.8531
 20
1.4985
 30
0.0
 10
-1.7741
 20
1.3809
 30
0.0
 10
-1.721
 20
1.2779
 30
0.0
 10
-1.6932
 20
1.19
 30
0.0
 10
-1.6932
 20
1.19
 30
0.0
 10
-1.6565
 20
1.0742
 30
0.0
 10
-1.6382
 20
0.9444
 30
0.0
 10
-1.6382
 20
0.8014
 30
0.0
 10
-1.6382
 20
0.8014
 30
0.0
 10
-1.6382
 20
0.5945
 30
0.0
 10
-1.68
 20
0.4101
 30
0.0
 10
-1.7638
 20
0.2488
 30
0.0
 10
-1.7638
 20
0.2488
 30
0.0
 10
-1.8475
 20
0.0869
 30
0.0
 10
-1.9646
 20
-0.0353
 30
0.0
 10
-2.1156
 20
-0.1181
 30
0.0
 10
-2.1156
 20
-0.1181
 30
0.0
 10
-2.2671
 20
-0.2004
 30
0.0
 10
-2.4274
 20
-0.2418
 30
0.0
 10
-2.5972
 20
-0.2418
 30
0.0
 10
-2.5972
 20
-0.2418
 30
0.0
 10
-2.7242
 20
-0.2418
 30
0.0
 10
-2.839
 20
-0.224
 30
0.0
 10
-2.942
 20
-0.1882
 30
0.0
 10
-2.942
 20
-0.1882
 30
0.0
 10
-3.021
 20
-0.1605
 30
0.0
 10
-3.1132
 20
-0.1078
 30
0.0
 10
-3.2191
 20
-0.0297
 30
0.0
 10
-3.2191
 20
-0.0297
 30
0.0
 10
-3.2191
 20
-0.0297
 30
0.0
 10
-3.4505
 20
-0.2889
 30
0.0
 10
-3.4505
 20
-0.2889
 30
0.0
 10
-3.4505
 20
-0.2889
 30
0.0
 10
-3.4505
 20
-0.2889
 30
0.0
 10
-3.5869
 20
-0.1732
 30
0.0
 10
-3.5869
 20
-0.1732
 30
0.0
 10
-3.5869
 20
-0.1732
 30
0.0
 10
-3.5869
 20
-0.1732
 30
0.0
 10
-3.3442
 20
0.0982
 30
0.0
 10
-3.3442
 20
0.0982
 30
0.0
 10
-3.3442
 20
0.0982
 30
0.0
 10
-3.4345
 20
0.2351
 30
0.0
 10
-3.4947
 20
0.3522
 30
0.0
 10
-3.5248
 20
0.4491
 30
0.0
 10
-3.5248
 20
0.4491
 30
0.0
 10
-3.5549
 20
0.546
 30
0.0
 10
-3.5704
 20
0.6627
 30
0.0
 10
-3.5704
 20
0.7986
 30
0.0
 10
-3.5704
 20
0.7986
 30
0.0
 10
-3.5704
 20
1.006
 30
0.0
 10
-3.529
 20
1.1909
 30
0.0
 10
-3.4463
 20
1.3532
 30
0.0
 10
-3.4463
 20
1.3532
 30
0.0
 10
-3.3635
 20
1.5155
 30
0.0
 10
-3.2478
 20
1.6382
 30
0.0
 10
-3.0982
 20
1.7219
 30
0.0
 10
-3.0982
 20
1.7219
 30
0.0
 10
-2.9491
 20
1.8052
 30
0.0
 10
-2.783
 20
1.8471
 30
0.0
 10
-2.6001
 20
1.8471
 30
0.0
 10
-2.6001
 20
1.8471
 30
0.0
 10
-2.4768
 20
1.8471
 30
0.0
 10
-2.3691
 20
1.8311
 30
0.0
 10
-2.2769
 20
1.7981
 30
0.0
 10
-2.2769
 20
1.7981
 30
0.0
 10
-2.1847
 20
1.7657
 30
0.0
 10
-2.085
 20
1.7088
 30
0.0
 10
-1.9787
 20
1.6279
 30
0.0
  0
SPLINE
  5
A7
330
1F
100
AcDbEntity
  8
DEFAULT_1
 62
   250
100
AcDbSpline
210
0.0
220
0.0
230
1.0
 70
    11
 71
     3
 72
    32
 73
    28
 74
     0
 42
0.0000000001
 43
0.0000000001
 40
0.0
 40
0.0
 40
0.0
 40
0.0
 40
0.125
 40
0.125
 40
0.125
 40
0.125
 40
0.25
 40
0.25
 40
0.25
 40
0.25
 40
0.375
 40
0.375
 40
0.375
 40
0.375
 40
0.5
 40
0.5
 40
0.5
 40
0.5
 40
0.625
 40
0.625
 40
0.625
 40
0.625
 40
0.75
 40
0.75
 40
0.75
 40
0.75
 40
1.0
 40
1.0
 40
1.0
 40
1.0
 10
-2.1438
 20
1.4421
 30
0.0
 10
-2.2304
 20
1.5098
 30
0.0
 10
-2.3061
 20
1.5564
 30
0.0
 10
-2.3705
 20
1.5813
 30
0.0
 10
-2.3705
 20
1.5813
 30
0.0
 10
-2.4354
 20
1.6058
 30
0.0
 10
-2.5116
 20
1.6185
 30
0.0
 10
-2.5987
 20
1.6185
 30
0.0
 10
-2.5987
 20
1.6185
 30
0.0
 10
-2.8
 20
1.6185
 30
0.0
 10
-2.966
 20
1.5503
 30
0.0
 10
-3.0977
 20
1.4139
 30
0.0
 10
-3.0977
 20
1.4139
 30
0.0
 10
-3.229
 20
1.2774
 30
0.0
 10
-3.2948
 20
1.0738
 30
0.0
 10
-3.2948
 20
0.8024
 30
0.0
 10
-3.2948
 20
0.8024
 30
0.0
 10
-3.2948
 20
0.6961
 30
0.0
 10
-3.2845
 20
0.6015
 30
0.0
 10
-3.2642
 20
0.5187
 30
0.0
 10
-3.2642
 20
0.5187
 30
0.0
 10
-3.2496
 20
0.4571
 30
0.0
 10
-3.2191
 20
0.3814
 30
0.0
 10
-3.172
 20
0.2916
 30
0.0
 10
-3.172
 20
0.2916
 30
0.0
 10
-3.172
 20
0.2916
 30
0.0
 10
-2.1438
 20
1.4421
 30
0.0
 10
-2.1438
 20
1.4421
 30
0.0
  0
SPLINE
  5
A8
330
1F
100
AcDbEntity
  8
DEFAULT_1
 62
   250
100
AcDbSpline
210
0.0
220
0.0
230
1.0
 70
    11
 71
     3
 72
    28
 73
    24
 74
     0
 42
0.0000000001
 43
0.0000000001
 40
0.0
 40
0.0
 40
0.0
 40
0.0
 40
0.1428571428571428
 40
0.1428571428571428
 40
0.1428571428571428
 40
0.1428571428571428
 40
0.2857142857142857
 40
0.2857142857142857
 40
0.2857142857142857
 40
0.2857142857142857
 40
0.4285714285714285
 40
0.4285714285714285
 40
0.4285714285714285
 40
0.4285714285714285
 40
0.5714285714285714
 40
0.5714285714285714
 40
0.5714285714285714
 40
0.5714285714285714
 40
0.7142857142857143
 40
0.7142857142857143
 40
0.7142857142857143
 40
0.7142857142857143
 40
1.0
 40
1.0
 40
1.0
 40
1.0
 10
-2.0309
 20
1.3
 30
0.0
 10
-2.0309
 20
1.3
 30
0.0
 10
-3.0549
 20
0.1537
 30
0.0
 10
-3.0549
 20
0.1537
 30
0.0
 10
-3.0549
 20
0.1537
 30
0.0
 10
-2.9844
 20
0.0959
 30
0.0
 10
-2.919
 20
0.0554
 30
0.0
 10
-2.8592
 20
0.0324
 30
0.0
 10
-2.8592
 20
0.0324
 30
0.0
 10
-2.7812
 20
0.0018
 30
0.0
 10
-2.6965
 20
-0.0132
 30
0.0
 10
-2.6057
 20
-0.0132
 30
0.0
 10
-2.6057
 20
-0.0132
 30
0.0
 10
-2.4053
 20
-0.0132
 30
0.0
 10
-2.2402
 20
0.0573
 30
0.0
 10
-2.1095
 20
0.1989
 30
0.0
 10
-2.1095
 20
0.1989
 30
0.0
 10
-1.9792
 20
0.3405
 30
0.0
 10
-1.9138
 20
0.539
 30
0.0
 10
-1.9138
 20
0.7944
 30
0.0
 10
-1.9138
 20
0.7944
 30
0.0
 10
-1.9138
 20
0.9853
 30
0.0
 10
-1.9528
 20
1.1542
 30
0.0
 10
-2.0309
 20
1.3
 30
0.0
  0
SPLINE
  5
A9
330
1F
100
AcDbEntity
  8
DEFAULT_1
 62
   250
100
AcDbSpline
210
0.0
220
0.0
230
1.0
 70
    11
 71
     3
 72
    68
 73
    64
 74
     0
 42
0.0000000001
 43
0.0000000001
 40
0.0
 40
0.0
 40
0.0
 40
0.0
 40
0.0588235294117647
 40
0.0588235294117647
 40
0.0588235294117647
 40
0.0588235294117647
 40
0.1176470588235294
 40
0.1176470588235294
 40
0.1176470588235294
 40
0.1176470588235294
 40
0.1764705882352941
 40
0.1764705882352941
 40
0.1764705882352941
 40
0.1764705882352941
 40
0.2352941176470588
 40
0.2352941176470588
 40
0.2352941176470588
 40
0.2352941176470588
 40
0.2941176470588235
 40
0.2941176470588235
 40
0.2941176470588235
 40
0.2941176470588235
 40
0.3529411764705883
 40
0.3529411764705883
 40
0.3529411764705883
 40
0.3529411764705883
 40
0.4117647058823529
 40
0.4117647058823529
 40
0.4117647058823529
 40
0.4117647058823529
 40
0.4705882352941176
 40
0.4705882352941176
 40
0.4705882352941176
 40
0.4705882352941176
 40
0.5294117647058824
 40
0.5294117647058824
 40
0.5294117647058824
 40
0.5294117647058824
 40
0.5882352941176471
 40
0.5882352941176471
 40
0.5882352941176471
 40
0.5882352941176471
 40
0.6470588235294118
 40
0.6470588235294118
 40
0.6470588235294118
 40
0.6470588235294118
 40
0.7058823529411765
 40
0.7058823529411765
 40
0.7058823529411765
 40
0.7058823529411765
 40
0.7647058823529411
 40
0.7647058823529411
 40
0.7647058823529411
 40
0.7647058823529411
 40
0.8235294117647058
 40
0.8235294117647058
 40
0.8235294117647058
 40
0.8235294117647058
 40
0.8823529411764706
 40
0.8823529411764706
 40
0.8823529411764706
 40
0.8823529411764706
 40
1.0
 40
1.0
 40
1.0
 40
1.0
 10
-1.0069
 20
0.888
 30
0.0
 10
-1.11
 20
0.9256
 30
0.0
 10
-1.1862
 20
0.9792
 30
0.0
 10
-1.236
 20
1.0493
 30
0.0
 10
-1.236
 20
1.0493
 30
0.0
 10
-1.2854
 20
1.1189
 30
0.0
 10
-1.3103
 20
1.2027
 30
0.0
 10
-1.3103
 20
1.3
 30
0.0
 10
-1.3103
 20
1.3
 30
0.0
 10
-1.3103
 20
1.4472
 30
0.0
 10
-1.2576
 20
1.5705
 30
0.0
 10
-1.1518
 20
1.6707
 30
0.0
 10
-1.1518
 20
1.6707
 30
0.0
 10
-1.046
 20
1.7709
 30
0.0
 10
-0.9058
 20
1.8212
 30
0.0
 10
-0.7304
 20
1.8212
 30
0.0
 10
-0.7304
 20
1.8212
 30
0.0
 10
-0.554
 20
1.8212
 30
0.0
 10
-0.4119
 20
1.7699
 30
0.0
 10
-0.3042
 20
1.6674
 30
0.0
 10
-0.3042
 20
1.6674
 30
0.0
 10
-0.197
 20
1.5648
 30
0.0
 10
-0.1433
 20
1.4402
 30
0.0
 10
-0.1433
 20
1.293
 30
0.0
 10
-0.1433
 20
1.293
 30
0.0
 10
-0.1433
 20
1.1994
 30
0.0
 10
-0.1678
 20
1.118
 30
0.0
 10
-0.2167
 20
1.0484
 30
0.0
 10
-0.2167
 20
1.0484
 30
0.0
 10
-0.2661
 20
0.9792
 30
0.0
 10
-0.3404
 20
0.9256
 30
0.0
 10
-0.4406
 20
0.888
 30
0.0
 10
-0.4406
 20
0.888
 30
0.0
 10
-0.3169
 20
0.8475
 30
0.0
 10
-0.2224
 20
0.7826
 30
0.0
 10
-0.1575
 20
0.6923
 30
0.0
 10
-0.1575
 20
0.6923
 30
0.0
 10
-0.093
 20
0.6025
 30
0.0
 10
-0.0606
 20
0.4948
 30
0.0
 10
-0.0606
 20
0.3701
 30
0.0
 10
-0.0606
 20
0.3701
 30
0.0
 10
-0.0606
 20
0.197
 30
0.0
 10
-0.1217
 20
0.0521
 30
0.0
 10
-0.2435
 20
-0.0654
 30
0.0
 10
-0.2435
 20
-0.0654
 30
0.0
 10
-0.3658
 20
-0.183
 30
0.0
 10
-0.5267
 20
-0.2418
 30
0.0
 10
-0.7261
 20
-0.2418
 30
0.0
 10
-0.7261
 20
-0.2418
 30
0.0
 10
-0.9256
 20
-0.2418
 30
0.0
 10
-1.086
 20
-0.183
 30
0.0
 10
-1.2083
 20
-0.065
 30
0.0
 10
-1.2083
 20
-0.065
 30
0.0
 10
-1.3306
 20
0.0531
 30
0.0
 10
-1.3917
 20
0.2003
 30
0.0
 10
-1.3917
 20
0.3767
 30
0.0
 10
-1.3917
 20
0.3767
 30
0.0
 10
-1.3917
 20
0.5079
 30
0.0
 10
-1.3583
 20
0.618
 30
0.0
 10
-1.2915
 20
0.7069
 30
0.0
 10
-1.2915
 20
0.7069
 30
0.0
 10
-1.2252
 20
0.7953
 30
0.0
 10
-1.1302
 20
0.856
 30
0.0
 10
-1.0069
 20
0.888
 30
0.0
  0
SPLINE
  5
AA
330
1F
100
AcDbEntity
  8
DEFAULT_1
 62
   250
100
AcDbSpline
210
0.0
220
0.0
230
1.0
 70
    11
 71
     3
 72
    36
 73
    32
 74
     0
 42
0.0000000001
 43
0.0000000001
 40
0.0
 40
0.0
 40
0.0
 40
0.0
 40
0.1111111111111111
 40
0.1111111111111111
 40
0.1111111111111111
 40
0.1111111111111111
 40
0.2222222222222222
 40
0.2222222222222222
 40
0.2222222222222222
 40
0.2222222222222222
 40
0.3333333333333333
 40
0.3333333333333333
 40
0.3333333333333333
 40
0.3333333333333333
 40
0.4444444444444444
 40
0.4444444444444444
 40
0.4444444444444444
 40
0.4444444444444444
 40
0.5555555555555556
 40
0.5555555555555556
 40
0.5555555555555556
 40
0.5555555555555556
 40
0.6666666666666666
 40
0.6666666666666666
 40
0.6666666666666666
 40
0.6666666666666666
 40
0.7777777777777778
 40
0.7777777777777778
 40
0.7777777777777778
 40
0.7777777777777778
 40
1.0
 40
1.0
 40
1.0
 40
1.0
 10
-1.0568
 20
1.3085
 30
0.0
 10
-1.0568
 20
1.213
 30
0.0
 10
-1.0258
 20
1.1349
 30
0.0
 10
-0.9646
 20
1.0742
 30
0.0
 10
-0.9646
 20
1.0742
 30
0.0
 10
-0.903
 20
1.0136
 30
0.0
 10
-0.823
 20
0.983
 30
0.0
 10
-0.7247
 20
0.983
 30
0.0
 10
-0.7247
 20
0.983
 30
0.0
 10
-0.6292
 20
0.983
 30
0.0
 10
-0.5507
 20
1.0131
 30
0.0
 10
-0.4895
 20
1.0733
 30
0.0
 10
-0.4895
 20
1.0733
 30
0.0
 10
-0.4284
 20
1.1335
 30
0.0
 10
-0.3983
 20
1.2074
 30
0.0
 10
-0.3983
 20
1.2944
 30
0.0
 10
-0.3983
 20
1.2944
 30
0.0
 10
-0.3983
 20
1.3856
 30
0.0
 10
-0.4293
 20
1.4618
 30
0.0
 10
-0.4924
 20
1.5239
 30
0.0
 10
-0.4924
 20
1.5239
 30
0.0
 10
-0.5554
 20
1.586
 30
0.0
 10
-0.6335
 20
1.6171
 30
0.0
 10
-0.7275
 20
1.6171
 30
0.0
 10
-0.7275
 20
1.6171
 30
0.0
 10
-0.8221
 20
1.6171
 30
0.0
 10
-0.9006
 20
1.5865
 30
0.0
 10
-0.9632
 20
1.5263
 30
0.0
 10
-0.9632
 20
1.5263
 30
0.0
 10
-1.0258
 20
1.4656
 30
0.0
 10
-1.0568
 20
1.3927
 30
0.0
 10
-1.0568
 20
1.3085
 30
0.0
  0
SPLINE
  5
AB
330
1F
100
AcDbEntity
  8
DEFAULT_1
 62
   250
100
AcDbSpline
210
0.0
220
0.0
230
1.0
 70
    11
 71
     3
 72
    40
 73
    36
 74
     0
 42
0.0000000001
 43
0.0000000001
 40
0.0
 40
0.0
 40
0.0
 40
0.0
 40
0.1
 40
0.1
 40
0.1
 40
0.1
 40
0.2
 40
0.2
 40
0.2
 40
0.2
 40
0.3
 40
0.3
 40
0.3
 40
0.3
 40
0.4
 40
0.4
 40
0.4
 40
0.4
 40
0.5
 40
0.5
 40
0.5
 40
0.5
 40
0.6
 40
0.6
 40
0.6
 40
0.6
 40
0.7
 40
0.7
 40
0.7
 40
0.7
 40
0.8
 40
0.8
 40
0.8
 40
0.8
 40
1.0
 40
1.0
 40
1.0
 40
1.0
 10
-1.1368
 20
0.3753
 30
0.0
 10
-1.1368
 20
0.3047
 30
0.0
 10
-1.1198
 20
0.2361
 30
0.0
 10
-1.0864
 20
0.1702
 30
0.0
 10
-1.0864
 20
0.1702
 30
0.0
 10
-1.053
 20
0.1039
 30
0.0
 10
-1.0032
 20
0.0526
 30
0.0
 10
-0.9369
 20
0.0164
 30
0.0
 10
-0.9369
 20
0.0164
 30
0.0
 10
-0.8705
 20
-0.0198
 30
0.0
 10
-0.7995
 20
-0.0382
 30
0.0
 10
-0.7233
 20
-0.0382
 30
0.0
 10
-0.7233
 20
-0.0382
 30
0.0
 10
-0.6048
 20
-0.0382
 30
0.0
 10
-0.5069
 20
-0.0001
 30
0.0
 10
-0.4298
 20
0.0766
 30
0.0
 10
-0.4298
 20
0.0766
 30
0.0
 10
-0.3527
 20
0.1528
 30
0.0
 10
-0.3141
 20
0.2497
 30
0.0
 10
-0.3141
 20
0.3673
 30
0.0
 10
-0.3141
 20
0.3673
 30
0.0
 10
-0.3141
 20
0.4868
 30
0.0
 10
-0.3536
 20
0.5855
 30
0.0
 10
-0.4331
 20
0.6636
 30
0.0
 10
-0.4331
 20
0.6636
 30
0.0
 10
-0.5126
 20
0.7417
 30
0.0
 10
-0.6123
 20
0.7807
 30
0.0
 10
-0.7318
 20
0.7807
 30
0.0
 10
-0.7318
 20
0.7807
 30
0.0
 10
-0.8484
 20
0.7807
 30
0.0
 10
-0.9449
 20
0.7422
 30
0.0
 10
-1.0215
 20
0.665
 30
0.0
 10
-1.0215
 20
0.665
 30
0.0
 10
-1.0982
 20
0.5874
 30
0.0
 10
-1.1368
 20
0.491
 30
0.0
 10
-1.1368
 20
0.3753
 30
0.0
  0
SPLINE
  5
AC
330
1F
100
AcDbEntity
  8
DEFAULT_1
 62
   250
100
AcDbSpline
210
0.0
220
0.0
230
1.0
 70
    11
 71
     3
 72
    92
 73
    88
 74
     0
 42
0.0000000001
 43
0.0000000001
 40
0.0
 40
0.0
 40
0.0
 40
0.0
 40
0.0434782608695652
 40
0.0434782608695652
 40
0.0434782608695652
 40
0.0434782608695652
 40
0.0869565217391304
 40
0.0869565217391304
 40
0.0869565217391304
 40
0.0869565217391304
 40
0.1304347826086956
 40
0.1304347826086956
 40
0.1304347826086956
 40
0.1304347826086956
 40
0.1739130434782609
 40
0.1739130434782609
 40
0.1739130434782609
 40
0.1739130434782609
 40
0.2173913043478261
 40
0.2173913043478261
 40
0.2173913043478261
 40
0.2173913043478261
 40
0.2608695652173913
 40
0.2608695652173913
 40
0.2608695652173913
 40
0.2608695652173913
 40
0.3043478260869565
 40
0.3043478260869565
 40
0.3043478260869565
 40
0.3043478260869565
 40
0.3478260869565217
 40
0.3478260869565217
 40
0.3478260869565217
 40
0.3478260869565217
 40
0.391304347826087
 40
0.391304347826087
 40
0.391304347826087
 40
0.391304347826087
 40
0.4347826086956522
 40
0.4347826086956522
 40
0.4347826086956522
 40
0.4347826086956522
 40
0.4782608695652174
 40
0.4782608695652174
 40
0.4782608695652174
 40
0.4782608695652174
 40
0.5217391304347826
 40
0.5217391304347826
 40
0.5217391304347826
 40
0.5217391304347826
 40
0.5652173913043478
 40
0.5652173913043478
 40
0.5652173913043478
 40
0.5652173913043478
 40
0.6086956521739131
 40
0.6086956521739131
 40
0.6086956521739131
 40
0.6086956521739131
 40
0.6521739130434783
 40
0.6521739130434783
 40
0.6521739130434783
 40
0.6521739130434783
 40
0.6956521739130435
 40
0.6956521739130435
 40
0.6956521739130435
 40
0.6956521739130435
 40
0.7391304347826086
 40
0.7391304347826086
 40
0.7391304347826086
 40
0.7391304347826086
 40
0.782608695652174
 40
0.782608695652174
 40
0.782608695652174
 40
0.782608695652174
 40
0.8260869565217391
 40
0.8260869565217391
 40
0.8260869565217391
 40
0.8260869565217391
 40
0.8695652173913043
 40
0.8695652173913043
 40
0.8695652173913043
 40
0.8695652173913043
 40
0.9130434782608695
 40
0.9130434782608695
 40
0.9130434782608695
 40
0.9130434782608695
 40
1.0
 40
1.0
 40
1.0
 40
1.0
 10
0.1807
 20
0.3217
 30
0.0
 10
0.1807
 20
0.3217
 30
0.0
 10
0.4413
 20
0.3438
 30
0.0
 10
0.4413
 20
0.3438
 30
0.0
 10
0.4413
 20
0.3438
 30
0.0
 10
0.4606
 20
0.2168
 30
0.0
 10
0.5053
 20
0.1218
 30
0.0
 10
0.5754
 20
0.0578
 30
0.0
 10
0.5754
 20
0.0578
 30
0.0
 10
0.6459
 20
-0.0062
 30
0.0
 10
0.7306
 20
-0.0382
 30
0.0
 10
0.8298
 20
-0.0382
 30
0.0
 10
0.8298
 20
-0.0382
 30
0.0
 10
0.9493
 20
-0.0382
 30
0.0
 10
1.0504
 20
0.007
 30
0.0
 10
1.1327
 20
0.0968
 30
0.0
 10
1.1327
 20
0.0968
 30
0.0
 10
1.2155
 20
0.1871
 30
0.0
 10
1.2569
 20
0.3066
 30
0.0
 10
1.2569
 20
0.4552
 30
0.0
 10
1.2569
 20
0.4552
 30
0.0
 10
1.2569
 20
0.5968
 30
0.0
 10
1.2174
 20
0.7083
 30
0.0
 10
1.1379
 20
0.7901
 30
0.0
 10
1.1379
 20
0.7901
 30
0.0
 10
1.0584
 20
0.872
 30
0.0
 10
0.9545
 20
0.9129
 30
0.0
 10
0.8256
 20
0.9129
 30
0.0
 10
0.8256
 20
0.9129
 30
0.0
 10
0.7456
 20
0.9129
 30
0.0
 10
0.6737
 20
0.8946
 30
0.0
 10
0.6092
 20
0.8584
 30
0.0
 10
0.6092
 20
0.8584
 30
0.0
 10
0.5448
 20
0.8221
 30
0.0
 10
0.4945
 20
0.7751
 30
0.0
 10
0.4578
 20
0.7172
 30
0.0
 10
0.4578
 20
0.7172
 30
0.0
 10
0.4578
 20
0.7172
 30
0.0
 10
0.2249
 20
0.7473
 30
0.0
 10
0.2249
 20
0.7473
 30
0.0
 10
0.2249
 20
0.7473
 30
0.0
 10
0.2249
 20
0.7473
 30
0.0
 10
0.4206
 20
1.785
 30
0.0
 10
0.4206
 20
1.785
 30
0.0
 10
0.4206
 20
1.785
 30
0.0
 10
0.4206
 20
1.785
 30
0.0
 10
1.4253
 20
1.785
 30
0.0
 10
1.4253
 20
1.785
 30
0.0
 10
1.4253
 20
1.785
 30
0.0
 10
1.4253
 20
1.785
 30
0.0
 10
1.4253
 20
1.5479
 30
0.0
 10
1.4253
 20
1.5479
 30
0.0
 10
1.4253
 20
1.5479
 30
0.0
 10
1.4253
 20
1.5479
 30
0.0
 10
0.6191
 20
1.5479
 30
0.0
 10
0.6191
 20
1.5479
 30
0.0
 10
0.6191
 20
1.5479
 30
0.0
 10
0.6191
 20
1.5479
 30
0.0
 10
0.51
 20
1.0051
 30
0.0
 10
0.51
 20
1.0051
 30
0.0
 10
0.51
 20
1.0051
 30
0.0
 10
0.6313
 20
1.0898
 30
0.0
 10
0.7588
 20
1.1321
 30
0.0
 10
0.8919
 20
1.1321
 30
0.0
 10
0.8919
 20
1.1321
 30
0.0
 10
1.0683
 20
1.1321
 30
0.0
 10
1.2169
 20
1.071
 30
0.0
 10
1.3383
 20
0.9487
 30
0.0
 10
1.3383
 20
0.9487
 30
0.0
 10
1.4596
 20
0.8264
 30
0.0
 10
1.5203
 20
0.6693
 30
0.0
 10
1.5203
 20
0.4774
 30
0.0
 10
1.5203
 20
0.4774
 30
0.0
 10
1.5203
 20
0.2944
 30
0.0
 10
1.4667
 20
0.1363
 30
0.0
 10
1.3604
 20
0.0032
 30
0.0
 10
1.3604
 20
0.0032
 30
0.0
 10
1.2306
 20
-0.16
 30
0.0
 10
1.0537
 20
-0.2418
 30
0.0
 10
0.8298
 20
-0.2418
 30
0.0
 10
0.8298
 20
-0.2418
 30
0.0
 10
0.6459
 20
-0.2418
 30
0.0
 10
0.4959
 20
-0.1906
 30
0.0
 10
0.3797
 20
-0.0876
 30
0.0
 10
0.3797
 20
-0.0876
 30
0.0
 10
0.2635
 20
0.0155
 30
0.0
 10
0.1972
 20
0.1519
 30
0.0
 10
0.1807
 20
0.3217
 30
0.0
  0
SPLINE
  5
AD
330
1F
100
AcDbEntity
  8
DEFAULT_1
 62
   250
100
AcDbSpline
210
0.0
220
0.0
230
1.0
 70
    11
 71
     3
 72
    20
 73
    16
 74
     0
 42
0.0000000001
 43
0.0000000001
 40
0.0
 40
0.0
 40
0.0
 40
0.0
 40
0.2
 40
0.2
 40
0.2
 40
0.2
 40
0.4
 40
0.4
 40
0.4
 40
0.4
 40
0.6
 40
0.6
 40
0.6
 40
0.6
 40
1.0
 40
1.0
 40
1.0
 40
1.0
 10
7.6645
 20
-0.2092
 30
0.0
 10
7.6645
 20
-0.2092
 30
0.0
 10
10.7896
 20
-0.6502
 30
0.0
 10
10.7896
 20
-0.6502
 30
0.0
 10
10.7896
 20
-0.6502
 30
0.0
 10
10.7896
 20
-0.6502
 30
0.0
 10
10.7896
 20
-0.7482
 30
0.0
 10
10.7896
 20
-0.7482
 30
0.0
 10
10.7896
 20
-0.7482
 30
0.0
 10
10.7896
 20
-0.7482
 30
0.0
 10
7.6645
 20
-1.2186
 30
0.0
 10
7.6645
 20
-1.2186
 30
0.0
 10
7.6645
 20
-1.2186
 30
0.0
 10
7.6645
 20
-1.2186
 30
0.0
 10
7.6645
 20
-0.2092
 30
0.0
 10
7.6645
 20
-0.2092
 30
0.0
  0
SPLINE
  5
AE
330
1F
100
AcDbEntity
  8
DEFAULT_1
 62
   250
100
AcDbSpline
210
0.0
220
0.0
230
1.0
 70
    11
 71
     3
 72
    20
 73
    16
 74
     0
 42
0.0000000001
 43
0.0000000001
 40
0.0
 40
0.0
 40
0.0
 40
0.0
 40
0.2
 40
0.2
 40
0.2
 40
0.2
 40
0.4
 40
0.4
 40
0.4
 40
0.4
 40
0.6
 40
0.6
 40
0.6
 40
0.6
 40
1.0
 40
1.0
 40
1.0
 40
1.0
 10
-10.841
 20
-1.2665
 30
0.0
 10
-10.841
 20
-1.2665
 30
0.0
 10
-13.9661
 20
-0.8255
 30
0.0
 10
-13.9661
 20
-0.8255
 30
0.0
 10
-13.9661
 20
-0.8255
 30
0.0
 10
-13.9661
 20
-0.8255
 30
0.0
 10
-13.9661
 20
-0.7275
 30
0.0
 10
-13.9661
 20
-0.7275
 30
0.0
 10
-13.9661
 20
-0.7275
 30
0.0
 10
-13.9661
 20
-0.7275
 30
0.0
 10
-10.841
 20
-0.2571
 30
0.0
 10
-10.841
 20
-0.2571
 30
0.0
 10
-10.841
 20
-0.2571
 30
0.0
 10
-10.841
 20
-0.2571
 30
0.0
 10
-10.841
 20
-1.2665
 30
0.0
 10
-10.841
 20
-1.2665
 30
0.0
  0
SPLINE
  5
AF
330
1F
100
AcDbEntity
  8
DEFAULT_1
 62
   250
100
AcDbSpline
210
0.0
220
0.0
230
1.0
 70
    11
 71
     3
 72
    20
 73
    16
 74
     0
 42
0.0000000001
 43
0.0000000001
 40
0.0
 40
0.0
 40
0.0
 40
0.0
 40
0.2
 40
0.2
 40
0.2
 40
0.2
 40
0.4
 40
0.4
 40
0.4
 40
0.4
 40
0.6
 40
0.6
 40
0.6
 40
0.6
 40
1.0
 40
1.0
 40
1.0
 40
1.0
 10
-23.887
 20
-12.9106
 30
0.0
 10
-23.887
 20
-12.9106
 30
0.0
 10
-23.446
 20
-9.7855
 30
0.0
 10
-23.446
 20
-9.7855
 30
0.0
 10
-23.446
 20
-9.7855
 30
0.0
 10
-23.446
 20
-9.7855
 30
0.0
 10
-23.348
 20
-9.7855
 30
0.0
 10
-23.348
 20
-9.7855
 30
0.0
 10
-23.348
 20
-9.7855
 30
0.0
 10
-23.348
 20
-9.7855
 30
0.0
 10
-22.8777
 20
-12.9106
 30
0.0
 10
-22.8777
 20
-12.9106
 30
0.0
 10
-22.8777
 20
-12.9106
 30
0.0
 10
-22.8777
 20
-12.9106
 30
0.0
 10
-23.887
 20
-12.9106
 30
0.0
 10
-23.887
 20
-12.9106
 30
0.0
  0
SPLINE
  5
B0
330
1F
100
AcDbEntity
  8
DEFAULT_1
 62
   250
100
AcDbSpline
210
0.0
220
0.0
230
1.0
 70
    11
 71
     3
 72
    20
 73
    16
 74
     0
 42
0.0000000001
 43
0.0000000001
 40
0.0
 40
0.0
 40
0.0
 40
0.0
 40
0.2
 40
0.2
 40
0.2
 40
0.2
 40
0.4
 40
0.4
 40
0.4
 40
0.4
 40
0.6
 40
0.6
 40
0.6
 40
0.6
 40
1.0
 40
1.0
 40
1.0
 40
1.0
 10
-22.9009
 20
-30.8236
 30
0.0
 10
-22.9009
 20
-30.8236
 30
0.0
 10
-23.3419
 20
-33.9487
 30
0.0
 10
-23.3419
 20
-33.9487
 30
0.0
 10
-23.3419
 20
-33.9487
 30
0.0
 10
-23.3419
 20
-33.9487
 30
0.0
 10
-23.4399
 20
-33.9487
 30
0.0
 10
-23.4399
 20
-33.9487
 30
0.0
 10
-23.4399
 20
-33.9487
 30
0.0
 10
-23.4399
 20
-33.9487
 30
0.0
 10
-23.9102
 20
-30.8236
 30
0.0
 10
-23.9102
 20
-30.8236
 30
0.0
 10
-23.9102
 20
-30.8236
 30
0.0
 10
-23.9102
 20
-30.8236
 30
0.0
 10
-22.9009
 20
-30.8236
 30
0.0
 10
-22.9009
 20
-30.8236
 30
0.0
  0
SPLINE
  5
B1
330
1F
100
AcDbEntity
  8
DEFAULT_1
 62
   250
100
AcDbSpline
210
0.0
220
0.0
230
1.0
 70
    11
 71
     3
 72
    68
 73
    64
 74
     0
 42
0.0000000001
 43
0.0000000001
 40
0.0
 40
0.0
 40
0.0
 40
0.0
 40
0.0588235294117647
 40
0.0588235294117647
 40
0.0588235294117647
 40
0.0588235294117647
 40
0.1176470588235294
 40
0.1176470588235294
 40
0.1176470588235294
 40
0.1176470588235294
 40
0.1764705882352941
 40
0.1764705882352941
 40
0.1764705882352941
 40
0.1764705882352941
 40
0.2352941176470588
 40
0.2352941176470588
 40
0.2352941176470588
 40
0.2352941176470588
 40
0.2941176470588235
 40
0.2941176470588235
 40
0.2941176470588235
 40
0.2941176470588235
 40
0.3529411764705883
 40
0.3529411764705883
 40
0.3529411764705883
 40
0.3529411764705883
 40
0.4117647058823529
 40
0.4117647058823529
 40
0.4117647058823529
 40
0.4117647058823529
 40
0.4705882352941176
 40
0.4705882352941176
 40
0.4705882352941176
 40
0.4705882352941176
 40
0.5294117647058824
 40
0.5294117647058824
 40
0.5294117647058824
 40
0.5294117647058824
 40
0.5882352941176471
 40
0.5882352941176471
 40
0.5882352941176471
 40
0.5882352941176471
 40
0.6470588235294118
 40
0.6470588235294118
 40
0.6470588235294118
 40
0.6470588235294118
 40
0.7058823529411765
 40
0.7058823529411765
 40
0.7058823529411765
 40
0.7058823529411765
 40
0.7647058823529411
 40
0.7647058823529411
 40
0.7647058823529411
 40
0.7647058823529411
 40
0.8235294117647058
 40
0.8235294117647058
 40
0.8235294117647058
 40
0.8235294117647058
 40
0.8823529411764706
 40
0.8823529411764706
 40
0.8823529411764706
 40
0.8823529411764706
 40
1.0
 40
1.0
 40
1.0
 40
1.0
 10
-24.9745
 20
-22.4665
 30
0.0
 10
-25.0122
 20
-22.5695
 30
0.0
 10
-25.0658
 20
-22.6457
 30
0.0
 10
-25.1359
 20
-22.6955
 30
0.0
 10
-25.1359
 20
-22.6955
 30
0.0
 10
-25.2055
 20
-22.7449
 30
0.0
 10
-25.2892
 20
-22.7698
 30
0.0
 10
-25.3866
 20
-22.7698
 30
0.0
 10
-25.3866
 20
-22.7698
 30
0.0
 10
-25.5338
 20
-22.7698
 30
0.0
 10
-25.657
 20
-22.7172
 30
0.0
 10
-25.7572
 20
-22.6113
 30
0.0
 10
-25.7572
 20
-22.6113
 30
0.0
 10
-25.8574
 20
-22.5055
 30
0.0
 10
-25.9077
 20
-22.3653
 30
0.0
 10
-25.9077
 20
-22.1899
 30
0.0
 10
-25.9077
 20
-22.1899
 30
0.0
 10
-25.9077
 20
-22.0135
 30
0.0
 10
-25.8565
 20
-21.8715
 30
0.0
 10
-25.7539
 20
-21.7638
 30
0.0
 10
-25.7539
 20
-21.7638
 30
0.0
 10
-25.6514
 20
-21.6565
 30
0.0
 10
-25.5267
 20
-21.6029
 30
0.0
 10
-25.3795
 20
-21.6029
 30
0.0
 10
-25.3795
 20
-21.6029
 30
0.0
 10
-25.2859
 20
-21.6029
 30
0.0
 10
-25.2045
 20
-21.6274
 30
0.0
 10
-25.1349
 20
-21.6763
 30
0.0
 10
-25.1349
 20
-21.6763
 30
0.0
 10
-25.0658
 20
-21.7257
 30
0.0
 10
-25.0122
 20
-21.8
 30
0.0
 10
-24.9745
 20
-21.9002
 30
0.0
 10
-24.9745
 20
-21.9002
 30
0.0
 10
-24.9341
 20
-21.7765
 30
0.0
 10
-24.8692
 20
-21.6819
 30
0.0
 10
-24.7789
 20
-21.617
 30
0.0
 10
-24.7789
 20
-21.617
 30
0.0
 10
-24.689
 20
-21.5526
 30
0.0
 10
-24.5813
 20
-21.5201
 30
0.0
 10
-24.4567
 20
-21.5201
 30
0.0
 10
-24.4567
 20
-21.5201
 30
0.0
 10
-24.2836
 20
-21.5201
 30
0.0
 10
-24.1387
 20
-21.5813
 30
0.0
 10
-24.0211
 20
-21.7031
 30
0.0
 10
-24.0211
 20
-21.7031
 30
0.0
 10
-23.9036
 20
-21.8254
 30
0.0
 10
-23.8448
 20
-21.9862
 30
0.0
 10
-23.8448
 20
-22.1857
 30
0.0
 10
-23.8448
 20
-22.1857
 30
0.0
 10
-23.8448
 20
-22.3851
 30
0.0
 10
-23.9036
 20
-22.5455
 30
0.0
 10
-24.0216
 20
-22.6678
 30
0.0
 10
-24.0216
 20
-22.6678
 30
0.0
 10
-24.1397
 20
-22.7901
 30
0.0
 10
-24.2869
 20
-22.8512
 30
0.0
 10
-24.4633
 20
-22.8512
 30
0.0
 10
-24.4633
 20
-22.8512
 30
0.0
 10
-24.5945
 20
-22.8512
 30
0.0
 10
-24.7046
 20
-22.8178
 30
0.0
 10
-24.7935
 20
-22.751
 30
0.0
 10
-24.7935
 20
-22.751
 30
0.0
 10
-24.8819
 20
-22.6847
 30
0.0
 10
-24.9426
 20
-22.5897
 30
0.0
 10
-24.9745
 20
-22.4665
 30
0.0
  0
SPLINE
  5
B2
330
1F
100
AcDbEntity
  8
DEFAULT_1
 62
   250
100
AcDbSpline
210
0.0
220
0.0
230
1.0
 70
    11
 71
     3
 72
    36
 73
    32
 74
     0
 42
0.0000000001
 43
0.0000000001
 40
0.0
 40
0.0
 40
0.0
 40
0.0
 40
0.1111111111111111
 40
0.1111111111111111
 40
0.1111111111111111
 40
0.1111111111111111
 40
0.2222222222222222
 40
0.2222222222222222
 40
0.2222222222222222
 40
0.2222222222222222
 40
0.3333333333333333
 40
0.3333333333333333
 40
0.3333333333333333
 40
0.3333333333333333
 40
0.4444444444444444
 40
0.4444444444444444
 40
0.4444444444444444
 40
0.4444444444444444
 40
0.5555555555555556
 40
0.5555555555555556
 40
0.5555555555555556
 40
0.5555555555555556
 40
0.6666666666666666
 40
0.6666666666666666
 40
0.6666666666666666
 40
0.6666666666666666
 40
0.7777777777777778
 40
0.7777777777777778
 40
0.7777777777777778
 40
0.7777777777777778
 40
1.0
 40
1.0
 40
1.0
 40
1.0
 10
-25.395
 20
-22.5163
 30
0.0
 10
-25.2996
 20
-22.5163
 30
0.0
 10
-25.2215
 20
-22.4853
 30
0.0
 10
-25.1608
 20
-22.4241
 30
0.0
 10
-25.1608
 20
-22.4241
 30
0.0
 10
-25.1001
 20
-22.3625
 30
0.0
 10
-25.0696
 20
-22.2826
 30
0.0
 10
-25.0696
 20
-22.1842
 30
0.0
 10
-25.0696
 20
-22.1842
 30
0.0
 10
-25.0696
 20
-22.0888
 30
0.0
 10
-25.0997
 20
-22.0102
 30
0.0
 10
-25.1599
 20
-21.9491
 30
0.0
 10
-25.1599
 20
-21.9491
 30
0.0
 10
-25.2201
 20
-21.8879
 30
0.0
 10
-25.2939
 20
-21.8578
 30
0.0
 10
-25.3809
 20
-21.8578
 30
0.0
 10
-25.3809
 20
-21.8578
 30
0.0
 10
-25.4722
 20
-21.8578
 30
0.0
 10
-25.5484
 20
-21.8889
 30
0.0
 10
-25.6105
 20
-21.9519
 30
0.0
 10
-25.6105
 20
-21.9519
 30
0.0
 10
-25.6725
 20
-22.0149
 30
0.0
 10
-25.7036
 20
-22.093
 30
0.0
 10
-25.7036
 20
-22.1871
 30
0.0
 10
-25.7036
 20
-22.1871
 30
0.0
 10
-25.7036
 20
-22.2816
 30
0.0
 10
-25.673
 20
-22.3602
 30
0.0
 10
-25.6128
 20
-22.4227
 30
0.0
 10
-25.6128
 20
-22.4227
 30
0.0
 10
-25.5521
 20
-22.4853
 30
0.0
 10
-25.4792
 20
-22.5163
 30
0.0
 10
-25.395
 20
-22.5163
 30
0.0
  0
SPLINE
  5
B3
330
1F
100
AcDbEntity
  8
DEFAULT_1
 62
   250
100
AcDbSpline
210
0.0
220
0.0
230
1.0
 70
    11
 71
     3
 72
    40
 73
    36
 74
     0
 42
0.0000000001
 43
0.0000000001
 40
0.0
 40
0.0
 40
0.0
 40
0.0
 40
0.1
 40
0.1
 40
0.1
 40
0.1
 40
0.2
 40
0.2
 40
0.2
 40
0.2
 40
0.3
 40
0.3
 40
0.3
 40
0.3
 40
0.4
 40
0.4
 40
0.4
 40
0.4
 40
0.5
 40
0.5
 40
0.5
 40
0.5
 40
0.6
 40
0.6
 40
0.6
 40
0.6
 40
0.7
 40
0.7
 40
0.7
 40
0.7
 40
0.8
 40
0.8
 40
0.8
 40
0.8
 40
1.0
 40
1.0
 40
1.0
 40
1.0
 10
-24.4619
 20
-22.5963
 30
0.0
 10
-24.3913
 20
-22.5963
 30
0.0
 10
-24.3226
 20
-22.5793
 30
0.0
 10
-24.2568
 20
-22.5459
 30
0.0
 10
-24.2568
 20
-22.5459
 30
0.0
 10
-24.1905
 20
-22.5126
 30
0.0
 10
-24.1392
 20
-22.4627
 30
0.0
 10
-24.103
 20
-22.3964
 30
0.0
 10
-24.103
 20
-22.3964
 30
0.0
 10
-24.0668
 20
-22.3301
 30
0.0
 10
-24.0484
 20
-22.259
 30
0.0
 10
-24.0484
 20
-22.1828
 30
0.0
 10
-24.0484
 20
-22.1828
 30
0.0
 10
-24.0484
 20
-22.0643
 30
0.0
 10
-24.0865
 20
-21.9665
 30
0.0
 10
-24.1632
 20
-21.8893
 30
0.0
 10
-24.1632
 20
-21.8893
 30
0.0
 10
-24.2394
 20
-21.8122
 30
0.0
 10
-24.3363
 20
-21.7736
 30
0.0
 10
-24.4539
 20
-21.7736
 30
0.0
 10
-24.4539
 20
-21.7736
 30
0.0
 10
-24.5733
 20
-21.7736
 30
0.0
 10
-24.6721
 20
-21.8131
 30
0.0
 10
-24.7502
 20
-21.8926
 30
0.0
 10
-24.7502
 20
-21.8926
 30
0.0
 10
-24.8283
 20
-21.9721
 30
0.0
 10
-24.8673
 20
-22.0718
 30
0.0
 10
-24.8673
 20
-22.1913
 30
0.0
 10
-24.8673
 20
-22.1913
 30
0.0
 10
-24.8673
 20
-22.308
 30
0.0
 10
-24.8287
 20
-22.4044
 30
0.0
 10
-24.7516
 20
-22.481
 30
0.0
 10
-24.7516
 20
-22.481
 30
0.0
 10
-24.674
 20
-22.5577
 30
0.0
 10
-24.5776
 20
-22.5963
 30
0.0
 10
-24.4619
 20
-22.5963
 30
0.0
  0
SPLINE
  5
B4
330
1F
100
AcDbEntity
  8
DEFAULT_1
 62
   250
100
AcDbSpline
210
0.0
220
0.0
230
1.0
 70
    11
 71
     3
 72
    48
 73
    44
 74
     0
 42
0.0000000001
 43
0.0000000001
 40
0.0
 40
0.0
 40
0.0
 40
0.0
 40
0.0833333333333333
 40
0.0833333333333333
 40
0.0833333333333333
 40
0.0833333333333333
 40
0.1666666666666667
 40
0.1666666666666667
 40
0.1666666666666667
 40
0.1666666666666667
 40
0.25
 40
0.25
 40
0.25
 40
0.25
 40
0.3333333333333333
 40
0.3333333333333333
 40
0.3333333333333333
 40
0.3333333333333333
 40
0.4166666666666667
 40
0.4166666666666667
 40
0.4166666666666667
 40
0.4166666666666667
 40
0.5
 40
0.5
 40
0.5
 40
0.5
 40
0.5833333333333334
 40
0.5833333333333334
 40
0.5833333333333334
 40
0.5833333333333334
 40
0.6666666666666666
 40
0.6666666666666666
 40
0.6666666666666666
 40
0.6666666666666666
 40
0.75
 40
0.75
 40
0.75
 40
0.75
 40
0.8333333333333334
 40
0.8333333333333334
 40
0.8333333333333334
 40
0.8333333333333334
 40
1.0
 40
1.0
 40
1.0
 40
1.0
 10
-23.8791
 20
-20.4839
 30
0.0
 10
-23.8791
 20
-20.4839
 30
0.0
 10
-24.3626
 20
-20.4839
 30
0.0
 10
-24.3626
 20
-20.4839
 30
0.0
 10
-24.3626
 20
-20.4839
 30
0.0
 10
-24.3626
 20
-20.4839
 30
0.0
 10
-24.3626
 20
-21.3602
 30
0.0
 10
-24.3626
 20
-21.3602
 30
0.0
 10
-24.3626
 20
-21.3602
 30
0.0
 10
-24.3626
 20
-21.3602
 30
0.0
 10
-24.5903
 20
-21.3602
 30
0.0
 10
-24.5903
 20
-21.3602
 30
0.0
 10
-24.5903
 20
-21.3602
 30
0.0
 10
-24.5903
 20
-21.3602
 30
0.0
 10
-25.8993
 20
-20.4383
 30
0.0
 10
-25.8993
 20
-20.4383
 30
0.0
 10
-25.8993
 20
-20.4383
 30
0.0
 10
-25.8993
 20
-20.4383
 30
0.0
 10
-25.8993
 20
-20.2355
 30
0.0
 10
-25.8993
 20
-20.2355
 30
0.0
 10
-25.8993
 20
-20.2355
 30
0.0
 10
-25.8993
 20
-20.2355
 30
0.0
 10
-24.5903
 20
-20.2355
 30
0.0
 10
-24.5903
 20
-20.2355
 30
0.0
 10
-24.5903
 20
-20.2355
 30
0.0
 10
-24.5903
 20
-20.2355
 30
0.0
 10
-24.5903
 20
-19.9627
 30
0.0
 10
-24.5903
 20
-19.9627
 30
0.0
 10
-24.5903
 20
-19.9627
 30
0.0
 10
-24.5903
 20
-19.9627
 30
0.0
 10
-24.3626
 20
-19.9627
 30
0.0
 10
-24.3626
 20
-19.9627
 30
0.0
 10
-24.3626
 20
-19.9627
 30
0.0
 10
-24.3626
 20
-19.9627
 30
0.0
 10
-24.3626
 20
-20.2355
 30
0.0
 10
-24.3626
 20
-20.2355
 30
0.0
 10
-24.3626
 20
-20.2355
 30
0.0
 10
-24.3626
 20
-20.2355
 30
0.0
 10
-23.8791
 20
-20.2355
 30
0.0
 10
-23.8791
 20
-20.2355
 30
0.0
 10
-23.8791
 20
-20.2355
 30
0.0
 10
-23.8791
 20
-20.2355
 30
0.0
 10
-23.8791
 20
-20.4839
 30
0.0
 10
-23.8791
 20
-20.4839
 30
0.0
  0
SPLINE
  5
B5
330
1F
100
AcDbEntity
  8
DEFAULT_1
 62
   250
100
AcDbSpline
210
0.0
220
0.0
230
1.0
 70
    11
 71
     3
 72
    16
 73
    12
 74
     0
 42
0.0000000001
 43
0.0000000001
 40
0.0
 40
0.0
 40
0.0
 40
0.0
 40
0.25
 40
0.25
 40
0.25
 40
0.25
 40
0.5
 40
0.5
 40
0.5
 40
0.5
 40
1.0
 40
1.0
 40
1.0
 40
1.0
 10
-24.5903
 20
-20.4839
 30
0.0
 10
-24.5903
 20
-20.4839
 30
0.0
 10
-25.5009
 20
-20.4839
 30
0.0
 10
-25.5009
 20
-20.4839
 30
0.0
 10
-25.5009
 20
-20.4839
 30
0.0
 10
-25.5009
 20
-20.4839
 30
0.0
 10
-24.5903
 20
-21.116
 30
0.0
 10
-24.5903
 20
-21.116
 30
0.0
 10
-24.5903
 20
-21.116
 30
0.0
 10
-24.5903
 20
-21.116
 30
0.0
 10
-24.5903
 20
-20.4839
 30
0.0
 10
-24.5903
 20
-20.4839
 30
0.0
  0
SPLINE
  5
B6
330
1F
100
AcDbEntity
  8
DEFAULT_1
 62
   250
100
AcDbSpline
210
0.0
220
0.0
230
1.0
 70
    24
 71
     3
 72
     8
 73
     4
 74
     0
 42
0.0000000001
 43
0.0000000001
 40
0.0
 40
0.0
 40
0.0
 40
0.0
 40
1.0
 40
1.0
 40
1.0
 40
1.0
 10
25.3624
 20
-19.1726
 30
0.0
 10
25.3624
 20
-19.1726
 30
0.0
 10
25.3624
 20
-30.0239
 30
0.0
 10
25.3624
 20
-30.0239
 30
0.0
  0
SPLINE
  5
B7
330
1F
100
AcDbEntity
  8
DEFAULT_1
 62
   250
100
AcDbSpline
210
0.0
220
0.0
230
1.0
 70
    11
 71
     3
 72
    84
 73
    80
 74
     0
 42
0.0000000001
 43
0.0000000001
 40
0.0
 40
0.0
 40
0.0
 40
0.0
 40
0.0476190476190476
 40
0.0476190476190476
 40
0.0476190476190476
 40
0.0476190476190476
 40
0.0952380952380952
 40
0.0952380952380952
 40
0.0952380952380952
 40
0.0952380952380952
 40
0.1428571428571428
 40
0.1428571428571428
 40
0.1428571428571428
 40
0.1428571428571428
 40
0.1904761904761905
 40
0.1904761904761905
 40
0.1904761904761905
 40
0.1904761904761905
 40
0.2380952380952381
 40
0.2380952380952381
 40
0.2380952380952381
 40
0.2380952380952381
 40
0.2857142857142857
 40
0.2857142857142857
 40
0.2857142857142857
 40
0.2857142857142857
 40
0.3333333333333333
 40
0.3333333333333333
 40
0.3333333333333333
 40
0.3333333333333333
 40
0.3809523809523809
 40
0.3809523809523809
 40
0.3809523809523809
 40
0.3809523809523809
 40
0.4285714285714285
 40
0.4285714285714285
 40
0.4285714285714285
 40
0.4285714285714285
 40
0.4761904761904762
 40
0.4761904761904762
 40
0.4761904761904762
 40
0.4761904761904762
 40
0.5238095238095238
 40
0.5238095238095238
 40
0.5238095238095238
 40
0.5238095238095238
 40
0.5714285714285714
 40
0.5714285714285714
 40
0.5714285714285714
 40
0.5714285714285714
 40
0.6190476190476191
 40
0.6190476190476191
 40
0.6190476190476191
 40
0.6190476190476191
 40
0.6666666666666666
 40
0.6666666666666666
 40
0.6666666666666666
 40
0.6666666666666666
 40
0.7142857142857143
 40
0.7142857142857143
 40
0.7142857142857143
 40
0.7142857142857143
 40
0.7619047619047619
 40
0.7619047619047619
 40
0.7619047619047619
 40
0.7619047619047619
 40
0.8095238095238095
 40
0.8095238095238095
 40
0.8095238095238095
 40
0.8095238095238095
 40
0.8571428571428571
 40
0.8571428571428571
 40
0.8571428571428571
 40
0.8571428571428571
 40
0.9047619047619048
 40
0.9047619047619048
 40
0.9047619047619048
 40
0.9047619047619048
 40
1.0
 40
1.0
 40
1.0
 40
1.0
 10
22.6442
 20
-25.5901
 30
0.0
 10
22.6442
 20
-25.5901
 30
0.0
 10
22.3851
 20
-25.3587
 30
0.0
 10
22.3851
 20
-25.3587
 30
0.0
 10
22.3851
 20
-25.3587
 30
0.0
 10
22.3851
 20
-25.3587
 30
0.0
 10
22.5008
 20
-25.2223
 30
0.0
 10
22.5008
 20
-25.2223
 30
0.0
 10
22.5008
 20
-25.2223
 30
0.0
 10
22.5008
 20
-25.2223
 30
0.0
 10
22.7736
 20
-25.4645
 30
0.0
 10
22.7736
 20
-25.4645
 30
0.0
 10
22.7736
 20
-25.4645
 30
0.0
 10
22.8912
 20
-25.3855
 30
0.0
 10
22.9942
 20
-25.3324
 30
0.0
 10
23.0821
 20
-25.3046
 30
0.0
 10
23.0821
 20
-25.3046
 30
0.0
 10
23.1979
 20
-25.2679
 30
0.0
 10
23.3277
 20
-25.2496
 30
0.0
 10
23.4707
 20
-25.2496
 30
0.0
 10
23.4707
 20
-25.2496
 30
0.0
 10
23.6776
 20
-25.2496
 30
0.0
 10
23.862
 20
-25.2914
 30
0.0
 10
24.0233
 20
-25.3752
 30
0.0
 10
24.0233
 20
-25.3752
 30
0.0
 10
24.1852
 20
-25.4589
 30
0.0
 10
24.3074
 20
-25.576
 30
0.0
 10
24.3902
 20
-25.727
 30
0.0
 10
24.3902
 20
-25.727
 30
0.0
 10
24.4725
 20
-25.8785
 30
0.0
 10
24.5139
 20
-26.0388
 30
0.0
 10
24.5139
 20
-26.2086
 30
0.0
 10
24.5139
 20
-26.2086
 30
0.0
 10
24.5139
 20
-26.3356
 30
0.0
 10
24.4961
 20
-26.4504
 30
0.0
 10
24.4603
 20
-26.5534
 30
0.0
 10
24.4603
 20
-26.5534
 30
0.0
 10
24.4326
 20
-26.6324
 30
0.0
 10
24.3799
 20
-26.7246
 30
0.0
 10
24.3018
 20
-26.8305
 30
0.0
 10
24.3018
 20
-26.8305
 30
0.0
 10
24.3018
 20
-26.8305
 30
0.0
 10
24.561
 20
-27.0619
 30
0.0
 10
24.561
 20
-27.0619
 30
0.0
 10
24.561
 20
-27.0619
 30
0.0
 10
24.561
 20
-27.0619
 30
0.0
 10
24.4453
 20
-27.1983
 30
0.0
 10
24.4453
 20
-27.1983
 30
0.0
 10
24.4453
 20
-27.1983
 30
0.0
 10
24.4453
 20
-27.1983
 30
0.0
 10
24.1739
 20
-26.9556
 30
0.0
 10
24.1739
 20
-26.9556
 30
0.0
 10
24.1739
 20
-26.9556
 30
0.0
 10
24.037
 20
-27.0459
 30
0.0
 10
23.9199
 20
-27.1061
 30
0.0
 10
23.823
 20
-27.1362
 30
0.0
 10
23.823
 20
-27.1362
 30
0.0
 10
23.7261
 20
-27.1663
 30
0.0
 10
23.6094
 20
-27.1818
 30
0.0
 10
23.4735
 20
-27.1818
 30
0.0
 10
23.4735
 20
-27.1818
 30
0.0
 10
23.2661
 20
-27.1818
 30
0.0
 10
23.0812
 20
-27.1404
 30
0.0
 10
22.9189
 20
-27.0577
 30
0.0
 10
22.9189
 20
-27.0577
 30
0.0
 10
22.7566
 20
-26.9749
 30
0.0
 10
22.6339
 20
-26.8592
 30
0.0
 10
22.5502
 20
-26.7096
 30
0.0
 10
22.5502
 20
-26.7096
 30
0.0
 10
22.4669
 20
-26.5605
 30
0.0
 10
22.425
 20
-26.3944
 30
0.0
 10
22.425
 20
-26.2115
 30
0.0
 10
22.425
 20
-26.2115
 30
0.0
 10
22.425
 20
-26.0882
 30
0.0
 10
22.441
 20
-25.9805
 30
0.0
 10
22.474
 20
-25.8883
 30
0.0
 10
22.474
 20
-25.8883
 30
0.0
 10
22.5064
 20
-25.7961
 30
0.0
 10
22.5633
 20
-25.6964
 30
0.0
 10
22.6442
 20
-25.5901
 30
0.0
  0
SPLINE
  5
B8
330
1F
100
AcDbEntity
  8
DEFAULT_1
 62
   250
100
AcDbSpline
210
0.0
220
0.0
230
1.0
 70
    11
 71
     3
 72
    32
 73
    28
 74
     0
 42
0.0000000001
 43
0.0000000001
 40
0.0
 40
0.0
 40
0.0
 40
0.0
 40
0.125
 40
0.125
 40
0.125
 40
0.125
 40
0.25
 40
0.25
 40
0.25
 40
0.25
 40
0.375
 40
0.375
 40
0.375
 40
0.375
 40
0.5
 40
0.5
 40
0.5
 40
0.5
 40
0.625
 40
0.625
 40
0.625
 40
0.625
 40
0.75
 40
0.75
 40
0.75
 40
0.75
 40
1.0
 40
1.0
 40
1.0
 40
1.0
 10
22.83
 20
-25.7552
 30
0.0
 10
22.7623
 20
-25.8418
 30
0.0
 10
22.7157
 20
-25.9175
 30
0.0
 10
22.6908
 20
-25.9819
 30
0.0
 10
22.6908
 20
-25.9819
 30
0.0
 10
22.6663
 20
-26.0468
 30
0.0
 10
22.6536
 20
-26.123
 30
0.0
 10
22.6536
 20
-26.2101
 30
0.0
 10
22.6536
 20
-26.2101
 30
0.0
 10
22.6536
 20
-26.4114
 30
0.0
 10
22.7218
 20
-26.5774
 30
0.0
 10
22.8582
 20
-26.7091
 30
0.0
 10
22.8582
 20
-26.7091
 30
0.0
 10
22.9947
 20
-26.8404
 30
0.0
 10
23.1983
 20
-26.9062
 30
0.0
 10
23.4697
 20
-26.9062
 30
0.0
 10
23.4697
 20
-26.9062
 30
0.0
 10
23.576
 20
-26.9062
 30
0.0
 10
23.6706
 20
-26.8959
 30
0.0
 10
23.7534
 20
-26.8756
 30
0.0
 10
23.7534
 20
-26.8756
 30
0.0
 10
23.815
 20
-26.861
 30
0.0
 10
23.8907
 20
-26.8305
 30
0.0
 10
23.9805
 20
-26.7834
 30
0.0
 10
23.9805
 20
-26.7834
 30
0.0
 10
23.9805
 20
-26.7834
 30
0.0
 10
22.83
 20
-25.7552
 30
0.0
 10
22.83
 20
-25.7552
 30
0.0
  0
SPLINE
  5
B9
330
1F
100
AcDbEntity
  8
DEFAULT_1
 62
   250
100
AcDbSpline
210
0.0
220
0.0
230
1.0
 70
    11
 71
     3
 72
    28
 73
    24
 74
     0
 42
0.0000000001
 43
0.0000000001
 40
0.0
 40
0.0
 40
0.0
 40
0.0
 40
0.1428571428571428
 40
0.1428571428571428
 40
0.1428571428571428
 40
0.1428571428571428
 40
0.2857142857142857
 40
0.2857142857142857
 40
0.2857142857142857
 40
0.2857142857142857
 40
0.4285714285714285
 40
0.4285714285714285
 40
0.4285714285714285
 40
0.4285714285714285
 40
0.5714285714285714
 40
0.5714285714285714
 40
0.5714285714285714
 40
0.5714285714285714
 40
0.7142857142857143
 40
0.7142857142857143
 40
0.7142857142857143
 40
0.7142857142857143
 40
1.0
 40
1.0
 40
1.0
 40
1.0
 10
22.9721
 20
-25.6423
 30
0.0
 10
22.9721
 20
-25.6423
 30
0.0
 10
24.1184
 20
-26.6663
 30
0.0
 10
24.1184
 20
-26.6663
 30
0.0
 10
24.1184
 20
-26.6663
 30
0.0
 10
24.1762
 20
-26.5958
 30
0.0
 10
24.2167
 20
-26.5304
 30
0.0
 10
24.2397
 20
-26.4706
 30
0.0
 10
24.2397
 20
-26.4706
 30
0.0
 10
24.2703
 20
-26.3926
 30
0.0
 10
24.2853
 20
-26.3079
 30
0.0
 10
24.2853
 20
-26.2171
 30
0.0
 10
24.2853
 20
-26.2171
 30
0.0
 10
24.2853
 20
-26.0167
 30
0.0
 10
24.2148
 20
-25.8516
 30
0.0
 10
24.0732
 20
-25.7209
 30
0.0
 10
24.0732
 20
-25.7209
 30
0.0
 10
23.9316
 20
-25.5906
 30
0.0
 10
23.7331
 20
-25.5252
 30
0.0
 10
23.4777
 20
-25.5252
 30
0.0
 10
23.4777
 20
-25.5252
 30
0.0
 10
23.2868
 20
-25.5252
 30
0.0
 10
23.1179
 20
-25.5642
 30
0.0
 10
22.9721
 20
-25.6423
 30
0.0
  0
SPLINE
  5
BA
330
1F
100
AcDbEntity
  8
DEFAULT_1
 62
   250
100
AcDbSpline
210
0.0
220
0.0
230
1.0
 70
    11
 71
     3
 72
    48
 73
    44
 74
     0
 42
0.0000000001
 43
0.0000000001
 40
0.0
 40
0.0
 40
0.0
 40
0.0
 40
0.0833333333333333
 40
0.0833333333333333
 40
0.0833333333333333
 40
0.0833333333333333
 40
0.1666666666666667
 40
0.1666666666666667
 40
0.1666666666666667
 40
0.1666666666666667
 40
0.25
 40
0.25
 40
0.25
 40
0.25
 40
0.3333333333333333
 40
0.3333333333333333
 40
0.3333333333333333
 40
0.3333333333333333
 40
0.4166666666666667
 40
0.4166666666666667
 40
0.4166666666666667
 40
0.4166666666666667
 40
0.5
 40
0.5
 40
0.5
 40
0.5
 40
0.5833333333333334
 40
0.5833333333333334
 40
0.5833333333333334
 40
0.5833333333333334
 40
0.6666666666666666
 40
0.6666666666666666
 40
0.6666666666666666
 40
0.6666666666666666
 40
0.75
 40
0.75
 40
0.75
 40
0.75
 40
0.8333333333333334
 40
0.8333333333333334
 40
0.8333333333333334
 40
0.8333333333333334
 40
1.0
 40
1.0
 40
1.0
 40
1.0
 10
24.4796
 20
-24.2054
 30
0.0
 10
24.4796
 20
-24.2054
 30
0.0
 10
23.9961
 20
-24.2054
 30
0.0
 10
23.9961
 20
-24.2054
 30
0.0
 10
23.9961
 20
-24.2054
 30
0.0
 10
23.9961
 20
-24.2054
 30
0.0
 10
23.9961
 20
-25.0817
 30
0.0
 10
23.9961
 20
-25.0817
 30
0.0
 10
23.9961
 20
-25.0817
 30
0.0
 10
23.9961
 20
-25.0817
 30
0.0
 10
23.7684
 20
-25.0817
 30
0.0
 10
23.7684
 20
-25.0817
 30
0.0
 10
23.7684
 20
-25.0817
 30
0.0
 10
23.7684
 20
-25.0817
 30
0.0
 10
22.4594
 20
-24.1597
 30
0.0
 10
22.4594
 20
-24.1597
 30
0.0
 10
22.4594
 20
-24.1597
 30
0.0
 10
22.4594
 20
-24.1597
 30
0.0
 10
22.4594
 20
-23.957
 30
0.0
 10
22.4594
 20
-23.957
 30
0.0
 10
22.4594
 20
-23.957
 30
0.0
 10
22.4594
 20
-23.957
 30
0.0
 10
23.7684
 20
-23.957
 30
0.0
 10
23.7684
 20
-23.957
 30
0.0
 10
23.7684
 20
-23.957
 30
0.0
 10
23.7684
 20
-23.957
 30
0.0
 10
23.7684
 20
-23.6842
 30
0.0
 10
23.7684
 20
-23.6842
 30
0.0
 10
23.7684
 20
-23.6842
 30
0.0
 10
23.7684
 20
-23.6842
 30
0.0
 10
23.9961
 20
-23.6842
 30
0.0
 10
23.9961
 20
-23.6842
 30
0.0
 10
23.9961
 20
-23.6842
 30
0.0
 10
23.9961
 20
-23.6842
 30
0.0
 10
23.9961
 20
-23.957
 30
0.0
 10
23.9961
 20
-23.957
 30
0.0
 10
23.9961
 20
-23.957
 30
0.0
 10
23.9961
 20
-23.957
 30
0.0
 10
24.4796
 20
-23.957
 30
0.0
 10
24.4796
 20
-23.957
 30
0.0
 10
24.4796
 20
-23.957
 30
0.0
 10
24.4796
 20
-23.957
 30
0.0
 10
24.4796
 20
-24.2054
 30
0.0
 10
24.4796
 20
-24.2054
 30
0.0
  0
SPLINE
  5
BB
330
1F
100
AcDbEntity
  8
DEFAULT_1
 62
   250
100
AcDbSpline
210
0.0
220
0.0
230
1.0
 70
    11
 71
     3
 72
    16
 73
    12
 74
     0
 42
0.0000000001
 43
0.0000000001
 40
0.0
 40
0.0
 40
0.0
 40
0.0
 40
0.25
 40
0.25
 40
0.25
 40
0.25
 40
0.5
 40
0.5
 40
0.5
 40
0.5
 40
1.0
 40
1.0
 40
1.0
 40
1.0
 10
23.7684
 20
-24.2054
 30
0.0
 10
23.7684
 20
-24.2054
 30
0.0
 10
22.8578
 20
-24.2054
 30
0.0
 10
22.8578
 20
-24.2054
 30
0.0
 10
22.8578
 20
-24.2054
 30
0.0
 10
22.8578
 20
-24.2054
 30
0.0
 10
23.7684
 20
-24.8375
 30
0.0
 10
23.7684
 20
-24.8375
 30
0.0
 10
23.7684
 20
-24.8375
 30
0.0
 10
23.7684
 20
-24.8375
 30
0.0
 10
23.7684
 20
-24.2054
 30
0.0
 10
23.7684
 20
-24.2054
 30
0.0
  0
SPLINE
  5
BC
330
1F
100
AcDbEntity
  8
DEFAULT_1
 62
   250
100
AcDbSpline
210
0.0
220
0.0
230
1.0
 70
    11
 71
     3
 72
    52
 73
    48
 74
     0
 42
0.0000000001
 43
0.0000000001
 40
0.0
 40
0.0
 40
0.0
 40
0.0
 40
0.0769230769230769
 40
0.0769230769230769
 40
0.0769230769230769
 40
0.0769230769230769
 40
0.1538461538461539
 40
0.1538461538461539
 40
0.1538461538461539
 40
0.1538461538461539
 40
0.2307692307692308
 40
0.2307692307692308
 40
0.2307692307692308
 40
0.2307692307692308
 40
0.3076923076923077
 40
0.3076923076923077
 40
0.3076923076923077
 40
0.3076923076923077
 40
0.3846153846153846
 40
0.3846153846153846
 40
0.3846153846153846
 40
0.3846153846153846
 40
0.4615384615384616
 40
0.4615384615384616
 40
0.4615384615384616
 40
0.4615384615384616
 40
0.5384615384615384
 40
0.5384615384615384
 40
0.5384615384615384
 40
0.5384615384615384
 40
0.6153846153846154
 40
0.6153846153846154
 40
0.6153846153846154
 40
0.6153846153846154
 40
0.6923076923076923
 40
0.6923076923076923
 40
0.6923076923076923
 40
0.6923076923076923
 40
0.7692307692307693
 40
0.7692307692307693
 40
0.7692307692307693
 40
0.7692307692307693
 40
0.8461538461538461
 40
0.8461538461538461
 40
0.8461538461538461
 40
0.8461538461538461
 40
1.0
 40
1.0
 40
1.0
 40
1.0
 10
23.4834
 20
-23.4307
 30
0.0
 10
23.2444
 20
-23.4307
 30
0.0
 10
23.052
 20
-23.4062
 30
0.0
 10
22.9067
 20
-23.3568
 30
0.0
 10
22.9067
 20
-23.3568
 30
0.0
 10
22.7609
 20
-23.3079
 30
0.0
 10
22.6485
 20
-23.2345
 30
0.0
 10
22.5694
 20
-23.1376
 30
0.0
 10
22.5694
 20
-23.1376
 30
0.0
 10
22.4904
 20
-23.0407
 30
0.0
 10
22.4509
 20
-22.9189
 30
0.0
 10
22.4509
 20
-22.7722
 30
0.0
 10
22.4509
 20
-22.7722
 30
0.0
 10
22.4509
 20
-22.6635
 30
0.0
 10
22.473
 20
-22.5685
 30
0.0
 10
22.5168
 20
-22.4867
 30
0.0
 10
22.5168
 20
-22.4867
 30
0.0
 10
22.56
 20
-22.4048
 30
0.0
 10
22.6231
 20
-22.3375
 30
0.0
 10
22.7054
 20
-22.2839
 30
0.0
 10
22.7054
 20
-22.2839
 30
0.0
 10
22.7877
 20
-22.2308
 30
0.0
 10
22.8879
 20
-22.1889
 30
0.0
 10
23.0059
 20
-22.1588
 30
0.0
 10
23.0059
 20
-22.1588
 30
0.0
 10
23.124
 20
-22.1282
 30
0.0
 10
23.283
 20
-22.1132
 30
0.0
 10
23.4834
 20
-22.1132
 30
0.0
 10
23.4834
 20
-22.1132
 30
0.0
 10
23.7204
 20
-22.1132
 30
0.0
 10
23.9114
 20
-22.1376
 30
0.0
 10
24.0572
 20
-22.1861
 30
0.0
 10
24.0572
 20
-22.1861
 30
0.0
 10
24.203
 20
-22.235
 30
0.0
 10
24.3154
 20
-22.3079
 30
0.0
 10
24.3949
 20
-22.4048
 30
0.0
 10
24.3949
 20
-22.4048
 30
0.0
 10
24.4744
 20
-22.5017
 30
0.0
 10
24.5139
 20
-22.624
 30
0.0
 10
24.5139
 20
-22.7722
 30
0.0
 10
24.5139
 20
-22.7722
 30
0.0
 10
24.5139
 20
-22.9669
 30
0.0
 10
24.4443
 20
-23.1198
 30
0.0
 10
24.3046
 20
-23.2308
 30
0.0
 10
24.3046
 20
-23.2308
 30
0.0
 10
24.1367
 20
-23.3639
 30
0.0
 10
23.8625
 20
-23.4307
 30
0.0
 10
23.4834
 20
-23.4307
 30
0.0
  0
SPLINE
  5
BD
330
1F
100
AcDbEntity
  8
DEFAULT_1
 62
   250
100
AcDbSpline
210
0.0
220
0.0
230
1.0
 70
    11
 71
     3
 72
    36
 73
    32
 74
     0
 42
0.0000000001
 43
0.0000000001
 40
0.0
 40
0.0
 40
0.0
 40
0.0
 40
0.1111111111111111
 40
0.1111111111111111
 40
0.1111111111111111
 40
0.1111111111111111
 40
0.2222222222222222
 40
0.2222222222222222
 40
0.2222222222222222
 40
0.2222222222222222
 40
0.3333333333333333
 40
0.3333333333333333
 40
0.3333333333333333
 40
0.3333333333333333
 40
0.4444444444444444
 40
0.4444444444444444
 40
0.4444444444444444
 40
0.4444444444444444
 40
0.5555555555555556
 40
0.5555555555555556
 40
0.5555555555555556
 40
0.5555555555555556
 40
0.6666666666666666
 40
0.6666666666666666
 40
0.6666666666666666
 40
0.6666666666666666
 40
0.7777777777777778
 40
0.7777777777777778
 40
0.7777777777777778
 40
0.7777777777777778
 40
1.0
 40
1.0
 40
1.0
 40
1.0
 10
23.4834
 20
-23.1757
 30
0.0
 10
23.815
 20
-23.1757
 30
0.0
 10
24.0356
 20
-23.1367
 30
0.0
 10
24.1456
 20
-23.0591
 30
0.0
 10
24.1456
 20
-23.0591
 30
0.0
 10
24.2552
 20
-22.9815
 30
0.0
 10
24.3103
 20
-22.886
 30
0.0
 10
24.3103
 20
-22.7722
 30
0.0
 10
24.3103
 20
-22.7722
 30
0.0
 10
24.3103
 20
-22.6579
 30
0.0
 10
24.2548
 20
-22.5624
 30
0.0
 10
24.1447
 20
-22.4848
 30
0.0
 10
24.1447
 20
-22.4848
 30
0.0
 10
24.0346
 20
-22.4072
 30
0.0
 10
23.814
 20
-22.3681
 30
0.0
 10
23.4834
 20
-22.3681
 30
0.0
 10
23.4834
 20
-22.3681
 30
0.0
 10
23.1508
 20
-22.3681
 30
0.0
 10
22.9297
 20
-22.4072
 30
0.0
 10
22.8206
 20
-22.4848
 30
0.0
 10
22.8206
 20
-22.4848
 30
0.0
 10
22.711
 20
-22.5624
 30
0.0
 10
22.6565
 20
-22.6588
 30
0.0
 10
22.6565
 20
-22.7745
 30
0.0
 10
22.6565
 20
-22.7745
 30
0.0
 10
22.6565
 20
-22.8888
 30
0.0
 10
22.7049
 20
-22.9796
 30
0.0
 10
22.8013
 20
-23.0478
 30
0.0
 10
22.8013
 20
-23.0478
 30
0.0
 10
22.9241
 20
-23.1329
 30
0.0
 10
23.1518
 20
-23.1757
 30
0.0
 10
23.4834
 20
-23.1757
 30
0.0
  0
SPLINE
  5
BE
330
1F
100
AcDbEntity
  8
DEFAULT_1
 62
   250
100
AcDbSpline
210
0.0
220
0.0
230
1.0
 70
    11
 71
     3
 72
    20
 73
    16
 74
     0
 42
0.0000000001
 43
0.0000000001
 40
0.0
 40
0.0
 40
0.0
 40
0.0
 40
0.2
 40
0.2
 40
0.2
 40
0.2
 40
0.4
 40
0.4
 40
0.4
 40
0.4
 40
0.6
 40
0.6
 40
0.6
 40
0.6
 40
1.0
 40
1.0
 40
1.0
 40
1.0
 10
24.8983
 20
-21.9926
 30
0.0
 10
24.8983
 20
-21.9926
 30
0.0
 10
25.3394
 20
-18.8676
 30
0.0
 10
25.3394
 20
-18.8676
 30
0.0
 10
25.3394
 20
-18.8676
 30
0.0
 10
25.3394
 20
-18.8676
 30
0.0
 10
25.4373
 20
-18.8676
 30
0.0
 10
25.4373
 20
-18.8676
 30
0.0
 10
25.4373
 20
-18.8676
 30
0.0
 10
25.4373
 20
-18.8676
 30
0.0
 10
25.9077
 20
-21.9926
 30
0.0
 10
25.9077
 20
-21.9926
 30
0.0
 10
25.9077
 20
-21.9926
 30
0.0
 10
25.9077
 20
-21.9926
 30
0.0
 10
24.8983
 20
-21.9926
 30
0.0
 10
24.8983
 20
-21.9926
 30
0.0
  0
SPLINE
  5
BF
330
1F
100
AcDbEntity
  8
DEFAULT_1
 62
   250
100
AcDbSpline
210
0.0
220
0.0
230
1.0
 70
    11
 71
     3
 72
    20
 73
    16
 74
     0
 42
0.0000000001
 43
0.0000000001
 40
0.0
 40
0.0
 40
0.0
 40
0.0
 40
0.2
 40
0.2
 40
0.2
 40
0.2
 40
0.4
 40
0.4
 40
0.4
 40
0.4
 40
0.6
 40
0.6
 40
0.6
 40
0.6
 40
1.0
 40
1.0
 40
1.0
 40
1.0
 10
25.867
 20
-27.3509
 30
0.0
 10
25.867
 20
-27.3509
 30
0.0
 10
25.426
 20
-30.4759
 30
0.0
 10
25.426
 20
-30.4759
 30
0.0
 10
25.426
 20
-30.4759
 30
0.0
 10
25.426
 20
-30.4759
 30
0.0
 10
25.328
 20
-30.4759
 30
0.0
 10
25.328
 20
-30.4759
 30
0.0
 10
25.328
 20
-30.4759
 30
0.0
 10
25.328
 20
-30.4759
 30
0.0
 10
24.8577
 20
-27.3509
 30
0.0
 10
24.8577
 20
-27.3509
 30
0.0
 10
24.8577
 20
-27.3509
 30
0.0
 10
24.8577
 20
-27.3509
 30
0.0
 10
25.867
 20
-27.3509
 30
0.0
 10
25.867
 20
-27.3509
 30
0.0
  0
SPLINE
  5
C0
330
1F
100
AcDbEntity
  8
DEFAULT_1
 62
   250
100
AcDbSpline
210
0.0
220
0.0
230
1.0
 70
    24
 71
     3
 72
     8
 73
     4
 74
     0
 42
0.0000000001
 43
0.0000000001
 40
0.0
 40
0.0
 40
0.0
 40
0.0
 40
1.0
 40
1.0
 40
1.0
 40
1.0
 10
14.9646
 20
32.3061
 30
0.0
 10
14.9646
 20
32.3061
 30
0.0
 10
-18.0388
 20
32.3061
 30
0.0
 10
-18.0388
 20
32.3061
 30
0.0
  0
SPLINE
  5
C1
330
1F
100
AcDbEntity
  8
DEFAULT_1
 62
   250
100
AcDbSpline
210
0.0
220
0.0
230
1.0
 70
    11
 71
     3
 72
    84
 73
    80
 74
     0
 42
0.0000000001
 43
0.0000000001
 40
0.0
 40
0.0
 40
0.0
 40
0.0
 40
0.0476190476190476
 40
0.0476190476190476
 40
0.0476190476190476
 40
0.0476190476190476
 40
0.0952380952380952
 40
0.0952380952380952
 40
0.0952380952380952
 40
0.0952380952380952
 40
0.1428571428571428
 40
0.1428571428571428
 40
0.1428571428571428
 40
0.1428571428571428
 40
0.1904761904761905
 40
0.1904761904761905
 40
0.1904761904761905
 40
0.1904761904761905
 40
0.2380952380952381
 40
0.2380952380952381
 40
0.2380952380952381
 40
0.2380952380952381
 40
0.2857142857142857
 40
0.2857142857142857
 40
0.2857142857142857
 40
0.2857142857142857
 40
0.3333333333333333
 40
0.3333333333333333
 40
0.3333333333333333
 40
0.3333333333333333
 40
0.3809523809523809
 40
0.3809523809523809
 40
0.3809523809523809
 40
0.3809523809523809
 40
0.4285714285714285
 40
0.4285714285714285
 40
0.4285714285714285
 40
0.4285714285714285
 40
0.4761904761904762
 40
0.4761904761904762
 40
0.4761904761904762
 40
0.4761904761904762
 40
0.5238095238095238
 40
0.5238095238095238
 40
0.5238095238095238
 40
0.5238095238095238
 40
0.5714285714285714
 40
0.5714285714285714
 40
0.5714285714285714
 40
0.5714285714285714
 40
0.6190476190476191
 40
0.6190476190476191
 40
0.6190476190476191
 40
0.6190476190476191
 40
0.6666666666666666
 40
0.6666666666666666
 40
0.6666666666666666
 40
0.6666666666666666
 40
0.7142857142857143
 40
0.7142857142857143
 40
0.7142857142857143
 40
0.7142857142857143
 40
0.7619047619047619
 40
0.7619047619047619
 40
0.7619047619047619
 40
0.7619047619047619
 40
0.8095238095238095
 40
0.8095238095238095
 40
0.8095238095238095
 40
0.8095238095238095
 40
0.8571428571428571
 40
0.8571428571428571
 40
0.8571428571428571
 40
0.8571428571428571
 40
0.9047619047619048
 40
0.9047619047619048
 40
0.9047619047619048
 40
0.9047619047619048
 40
1.0
 40
1.0
 40
1.0
 40
1.0
 10
-1.9787
 20
34.6479
 30
0.0
 10
-1.9787
 20
34.6479
 30
0.0
 10
-1.7473
 20
34.907
 30
0.0
 10
-1.7473
 20
34.907
 30
0.0
 10
-1.7473
 20
34.907
 30
0.0
 10
-1.7473
 20
34.907
 30
0.0
 10
-1.6109
 20
34.7913
 30
0.0
 10
-1.6109
 20
34.7913
 30
0.0
 10
-1.6109
 20
34.7913
 30
0.0
 10
-1.6109
 20
34.7913
 30
0.0
 10
-1.8531
 20
34.5185
 30
0.0
 10
-1.8531
 20
34.5185
 30
0.0
 10
-1.8531
 20
34.5185
 30
0.0
 10
-1.7741
 20
34.4009
 30
0.0
 10
-1.721
 20
34.2979
 30
0.0
 10
-1.6932
 20
34.21
 30
0.0
 10
-1.6932
 20
34.21
 30
0.0
 10
-1.6565
 20
34.0942
 30
0.0
 10
-1.6382
 20
33.9644
 30
0.0
 10
-1.6382
 20
33.8214
 30
0.0
 10
-1.6382
 20
33.8214
 30
0.0
 10
-1.6382
 20
33.6145
 30
0.0
 10
-1.68
 20
33.4301
 30
0.0
 10
-1.7638
 20
33.2688
 30
0.0
 10
-1.7638
 20
33.2688
 30
0.0
 10
-1.8475
 20
33.1069
 30
0.0
 10
-1.9646
 20
32.9847
 30
0.0
 10
-2.1156
 20
32.9019
 30
0.0
 10
-2.1156
 20
32.9019
 30
0.0
 10
-2.2671
 20
32.8196
 30
0.0
 10
-2.4274
 20
32.7782
 30
0.0
 10
-2.5972
 20
32.7782
 30
0.0
 10
-2.5972
 20
32.7782
 30
0.0
 10
-2.7242
 20
32.7782
 30
0.0
 10
-2.839
 20
32.796
 30
0.0
 10
-2.942
 20
32.8318
 30
0.0
 10
-2.942
 20
32.8318
 30
0.0
 10
-3.021
 20
32.8595
 30
0.0
 10
-3.1132
 20
32.9122
 30
0.0
 10
-3.2191
 20
32.9903
 30
0.0
 10
-3.2191
 20
32.9903
 30
0.0
 10
-3.2191
 20
32.9903
 30
0.0
 10
-3.4505
 20
32.7311
 30
0.0
 10
-3.4505
 20
32.7311
 30
0.0
 10
-3.4505
 20
32.7311
 30
0.0
 10
-3.4505
 20
32.7311
 30
0.0
 10
-3.5869
 20
32.8468
 30
0.0
 10
-3.5869
 20
32.8468
 30
0.0
 10
-3.5869
 20
32.8468
 30
0.0
 10
-3.5869
 20
32.8468
 30
0.0
 10
-3.3442
 20
33.1182
 30
0.0
 10
-3.3442
 20
33.1182
 30
0.0
 10
-3.3442
 20
33.1182
 30
0.0
 10
-3.4345
 20
33.2551
 30
0.0
 10
-3.4947
 20
33.3722
 30
0.0
 10
-3.5248
 20
33.4691
 30
0.0
 10
-3.5248
 20
33.4691
 30
0.0
 10
-3.5549
 20
33.566
 30
0.0
 10
-3.5704
 20
33.6827
 30
0.0
 10
-3.5704
 20
33.8186
 30
0.0
 10
-3.5704
 20
33.8186
 30
0.0
 10
-3.5704
 20
34.026
 30
0.0
 10
-3.529
 20
34.2109
 30
0.0
 10
-3.4463
 20
34.3732
 30
0.0
 10
-3.4463
 20
34.3732
 30
0.0
 10
-3.3635
 20
34.5355
 30
0.0
 10
-3.2478
 20
34.6582
 30
0.0
 10
-3.0982
 20
34.7419
 30
0.0
 10
-3.0982
 20
34.7419
 30
0.0
 10
-2.9491
 20
34.8252
 30
0.0
 10
-2.783
 20
34.8671
 30
0.0
 10
-2.6001
 20
34.8671
 30
0.0
 10
-2.6001
 20
34.8671
 30
0.0
 10
-2.4768
 20
34.8671
 30
0.0
 10
-2.3691
 20
34.8511
 30
0.0
 10
-2.2769
 20
34.8181
 30
0.0
 10
-2.2769
 20
34.8181
 30
0.0
 10
-2.1847
 20
34.7857
 30
0.0
 10
-2.085
 20
34.7288
 30
0.0
 10
-1.9787
 20
34.6479
 30
0.0
  0
SPLINE
  5
C2
330
1F
100
AcDbEntity
  8
DEFAULT_1
 62
   250
100
AcDbSpline
210
0.0
220
0.0
230
1.0
 70
    11
 71
     3
 72
    32
 73
    28
 74
     0
 42
0.0000000001
 43
0.0000000001
 40
0.0
 40
0.0
 40
0.0
 40
0.0
 40
0.125
 40
0.125
 40
0.125
 40
0.125
 40
0.25
 40
0.25
 40
0.25
 40
0.25
 40
0.375
 40
0.375
 40
0.375
 40
0.375
 40
0.5
 40
0.5
 40
0.5
 40
0.5
 40
0.625
 40
0.625
 40
0.625
 40
0.625
 40
0.75
 40
0.75
 40
0.75
 40
0.75
 40
1.0
 40
1.0
 40
1.0
 40
1.0
 10
-2.1438
 20
34.4621
 30
0.0
 10
-2.2304
 20
34.5298
 30
0.0
 10
-2.3061
 20
34.5764
 30
0.0
 10
-2.3705
 20
34.6013
 30
0.0
 10
-2.3705
 20
34.6013
 30
0.0
 10
-2.4354
 20
34.6258
 30
0.0
 10
-2.5116
 20
34.6385
 30
0.0
 10
-2.5987
 20
34.6385
 30
0.0
 10
-2.5987
 20
34.6385
 30
0.0
 10
-2.8
 20
34.6385
 30
0.0
 10
-2.966
 20
34.5703
 30
0.0
 10
-3.0977
 20
34.4339
 30
0.0
 10
-3.0977
 20
34.4339
 30
0.0
 10
-3.229
 20
34.2974
 30
0.0
 10
-3.2948
 20
34.0938
 30
0.0
 10
-3.2948
 20
33.8224
 30
0.0
 10
-3.2948
 20
33.8224
 30
0.0
 10
-3.2948
 20
33.7161
 30
0.0
 10
-3.2845
 20
33.6215
 30
0.0
 10
-3.2642
 20
33.5387
 30
0.0
 10
-3.2642
 20
33.5387
 30
0.0
 10
-3.2496
 20
33.4771
 30
0.0
 10
-3.2191
 20
33.4014
 30
0.0
 10
-3.172
 20
33.3116
 30
0.0
 10
-3.172
 20
33.3116
 30
0.0
 10
-3.172
 20
33.3116
 30
0.0
 10
-2.1438
 20
34.4621
 30
0.0
 10
-2.1438
 20
34.4621
 30
0.0
  0
SPLINE
  5
C3
330
1F
100
AcDbEntity
  8
DEFAULT_1
 62
   250
100
AcDbSpline
210
0.0
220
0.0
230
1.0
 70
    11
 71
     3
 72
    28
 73
    24
 74
     0
 42
0.0000000001
 43
0.0000000001
 40
0.0
 40
0.0
 40
0.0
 40
0.0
 40
0.1428571428571428
 40
0.1428571428571428
 40
0.1428571428571428
 40
0.1428571428571428
 40
0.2857142857142857
 40
0.2857142857142857
 40
0.2857142857142857
 40
0.2857142857142857
 40
0.4285714285714285
 40
0.4285714285714285
 40
0.4285714285714285
 40
0.4285714285714285
 40
0.5714285714285714
 40
0.5714285714285714
 40
0.5714285714285714
 40
0.5714285714285714
 40
0.7142857142857143
 40
0.7142857142857143
 40
0.7142857142857143
 40
0.7142857142857143
 40
1.0
 40
1.0
 40
1.0
 40
1.0
 10
-2.0309
 20
34.32
 30
0.0
 10
-2.0309
 20
34.32
 30
0.0
 10
-3.0549
 20
33.1737
 30
0.0
 10
-3.0549
 20
33.1737
 30
0.0
 10
-3.0549
 20
33.1737
 30
0.0
 10
-2.9844
 20
33.1159
 30
0.0
 10
-2.919
 20
33.0754
 30
0.0
 10
-2.8592
 20
33.0524
 30
0.0
 10
-2.8592
 20
33.0524
 30
0.0
 10
-2.7812
 20
33.0218
 30
0.0
 10
-2.6965
 20
33.0068
 30
0.0
 10
-2.6057
 20
33.0068
 30
0.0
 10
-2.6057
 20
33.0068
 30
0.0
 10
-2.4053
 20
33.0068
 30
0.0
 10
-2.2402
 20
33.0773
 30
0.0
 10
-2.1095
 20
33.2189
 30
0.0
 10
-2.1095
 20
33.2189
 30
0.0
 10
-1.9792
 20
33.3605
 30
0.0
 10
-1.9138
 20
33.559
 30
0.0
 10
-1.9138
 20
33.8144
 30
0.0
 10
-1.9138
 20
33.8144
 30
0.0
 10
-1.9138
 20
34.0053
 30
0.0
 10
-1.9528
 20
34.1742
 30
0.0
 10
-2.0309
 20
34.32
 30
0.0
  0
SPLINE
  5
C4
330
1F
100
AcDbEntity
  8
DEFAULT_1
 62
   250
100
AcDbSpline
210
0.0
220
0.0
230
1.0
 70
    11
 71
     3
 72
    40
 73
    36
 74
     0
 42
0.0000000001
 43
0.0000000001
 40
0.0
 40
0.0
 40
0.0
 40
0.0
 40
0.1
 40
0.1
 40
0.1
 40
0.1
 40
0.2
 40
0.2
 40
0.2
 40
0.2
 40
0.3
 40
0.3
 40
0.3
 40
0.3
 40
0.4
 40
0.4
 40
0.4
 40
0.4
 40
0.5
 40
0.5
 40
0.5
 40
0.5
 40
0.6
 40
0.6
 40
0.6
 40
0.6
 40
0.7
 40
0.7
 40
0.7
 40
0.7
 40
0.8
 40
0.8
 40
0.8
 40
0.8
 40
1.0
 40
1.0
 40
1.0
 40
1.0
 10
-0.4547
 20
32.8125
 30
0.0
 10
-0.4547
 20
32.8125
 30
0.0
 10
-0.7026
 20
32.8125
 30
0.0
 10
-0.7026
 20
32.8125
 30
0.0
 10
-0.7026
 20
32.8125
 30
0.0
 10
-0.7026
 20
32.8125
 30
0.0
 10
-0.7026
 20
34.3929
 30
0.0
 10
-0.7026
 20
34.3929
 30
0.0
 10
-0.7026
 20
34.3929
 30
0.0
 10
-0.7624
 20
34.336
 30
0.0
 10
-0.8404
 20
34.2791
 30
0.0
 10
-0.9373
 20
34.2222
 30
0.0
 10
-0.9373
 20
34.2222
 30
0.0
 10
-1.0347
 20
34.1653
 30
0.0
 10
-1.1217
 20
34.1225
 30
0.0
 10
-1.1989
 20
34.0942
 30
0.0
 10
-1.1989
 20
34.0942
 30
0.0
 10
-1.1989
 20
34.0942
 30
0.0
 10
-1.1989
 20
34.3337
 30
0.0
 10
-1.1989
 20
34.3337
 30
0.0
 10
-1.1989
 20
34.3337
 30
0.0
 10
-1.0601
 20
34.399
 30
0.0
 10
-0.9387
 20
34.4781
 30
0.0
 10
-0.8348
 20
34.5707
 30
0.0
 10
-0.8348
 20
34.5707
 30
0.0
 10
-0.7313
 20
34.6639
 30
0.0
 10
-0.6575
 20
34.7537
 30
0.0
 10
-0.6142
 20
34.8412
 30
0.0
 10
-0.6142
 20
34.8412
 30
0.0
 10
-0.6142
 20
34.8412
 30
0.0
 10
-0.4547
 20
34.8412
 30
0.0
 10
-0.4547
 20
34.8412
 30
0.0
 10
-0.4547
 20
34.8412
 30
0.0
 10
-0.4547
 20
34.8412
 30
0.0
 10
-0.4547
 20
32.8125
 30
0.0
 10
-0.4547
 20
32.8125
 30
0.0
  0
SPLINE
  5
C5
330
1F
100
AcDbEntity
  8
DEFAULT_1
 62
   250
100
AcDbSpline
210
0.0
220
0.0
230
1.0
 70
    11
 71
     3
 72
    40
 73
    36
 74
     0
 42
0.0000000001
 43
0.0000000001
 40
0.0
 40
0.0
 40
0.0
 40
0.0
 40
0.1
 40
0.1
 40
0.1
 40
0.1
 40
0.2
 40
0.2
 40
0.2
 40
0.2
 40
0.3
 40
0.3
 40
0.3
 40
0.3
 40
0.4
 40
0.4
 40
0.4
 40
0.4
 40
0.5
 40
0.5
 40
0.5
 40
0.5
 40
0.6
 40
0.6
 40
0.6
 40
0.6
 40
0.7
 40
0.7
 40
0.7
 40
0.7
 40
0.8
 40
0.8
 40
0.8
 40
0.8
 40
1.0
 40
1.0
 40
1.0
 40
1.0
 10
0.9056
 20
32.8125
 30
0.0
 10
0.9056
 20
32.8125
 30
0.0
 10
0.6577
 20
32.8125
 30
0.0
 10
0.6577
 20
32.8125
 30
0.0
 10
0.6577
 20
32.8125
 30
0.0
 10
0.6577
 20
32.8125
 30
0.0
 10
0.6577
 20
34.3929
 30
0.0
 10
0.6577
 20
34.3929
 30
0.0
 10
0.6577
 20
34.3929
 30
0.0
 10
0.5979
 20
34.336
 30
0.0
 10
0.5199
 20
34.2791
 30
0.0
 10
0.423
 20
34.2222
 30
0.0
 10
0.423
 20
34.2222
 30
0.0
 10
0.3256
 20
34.1653
 30
0.0
 10
0.2386
 20
34.1225
 30
0.0
 10
0.1614
 20
34.0942
 30
0.0
 10
0.1614
 20
34.0942
 30
0.0
 10
0.1614
 20
34.0942
 30
0.0
 10
0.1614
 20
34.3337
 30
0.0
 10
0.1614
 20
34.3337
 30
0.0
 10
0.1614
 20
34.3337
 30
0.0
 10
0.3002
 20
34.399
 30
0.0
 10
0.4216
 20
34.4781
 30
0.0
 10
0.5255
 20
34.5707
 30
0.0
 10
0.5255
 20
34.5707
 30
0.0
 10
0.629
 20
34.6639
 30
0.0
 10
0.7028
 20
34.7537
 30
0.0
 10
0.7461
 20
34.8412
 30
0.0
 10
0.7461
 20
34.8412
 30
0.0
 10
0.7461
 20
34.8412
 30
0.0
 10
0.9056
 20
34.8412
 30
0.0
 10
0.9056
 20
34.8412
 30
0.0
 10
0.9056
 20
34.8412
 30
0.0
 10
0.9056
 20
34.8412
 30
0.0
 10
0.9056
 20
32.8125
 30
0.0
 10
0.9056
 20
32.8125
 30
0.0
  0
SPLINE
  5
C6
330
1F
100
AcDbEntity
  8
DEFAULT_1
 62
   250
100
AcDbSpline
210
0.0
220
0.0
230
1.0
 70
    11
 71
     3
 72
    80
 73
    76
 74
     0
 42
0.0000000001
 43
0.0000000001
 40
0.0
 40
0.0
 40
0.0
 40
0.0
 40
0.05
 40
0.05
 40
0.05
 40
0.05
 40
0.1
 40
0.1
 40
0.1
 40
0.1
 40
0.15
 40
0.15
 40
0.15
 40
0.15
 40
0.2
 40
0.2
 40
0.2
 40
0.2
 40
0.25
 40
0.25
 40
0.25
 40
0.25
 40
0.3
 40
0.3
 40
0.3
 40
0.3
 40
0.35
 40
0.35
 40
0.35
 40
0.35
 40
0.4
 40
0.4
 40
0.4
 40
0.4
 40
0.45
 40
0.45
 40
0.45
 40
0.45
 40
0.5
 40
0.5
 40
0.5
 40
0.5
 40
0.55
 40
0.55
 40
0.55
 40
0.55
 40
0.6
 40
0.6
 40
0.6
 40
0.6
 40
0.65
 40
0.65
 40
0.65
 40
0.65
 40
0.7
 40
0.7
 40
0.7
 40
0.7
 40
0.75
 40
0.75
 40
0.75
 40
0.75
 40
0.8
 40
0.8
 40
0.8
 40
0.8
 40
0.85
 40
0.85
 40
0.85
 40
0.85
 40
0.9
 40
0.9
 40
0.9
 40
0.9
 40
1.0
 40
1.0
 40
1.0
 40
1.0
 10
2.8279
 20
34.3379
 30
0.0
 10
2.8279
 20
34.3379
 30
0.0
 10
2.5815
 20
34.3186
 30
0.0
 10
2.5815
 20
34.3186
 30
0.0
 10
2.5815
 20
34.3186
 30
0.0
 10
2.5594
 20
34.416
 30
0.0
 10
2.5283
 20
34.487
 30
0.0
 10
2.4879
 20
34.5307
 30
0.0
 10
2.4879
 20
34.5307
 30
0.0
 10
2.4206
 20
34.6018
 30
0.0
 10
2.3378
 20
34.6371
 30
0.0
 10
2.2395
 20
34.6371
 30
0.0
 10
2.2395
 20
34.6371
 30
0.0
 10
2.1605
 20
34.6371
 30
0.0
 10
2.0914
 20
34.6149
 30
0.0
 10
2.0316
 20
34.5707
 30
0.0
 10
2.0316
 20
34.5707
 30
0.0
 10
1.9535
 20
34.5138
 30
0.0
 10
1.8919
 20
34.4306
 30
0.0
 10
1.8468
 20
34.3214
 30
0.0
 10
1.8468
 20
34.3214
 30
0.0
 10
1.8021
 20
34.2123
 30
0.0
 10
1.7786
 20
34.0566
 30
0.0
 10
1.7767
 20
33.8544
 30
0.0
 10
1.7767
 20
33.8544
 30
0.0
 10
1.8364
 20
33.9451
 30
0.0
 10
1.9093
 20
34.0129
 30
0.0
 10
1.9959
 20
34.0571
 30
0.0
 10
1.9959
 20
34.0571
 30
0.0
 10
2.0819
 20
34.1008
 30
0.0
 10
2.1727
 20
34.1229
 30
0.0
 10
2.2673
 20
34.1229
 30
0.0
 10
2.2673
 20
34.1229
 30
0.0
 10
2.4328
 20
34.1229
 30
0.0
 10
2.5735
 20
34.0623
 30
0.0
 10
2.6897
 20
33.9404
 30
0.0
 10
2.6897
 20
33.9404
 30
0.0
 10
2.8058
 20
33.8186
 30
0.0
 10
2.8642
 20
33.6615
 30
0.0
 10
2.8642
 20
33.4687
 30
0.0
 10
2.8642
 20
33.4687
 30
0.0
 10
2.8642
 20
33.3417
 30
0.0
 10
2.8364
 20
33.2241
 30
0.0
 10
2.7818
 20
33.1149
 30
0.0
 10
2.7818
 20
33.1149
 30
0.0
 10
2.7273
 20
33.0063
 30
0.0
 10
2.652
 20
32.9226
 30
0.0
 10
2.5565
 20
32.8647
 30
0.0
 10
2.5565
 20
32.8647
 30
0.0
 10
2.4611
 20
32.8069
 30
0.0
 10
2.3529
 20
32.7782
 30
0.0
 10
2.2315
 20
32.7782
 30
0.0
 10
2.2315
 20
32.7782
 30
0.0
 10
2.0246
 20
32.7782
 30
0.0
 10
1.8562
 20
32.8539
 30
0.0
 10
1.7259
 20
33.0063
 30
0.0
 10
1.7259
 20
33.0063
 30
0.0
 10
1.5951
 20
33.1582
 30
0.0
 10
1.5302
 20
33.4089
 30
0.0
 10
1.5302
 20
33.7579
 30
0.0
 10
1.5302
 20
33.7579
 30
0.0
 10
1.5302
 20
34.1483
 30
0.0
 10
1.6022
 20
34.432
 30
0.0
 10
1.7466
 20
34.6093
 30
0.0
 10
1.7466
 20
34.6093
 30
0.0
 10
1.8722
 20
34.7636
 30
0.0
 10
2.0415
 20
34.8412
 30
0.0
 10
2.255
 20
34.8412
 30
0.0
 10
2.255
 20
34.8412
 30
0.0
 10
2.4136
 20
34.8412
 30
0.0
 10
2.5438
 20
34.7965
 30
0.0
 10
2.6454
 20
34.7071
 30
0.0
 10
2.6454
 20
34.7071
 30
0.0
 10
2.747
 20
34.6182
 30
0.0
 10
2.8077
 20
34.495
 30
0.0
 10
2.8279
 20
34.3379
 30
0.0
  0
SPLINE
  5
C7
330
1F
100
AcDbEntity
  8
DEFAULT_1
 62
   250
100
AcDbSpline
210
0.0
220
0.0
230
1.0
 70
    11
 71
     3
 72
    40
 73
    36
 74
     0
 42
0.0000000001
 43
0.0000000001
 40
0.0
 40
0.0
 40
0.0
 40
0.0
 40
0.1
 40
0.1
 40
0.1
 40
0.1
 40
0.2
 40
0.2
 40
0.2
 40
0.2
 40
0.3
 40
0.3
 40
0.3
 40
0.3
 40
0.4
 40
0.4
 40
0.4
 40
0.4
 40
0.5
 40
0.5
 40
0.5
 40
0.5
 40
0.6
 40
0.6
 40
0.6
 40
0.6
 40
0.7
 40
0.7
 40
0.7
 40
0.7
 40
0.8
 40
0.8
 40
0.8
 40
0.8
 40
1.0
 40
1.0
 40
1.0
 40
1.0
 10
1.8152
 20
33.4673
 30
0.0
 10
1.8152
 20
33.3816
 30
0.0
 10
1.8336
 20
33.2998
 30
0.0
 10
1.8698
 20
33.2217
 30
0.0
 10
1.8698
 20
33.2217
 30
0.0
 10
1.906
 20
33.1436
 30
0.0
 10
1.9568
 20
33.0844
 30
0.0
 10
2.0217
 20
33.0435
 30
0.0
 10
2.0217
 20
33.0435
 30
0.0
 10
2.0871
 20
33.0025
 30
0.0
 10
2.1558
 20
32.9818
 30
0.0
 10
2.2273
 20
32.9818
 30
0.0
 10
2.2273
 20
32.9818
 30
0.0
 10
2.3322
 20
32.9818
 30
0.0
 10
2.422
 20
33.0242
 30
0.0
 10
2.4973
 20
33.1088
 30
0.0
 10
2.4973
 20
33.1088
 30
0.0
 10
2.5725
 20
33.1935
 30
0.0
 10
2.6102
 20
33.3083
 30
0.0
 10
2.6102
 20
33.4531
 30
0.0
 10
2.6102
 20
33.4531
 30
0.0
 10
2.6102
 20
33.5928
 30
0.0
 10
2.573
 20
33.7029
 30
0.0
 10
2.4987
 20
33.7833
 30
0.0
 10
2.4987
 20
33.7833
 30
0.0
 10
2.4244
 20
33.8638
 30
0.0
 10
2.3308
 20
33.9038
 30
0.0
 10
2.2179
 20
33.9038
 30
0.0
 10
2.2179
 20
33.9038
 30
0.0
 10
2.1055
 20
33.9038
 30
0.0
 10
2.0104
 20
33.8638
 30
0.0
 10
1.9324
 20
33.7833
 30
0.0
 10
1.9324
 20
33.7833
 30
0.0
 10
1.8543
 20
33.7029
 30
0.0
 10
1.8152
 20
33.5975
 30
0.0
 10
1.8152
 20
33.4673
 30
0.0
  0
SPLINE
  5
C8
330
1F
100
AcDbEntity
  8
DEFAULT_1
 62
   250
100
AcDbSpline
210
0.0
220
0.0
230
1.0
 70
    11
 71
     3
 72
    20
 73
    16
 74
     0
 42
0.0000000001
 43
0.0000000001
 40
0.0
 40
0.0
 40
0.0
 40
0.0
 40
0.2
 40
0.2
 40
0.2
 40
0.2
 40
0.4
 40
0.4
 40
0.4
 40
0.4
 40
0.6
 40
0.6
 40
0.6
 40
0.6
 40
1.0
 40
1.0
 40
1.0
 40
1.0
 10
12.0749
 20
32.8487
 30
0.0
 10
12.0749
 20
32.8487
 30
0.0
 10
15.1999
 20
32.4077
 30
0.0
 10
15.1999
 20
32.4077
 30
0.0
 10
15.1999
 20
32.4077
 30
0.0
 10
15.1999
 20
32.4077
 30
0.0
 10
15.1999
 20
32.3097
 30
0.0
 10
15.1999
 20
32.3097
 30
0.0
 10
15.1999
 20
32.3097
 30
0.0
 10
15.1999
 20
32.3097
 30
0.0
 10
12.0749
 20
31.8393
 30
0.0
 10
12.0749
 20
31.8393
 30
0.0
 10
12.0749
 20
31.8393
 30
0.0
 10
12.0749
 20
31.8393
 30
0.0
 10
12.0749
 20
32.8487
 30
0.0
 10
12.0749
 20
32.8487
 30
0.0
  0
SPLINE
  5
C9
330
1F
100
AcDbEntity
  8
DEFAULT_1
 62
   250
100
AcDbSpline
210
0.0
220
0.0
230
1.0
 70
    11
 71
     3
 72
    20
 73
    16
 74
     0
 42
0.0000000001
 43
0.0000000001
 40
0.0
 40
0.0
 40
0.0
 40
0.0
 40
0.2
 40
0.2
 40
0.2
 40
0.2
 40
0.4
 40
0.4
 40
0.4
 40
0.4
 40
0.6
 40
0.6
 40
0.6
 40
0.6
 40
1.0
 40
1.0
 40
1.0
 40
1.0
 10
-15.215
 20
31.7937
 30
0.0
 10
-15.215
 20
31.7937
 30
0.0
 10
-18.3401
 20
32.2347
 30
0.0
 10
-18.3401
 20
32.2347
 30
0.0
 10
-18.3401
 20
32.2347
 30
0.0
 10
-18.3401
 20
32.2347
 30
0.0
 10
-18.3401
 20
32.3327
 30
0.0
 10
-18.3401
 20
32.3327
 30
0.0
 10
-18.3401
 20
32.3327
 30
0.0
 10
-18.3401
 20
32.3327
 30
0.0
 10
-15.215
 20
32.8031
 30
0.0
 10
-15.215
 20
32.8031
 30
0.0
 10
-15.215
 20
32.8031
 30
0.0
 10
-15.215
 20
32.8031
 30
0.0
 10
-15.215
 20
31.7937
 30
0.0
 10
-15.215
 20
31.7937
 30
0.0
  0
SPLINE
  5
CA
330
1F
100
AcDbEntity
  8
DEFAULT_1
 62
   250
100
AcDbSpline
210
0.0
220
0.0
230
1.0
 70
    24
 71
     3
 72
     8
 73
     4
 74
     0
 42
0.0000000001
 43
0.0000000001
 40
0.0
 40
0.0
 40
0.0
 40
0.0
 40
1.0
 40
1.0
 40
1.0
 40
1.0
 10
-14.0278
 20
-9.6169
 30
0.0
 10
-14.0278
 20
-9.6169
 30
0.0
 10
10.7743
 20
-8.9777
 30
0.0
 10
10.7743
 20
-8.9777
 30
0.0
  0
SPLINE
  5
CB
330
1F
100
AcDbEntity
  8
DEFAULT_1
 62
   250
100
AcDbSpline
210
0.0
220
0.0
230
1.0
 70
    24
 71
     3
 72
     8
 73
     4
 74
     0
 42
0.0000000001
 43
0.0000000001
 40
0.0
 40
0.0
 40
0.0
 40
0.0
 40
1.0
 40
1.0
 40
1.0
 40
1.0
 10
-13.9527
 20
-8.7145
 30
0.0
 10
-13.9527
 20
-8.7145
 30
0.0
 10
10.8494
 20
-8.0753
 30
0.0
 10
10.8494
 20
-8.0753
 30
0.0
  0
SPLINE
  5
CC
330
1F
100
AcDbEntity
  8
DEFAULT_1
 62
   250
100
AcDbSpline
210
0.0
220
0.0
230
1.0
 70
    24
 71
     3
 72
     8
 73
     4
 74
     0
 42
0.0000000001
 43
0.0000000001
 40
0.0
 40
0.0
 40
0.0
 40
0.0
 40
1.0
 40
1.0
 40
1.0
 40
1.0
 10
-14.0278
 20
-7.6128
 30
0.0
 10
-14.0278
 20
-7.6128
 30
0.0
 10
10.7743
 20
-6.9736
 30
0.0
 10
10.7743
 20
-6.9736
 30
0.0
  0
SPLINE
  5
CD
330
1F
100
AcDbEntity
  8
DEFAULT_1
 62
   250
100
AcDbSpline
210
0.0
220
0.0
230
1.0
 70
    24
 71
     3
 72
     8
 73
     4
 74
     0
 42
0.0000000001
 43
0.0000000001
 40
0.0
 40
0.0
 40
0.0
 40
0.0
 40
1.0
 40
1.0
 40
1.0
 40
1.0
 10
-13.9527
 20
-6.7104
 30
0.0
 10
-13.9527
 20
-6.7104
 30
0.0
 10
10.8494
 20
-6.0712
 30
0.0
 10
10.8494
 20
-6.0712
 30
0.0
  0
SPLINE
  5
CE
330
1F
100
AcDbEntity
  8
DEFAULT_1
 62
   250
100
AcDbSpline
210
0.0
220
0.0
230
1.0
 70
    24
 71
     3
 72
     8
 73
     4
 74
     0
 42
0.0000000001
 43
0.0000000001
 40
0.0
 40
0.0
 40
0.0
 40
0.0
 40
1.0
 40
1.0
 40
1.0
 40
1.0
 10
-14.0278
 20
-5.9359
 30
0.0
 10
-14.0278
 20
-5.9359
 30
0.0
 10
10.7743
 20
-5.2967
 30
0.0
 10
10.7743
 20
-5.2967
 30
0.0
  0
SPLINE
  5
CF
330
1F
100
AcDbEntity
  8
DEFAULT_1
 62
   250
100
AcDbSpline
210
0.0
220
0.0
230
1.0
 70
    24
 71
     3
 72
     8
 73
     4
 74
     0
 42
0.0000000001
 43
0.0000000001
 40
0.0
 40
0.0
 40
0.0
 40
0.0
 40
1.0
 40
1.0
 40
1.0
 40
1.0
 10
-13.9527
 20
-5.0335
 30
0.0
 10
-13.9527
 20
-5.0335
 30
0.0
 10
10.8494
 20
-4.3943
 30
0.0
 10
10.8494
 20
-4.3943
 30
0.0
  0
SPLINE
  5
D0
330
1F
100
AcDbEntity
  8
DEFAULT_1
 62
   250
100
AcDbSpline
210
0.0
220
0.0
230
1.0
 70
    24
 71
     3
 72
     8
 73
     4
 74
     0
 42
0.0000000001
 43
0.0000000001
 40
0.0
 40
0.0
 40
0.0
 40
0.0
 40
1.0
 40
1.0
 40
1.0
 40
1.0
 10
-18.2917
 20
26.3402
 30
0.0
 10
-18.2917
 20
26.3402
 30
0.0
 10
-18.3224
 20
25.9882
 30
0.0
 10
-18.3224
 20
25.9882
 30
0.0
  0
SPLINE
  5
D1
330
1F
100
AcDbEntity
  8
DEFAULT_1
 62
   250
100
AcDbSpline
210
0.0
220
0.0
230
1.0
 70
    24
 71
     3
 72
     8
 73
     4
 74
     0
 42
0.0000000001
 43
0.0000000001
 40
0.0
 40
0.0
 40
0.0
 40
0.0
 40
1.0
 40
1.0
 40
1.0
 40
1.0
 10
-12.9452
 20
22.7143
 30
0.0
 10
-12.9452
 20
22.7143
 30
0.0
 10
-12.9452
 20
23.8755
 30
0.0
 10
-12.9452
 20
23.8755
 30
0.0
  0
SPLINE
  5
D2
330
1F
100
AcDbEntity
  8
DEFAULT_1
 62
   250
100
AcDbSpline
210
0.0
220
0.0
230
1.0
 70
    24
 71
     3
 72
     8
 73
     4
 74
     0
 42
0.0000000001
 43
0.0000000001
 40
0.0
 40
0.0
 40
0.0
 40
0.0
 40
1.0
 40
1.0
 40
1.0
 40
1.0
 10
-8.4454
 20
3.1182
 30
0.0
 10
-8.4454
 20
3.1182
 30
0.0
 10
-8.6075
 20
21.6982
 30
0.0
 10
-8.6075
 20
21.6982
 30
0.0
  0
SPLINE
  5
D3
330
1F
100
AcDbEntity
  8
DEFAULT_1
 62
   250
100
AcDbSpline
210
0.0
220
0.0
230
1.0
 70
    24
 71
     3
 72
     8
 73
     4
 74
     0
 42
0.0000000001
 43
0.0000000001
 40
0.0
 40
0.0
 40
0.0
 40
0.0
 40
1.0
 40
1.0
 40
1.0
 40
1.0
 10
-12.9452
 20
22.7143
 30
0.0
 10
-12.9452
 20
22.7143
 30
0.0
 10
-12.673
 20
21.6982
 30
0.0
 10
-12.673
 20
21.6982
 30
0.0
  0
SPLINE
  5
D4
330
1F
100
AcDbEntity
  8
DEFAULT_1
 62
   250
100
AcDbSpline
210
0.0
220
0.0
230
1.0
 70
    24
 71
     3
 72
     8
 73
     4
 74
     0
 42
0.0000000001
 43
0.0000000001
 40
0.0
 40
0.0
 40
0.0
 40
0.0
 40
1.0
 40
1.0
 40
1.0
 40
1.0
 10
9.9895
 20
22.7143
 30
0.0
 10
9.9895
 20
22.7143
 30
0.0
 10
9.7172
 20
21.6982
 30
0.0
 10
9.7172
 20
21.6982
 30
0.0
  0
SPLINE
  5
D5
330
1F
100
AcDbEntity
  8
DEFAULT_1
 62
   250
100
AcDbSpline
210
0.0
220
0.0
230
1.0
 70
    24
 71
     3
 72
     8
 73
     4
 74
     0
 42
0.0000000001
 43
0.0000000001
 40
0.0
 40
0.0
 40
0.0
 40
0.0
 40
1.0
 40
1.0
 40
1.0
 40
1.0
 10
-8.4454
 20
3.1182
 30
0.0
 10
-8.4454
 20
3.1182
 30
0.0
 10
5.4897
 20
3.1182
 30
0.0
 10
5.4897
 20
3.1182
 30
0.0
  0
SPLINE
  5
D6
330
1F
100
AcDbEntity
  8
DEFAULT_1
 62
   250
100
AcDbSpline
210
0.0
220
0.0
230
1.0
 70
    24
 71
     3
 72
     8
 73
     4
 74
     0
 42
0.0000000001
 43
0.0000000001
 40
0.0
 40
0.0
 40
0.0
 40
0.0
 40
1.0
 40
1.0
 40
1.0
 40
1.0
 10
5.4897
 20
3.1182
 30
0.0
 10
5.4897
 20
3.1182
 30
0.0
 10
5.6518
 20
21.6982
 30
0.0
 10
5.6518
 20
21.6982
 30
0.0
  0
SPLINE
  5
D7
330
1F
100
AcDbEntity
  8
DEFAULT_1
 62
   250
100
AcDbSpline
210
0.0
220
0.0
230
1.0
 70
    24
 71
     3
 72
     8
 73
     4
 74
     0
 42
0.0000000001
 43
0.0000000001
 40
0.0
 40
0.0
 40
0.0
 40
0.0
 40
1.0
 40
1.0
 40
1.0
 40
1.0
 10
9.9895
 20
22.7143
 30
0.0
 10
9.9895
 20
22.7143
 30
0.0
 10
9.9895
 20
23.8755
 30
0.0
 10
9.9895
 20
23.8755
 30
0.0
  0
SPLINE
  5
D8
330
1F
100
AcDbEntity
  8
DEFAULT_1
 62
   250
100
AcDbSpline
210
0.0
220
0.0
230
1.0
 70
    24
 71
     3
 72
     8
 73
     4
 74
     0
 42
0.0000000001
 43
0.0000000001
 40
0.0
 40
0.0
 40
0.0
 40
0.0
 40
1.0
 40
1.0
 40
1.0
 40
1.0
 10
15.3359
 20
26.3402
 30
0.0
 10
15.3359
 20
26.3402
 30
0.0
 10
15.3667
 20
25.9882
 30
0.0
 10
15.3667
 20
25.9882
 30
0.0
  0
SPLINE
  5
D9
330
1F
100
AcDbEntity
  8
DEFAULT_1
 62
   250
100
AcDbSpline
210
0.0
220
0.0
230
1.0
 70
    24
 71
     3
 72
     8
 73
     4
 74
     0
 42
0.0000000001
 43
0.0000000001
 40
0.0
 40
0.0
 40
0.0
 40
0.0
 40
1.0
 40
1.0
 40
1.0
 40
1.0
 10
9.7172
 20
21.6982
 30
0.0
 10
9.7172
 20
21.6982
 30
0.0
 10
-12.673
 20
21.6982
 30
0.0
 10
-12.673
 20
21.6982
 30
0.0
  0
SPLINE
  5
DA
330
1F
100
AcDbEntity
  8
DEFAULT_1
 62
   250
100
AcDbSpline
210
0.0
220
0.0
230
1.0
 70
    24
 71
     3
 72
     8
 73
     4
 74
     0
 42
0.0000000001
 43
0.0000000001
 40
0.0
 40
0.0
 40
0.0
 40
0.0
 40
1.0
 40
1.0
 40
1.0
 40
1.0
 10
-12.9452
 20
22.7143
 30
0.0
 10
-12.9452
 20
22.7143
 30
0.0
 10
9.9895
 20
22.7143
 30
0.0
 10
9.9895
 20
22.7143
 30
0.0
  0
SPLINE
  5
DB
330
1F
100
AcDbEntity
  8
DEFAULT_1
 62
   250
100
AcDbSpline
210
0.0
220
0.0
230
1.0
 70
    24
 71
     3
 72
     8
 73
     4
 74
     0
 42
0.0000000001
 43
0.0000000001
 40
0.0
 40
0.0
 40
0.0
 40
0.0
 40
1.0
 40
1.0
 40
1.0
 40
1.0
 10
-12.9452
 20
23.8755
 30
0.0
 10
-12.9452
 20
23.8755
 30
0.0
 10
9.9895
 20
23.8755
 30
0.0
 10
9.9895
 20
23.8755
 30
0.0
  0
SPLINE
  5
DC
330
1F
100
AcDbEntity
  8
DEFAULT_1
 62
   250
100
AcDbSpline
210
0.0
220
0.0
230
1.0
 70
    24
 71
     3
 72
     8
 73
     4
 74
     0
 42
0.0000000001
 43
0.0000000001
 40
0.0
 40
0.0
 40
0.0
 40
0.0
 40
1.0
 40
1.0
 40
1.0
 40
1.0
 10
-14.8283
 20
24.1659
 30
0.0
 10
-14.8283
 20
24.1659
 30
0.0
 10
-4.385
 20
24.1659
 30
0.0
 10
-4.385
 20
24.1659
 30
0.0
  0
SPLINE
  5
DD
330
1F
100
AcDbEntity
  8
DEFAULT_1
 62
   250
100
AcDbSpline
210
0.0
220
0.0
230
1.0
 70
    24
 71
     3
 72
     8
 73
     4
 74
     0
 42
0.0000000001
 43
0.0000000001
 40
0.0
 40
0.0
 40
0.0
 40
0.0
 40
1.0
 40
1.0
 40
1.0
 40
1.0
 10
-3.5689
 20
24.1659
 30
0.0
 10
-3.5689
 20
24.1659
 30
0.0
 10
0.6132
 20
24.1659
 30
0.0
 10
0.6132
 20
24.1659
 30
0.0
  0
SPLINE
  5
DE
330
1F
100
AcDbEntity
  8
DEFAULT_1
 62
   250
100
AcDbSpline
210
0.0
220
0.0
230
1.0
 70
    24
 71
     3
 72
     8
 73
     4
 74
     0
 42
0.0000000001
 43
0.0000000001
 40
0.0
 40
0.0
 40
0.0
 40
0.0
 40
1.0
 40
1.0
 40
1.0
 40
1.0
 10
1.4293
 20
24.1659
 30
0.0
 10
1.4293
 20
24.1659
 30
0.0
 10
11.8725
 20
24.1659
 30
0.0
 10
11.8725
 20
24.1659
 30
0.0
  0
SPLINE
  5
DF
330
1F
100
AcDbEntity
  8
DEFAULT_1
 62
   250
100
AcDbSpline
210
0.0
220
0.0
230
1.0
 70
    24
 71
     3
 72
     8
 73
     4
 74
     0
 42
0.0000000001
 43
0.0000000001
 40
0.0
 40
0.0
 40
0.0
 40
0.0
 40
1.0
 40
1.0
 40
1.0
 40
1.0
 10
15.3667
 20
25.9882
 30
0.0
 10
15.3667
 20
25.9882
 30
0.0
 10
-18.3224
 20
25.9882
 30
0.0
 10
-18.3224
 20
25.9882
 30
0.0
  0
SPLINE
  5
E0
330
1F
100
AcDbEntity
  8
DEFAULT_1
 62
   250
100
AcDbSpline
210
0.0
220
0.0
230
1.0
 70
    24
 71
     3
 72
     8
 73
     4
 74
     0
 42
0.0000000001
 43
0.0000000001
 40
0.0
 40
0.0
 40
0.0
 40
0.0
 40
1.0
 40
1.0
 40
1.0
 40
1.0
 10
-17.5743
 20
27.1222
 30
0.0
 10
-17.5743
 20
27.1222
 30
0.0
 10
14.6185
 20
27.1222
 30
0.0
 10
14.6185
 20
27.1222
 30
0.0
  0
SPLINE
  5
E1
330
1F
100
AcDbEntity
  8
DEFAULT_1
 62
   250
100
AcDbSpline
210
0.0
220
0.0
230
1.0
 70
     8
 71
     3
 72
     8
 73
     4
 74
     0
 42
0.0000000001
 43
0.0000000001
 40
0.0
 40
0.0
 40
0.0
 40
0.0
 40
1.0
 40
1.0
 40
1.0
 40
1.0
 10
15.3359
 20
26.3402
 30
0.0
 10
15.3015
 20
26.7333
 30
0.0
 10
15.0072
 20
27.0541
 30
0.0
 10
14.6185
 20
27.1222
 30
0.0
  0
SPLINE
  5
E2
330
1F
100
AcDbEntity
  8
DEFAULT_1
 62
   250
100
AcDbSpline
210
0.0
220
0.0
230
1.0
 70
     8
 71
     3
 72
     8
 73
     4
 74
     0
 42
0.0000000001
 43
0.0000000001
 40
0.0
 40
0.0
 40
0.0
 40
0.0
 40
1.0
 40
1.0
 40
1.0
 40
1.0
 10
-17.5743
 20
27.1222
 30
0.0
 10
-17.9629
 20
27.0541
 30
0.0
 10
-18.2573
 20
26.7333
 30
0.0
 10
-18.2917
 20
26.3402
 30
0.0
  0
SPLINE
  5
E3
330
1F
100
AcDbEntity
  8
DEFAULT_1
 62
   250
100
AcDbSpline
210
0.0
220
0.0
230
1.0
 70
     8
 71
     3
 72
     8
 73
     4
 74
     0
 42
0.0000000001
 43
0.0000000001
 40
0.0
 40
0.0
 40
0.0
 40
0.0
 40
1.0
 40
1.0
 40
1.0
 40
1.0
 10
14.6185
 20
27.1222
 30
0.0
 10
3.9686
 20
28.9867
 30
0.0
 10
-6.9243
 20
28.9867
 30
0.0
 10
-17.5743
 20
27.1222
 30
0.0
  0
SPLINE
  5
E4
330
1F
100
AcDbEntity
  8
DEFAULT_1
 62
   250
100
AcDbSpline
210
0.0
220
0.0
230
1.0
 70
     8
 71
     3
 72
    12
 73
     8
 74
     0
 42
0.0000000001
 43
0.0000000001
 40
0.0
 40
0.0
 40
0.0
 40
0.0
 40
0.3333333333333333
 40
0.3333333333333333
 40
0.3333333333333333
 40
0.3333333333333333
 40
1.0
 40
1.0
 40
1.0
 40
1.0
 10
5.7821
 20
23.8755
 30
0.0
 10
5.686
 20
24.0543
 30
0.0
 10
5.4994
 20
24.1659
 30
0.0
 10
5.2965
 20
24.1659
 30
0.0
 10
5.2965
 20
24.1659
 30
0.0
 10
5.0935
 20
24.1659
 30
0.0
 10
4.9069
 20
24.0543
 30
0.0
 10
4.8108
 20
23.8755
 30
0.0
  0
SPLINE
  5
E5
330
1F
100
AcDbEntity
  8
DEFAULT_1
 62
   250
100
AcDbSpline
210
0.0
220
0.0
230
1.0
 70
     8
 71
     3
 72
    12
 73
     8
 74
     0
 42
0.0000000001
 43
0.0000000001
 40
0.0
 40
0.0
 40
0.0
 40
0.0
 40
0.3333333333333333
 40
0.3333333333333333
 40
0.3333333333333333
 40
0.3333333333333333
 40
1.0
 40
1.0
 40
1.0
 40
1.0
 10
-0.9923
 20
23.8755
 30
0.0
 10
-1.0884
 20
24.0543
 30
0.0
 10
-1.2749
 20
24.1659
 30
0.0
 10
-1.4779
 20
24.1659
 30
0.0
 10
-1.4779
 20
24.1659
 30
0.0
 10
-1.6808
 20
24.1659
 30
0.0
 10
-1.8674
 20
24.0543
 30
0.0
 10
-1.9634
 20
23.8755
 30
0.0
  0
SPLINE
  5
E6
330
1F
100
AcDbEntity
  8
DEFAULT_1
 62
   250
100
AcDbSpline
210
0.0
220
0.0
230
1.0
 70
     8
 71
     3
 72
    12
 73
     8
 74
     0
 42
0.0000000001
 43
0.0000000001
 40
0.0
 40
0.0
 40
0.0
 40
0.0
 40
0.3333333333333333
 40
0.3333333333333333
 40
0.3333333333333333
 40
0.3333333333333333
 40
1.0
 40
1.0
 40
1.0
 40
1.0
 10
-7.7666
 20
23.8755
 30
0.0
 10
-7.8626
 20
24.0543
 30
0.0
 10
-8.0492
 20
24.1659
 30
0.0
 10
-8.2522
 20
24.1659
 30
0.0
 10
-8.2522
 20
24.1659
 30
0.0
 10
-8.4551
 20
24.1659
 30
0.0
 10
-8.6417
 20
24.0543
 30
0.0
 10
-8.7378
 20
23.8755
 30
0.0
  0
SPLINE
  5
E7
330
1F
100
AcDbEntity
  8
DEFAULT_1
 62
   250
100
AcDbSpline
210
0.0
220
0.0
230
1.0
 70
     8
 71
     3
 72
    12
 73
     8
 74
     0
 42
0.0000000001
 43
0.0000000001
 40
0.0
 40
0.0
 40
0.0
 40
0.0
 40
0.3333333333333333
 40
0.3333333333333333
 40
0.3333333333333333
 40
0.3333333333333333
 40
1.0
 40
1.0
 40
1.0
 40
1.0
 10
-10.5726
 20
23.8755
 30
0.0
 10
-10.6687
 20
24.0543
 30
0.0
 10
-10.8552
 20
24.1659
 30
0.0
 10
-11.0582
 20
24.1659
 30
0.0
 10
-11.0582
 20
24.1659
 30
0.0
 10
-11.2612
 20
24.1659
 30
0.0
 10
-11.4477
 20
24.0543
 30
0.0
 10
-11.5438
 20
23.8755
 30
0.0
  0
SPLINE
  5
E8
330
1F
100
AcDbEntity
  8
DEFAULT_1
 62
   250
100
AcDbSpline
210
0.0
220
0.0
230
1.0
 70
     8
 71
     3
 72
    12
 73
     8
 74
     0
 42
0.0000000001
 43
0.0000000001
 40
0.0
 40
0.0
 40
0.0
 40
0.0
 40
0.3333333333333333
 40
0.3333333333333333
 40
0.3333333333333333
 40
0.3333333333333333
 40
1.0
 40
1.0
 40
1.0
 40
1.0
 10
8.5881
 20
23.8755
 30
0.0
 10
8.492
 20
24.0543
 30
0.0
 10
8.3055
 20
24.1659
 30
0.0
 10
8.1025
 20
24.1659
 30
0.0
 10
8.1025
 20
24.1659
 30
0.0
 10
7.8995
 20
24.1659
 30
0.0
 10
7.7129
 20
24.0543
 30
0.0
 10
7.6169
 20
23.8755
 30
0.0
  0
SPLINE
  5
E9
330
1F
100
AcDbEntity
  8
DEFAULT_1
 62
   250
100
AcDbSpline
210
0.0
220
0.0
230
1.0
 70
     8
 71
     3
 72
    16
 73
    12
 74
     0
 42
0.0000000001
 43
0.0000000001
 40
0.0
 40
0.0
 40
0.0
 40
0.0
 40
0.25
 40
0.25
 40
0.25
 40
0.25
 40
0.5
 40
0.5
 40
0.5
 40
0.5
 40
1.0
 40
1.0
 40
1.0
 40
1.0
 10
10.4001
 20
25.9882
 30
0.0
 10
10.4001
 20
25.9882
 30
0.0
 10
10.3813
 20
25.7641
 30
0.0
 10
10.3813
 20
25.7641
 30
0.0
 10
10.3813
 20
25.7641
 30
0.0
 10
10.3813
 20
25.7641
 30
0.0
 10
10.3139
 20
24.9639
 30
0.0
 10
10.3139
 20
24.9639
 30
0.0
 10
10.3139
 20
24.9639
 30
0.0
 10
10.3139
 20
24.9639
 30
0.0
 10
10.2468
 20
24.1659
 30
0.0
 10
10.2468
 20
24.1659
 30
0.0
  0
SPLINE
  5
EA
330
1F
100
AcDbEntity
  8
DEFAULT_1
 62
   250
100
AcDbSpline
210
0.0
220
0.0
230
1.0
 70
     8
 71
     3
 72
    16
 73
    12
 74
     0
 42
0.0000000001
 43
0.0000000001
 40
0.0
 40
0.0
 40
0.0
 40
0.0
 40
0.25
 40
0.25
 40
0.25
 40
0.25
 40
0.5
 40
0.5
 40
0.5
 40
0.5
 40
1.0
 40
1.0
 40
1.0
 40
1.0
 10
5.5864
 20
25.9882
 30
0.0
 10
5.5864
 20
25.9882
 30
0.0
 10
5.5732
 20
25.7641
 30
0.0
 10
5.5732
 20
25.7641
 30
0.0
 10
5.5732
 20
25.7641
 30
0.0
 10
5.5732
 20
25.7641
 30
0.0
 10
5.5263
 20
24.9639
 30
0.0
 10
5.5263
 20
24.9639
 30
0.0
 10
5.5263
 20
24.9639
 30
0.0
 10
5.5263
 20
24.9639
 30
0.0
 10
5.4795
 20
24.1659
 30
0.0
 10
5.4795
 20
24.1659
 30
0.0
  0
SPLINE
  5
EB
330
1F
100
AcDbEntity
  8
DEFAULT_1
 62
   250
100
AcDbSpline
210
0.0
220
0.0
230
1.0
 70
     8
 71
     3
 72
    16
 73
    12
 74
     0
 42
0.0000000001
 43
0.0000000001
 40
0.0
 40
0.0
 40
0.0
 40
0.0
 40
0.25
 40
0.25
 40
0.25
 40
0.25
 40
0.5
 40
0.5
 40
0.5
 40
0.5
 40
1.0
 40
1.0
 40
1.0
 40
1.0
 10
-13.3559
 20
25.9882
 30
0.0
 10
-13.3559
 20
25.9882
 30
0.0
 10
-13.337
 20
25.7641
 30
0.0
 10
-13.337
 20
25.7641
 30
0.0
 10
-13.337
 20
25.7641
 30
0.0
 10
-13.337
 20
25.7641
 30
0.0
 10
-13.2697
 20
24.9639
 30
0.0
 10
-13.2697
 20
24.9639
 30
0.0
 10
-13.2697
 20
24.9639
 30
0.0
 10
-13.2697
 20
24.9639
 30
0.0
 10
-13.2025
 20
24.1659
 30
0.0
 10
-13.2025
 20
24.1659
 30
0.0
  0
SPLINE
  5
EC
330
1F
100
AcDbEntity
  8
DEFAULT_1
 62
   250
100
AcDbSpline
210
0.0
220
0.0
230
1.0
 70
     8
 71
     3
 72
    12
 73
     8
 74
     0
 42
0.0000000001
 43
0.0000000001
 40
0.0
 40
0.0
 40
0.0
 40
0.0
 40
0.3333333333333333
 40
0.3333333333333333
 40
0.3333333333333333
 40
0.3333333333333333
 40
1.0
 40
1.0
 40
1.0
 40
1.0
 10
0.5045
 20
25.9882
 30
0.0
 10
0.5045
 20
25.9882
 30
0.0
 10
0.5276
 20
25.6023
 30
0.0
 10
0.5276
 20
25.6023
 30
0.0
 10
0.5276
 20
25.6023
 30
0.0
 10
0.5276
 20
25.6023
 30
0.0
 10
0.6305
 20
23.8755
 30
0.0
 10
0.6305
 20
23.8755
 30
0.0
  0
SPLINE
  5
ED
330
1F
100
AcDbEntity
  8
DEFAULT_1
 62
   250
100
AcDbSpline
210
0.0
220
0.0
230
1.0
 70
     8
 71
     3
 72
    12
 73
     8
 74
     0
 42
0.0000000001
 43
0.0000000001
 40
0.0
 40
0.0
 40
0.0
 40
0.0
 40
0.3333333333333333
 40
0.3333333333333333
 40
0.3333333333333333
 40
0.3333333333333333
 40
1.0
 40
1.0
 40
1.0
 40
1.0
 10
-3.4603
 20
25.9882
 30
0.0
 10
-3.4603
 20
25.9882
 30
0.0
 10
-3.4833
 20
25.6023
 30
0.0
 10
-3.4833
 20
25.6023
 30
0.0
 10
-3.4833
 20
25.6023
 30
0.0
 10
-3.4833
 20
25.6023
 30
0.0
 10
-3.5862
 20
23.8755
 30
0.0
 10
-3.5862
 20
23.8755
 30
0.0
  0
SPLINE
  5
EE
330
1F
100
AcDbEntity
  8
DEFAULT_1
 62
   250
100
AcDbSpline
210
0.0
220
0.0
230
1.0
 70
     8
 71
     3
 72
    16
 73
    12
 74
     0
 42
0.0000000001
 43
0.0000000001
 40
0.0
 40
0.0
 40
0.0
 40
0.0
 40
0.25
 40
0.25
 40
0.25
 40
0.25
 40
0.5
 40
0.5
 40
0.5
 40
0.5
 40
1.0
 40
1.0
 40
1.0
 40
1.0
 10
-8.5421
 20
25.9882
 30
0.0
 10
-8.5421
 20
25.9882
 30
0.0
 10
-8.529
 20
25.7641
 30
0.0
 10
-8.529
 20
25.7641
 30
0.0
 10
-8.529
 20
25.7641
 30
0.0
 10
-8.529
 20
25.7641
 30
0.0
 10
-8.482
 20
24.9639
 30
0.0
 10
-8.482
 20
24.9639
 30
0.0
 10
-8.482
 20
24.9639
 30
0.0
 10
-8.482
 20
24.9639
 30
0.0
 10
-8.4352
 20
24.1659
 30
0.0
 10
-8.4352
 20
24.1659
 30
0.0
  0
SPLINE
  5
EF
330
1F
100
AcDbEntity
  8
DEFAULT_1
 62
   250
100
AcDbSpline
210
0.0
220
0.0
230
1.0
 70
     8
 71
     3
 72
    16
 73
    12
 74
     0
 42
0.0000000001
 43
0.0000000001
 40
0.0
 40
0.0
 40
0.0
 40
0.0
 40
0.25
 40
0.25
 40
0.25
 40
0.25
 40
0.5
 40
0.5
 40
0.5
 40
0.5
 40
1.0
 40
1.0
 40
1.0
 40
1.0
 10
-14.987
 20
25.9882
 30
0.0
 10
-14.987
 20
25.9882
 30
0.0
 10
-14.9675
 20
25.7641
 30
0.0
 10
-14.9675
 20
25.7641
 30
0.0
 10
-14.9675
 20
25.7641
 30
0.0
 10
-14.9675
 20
25.7641
 30
0.0
 10
-14.8978
 20
24.9639
 30
0.0
 10
-14.8978
 20
24.9639
 30
0.0
 10
-14.8978
 20
24.9639
 30
0.0
 10
-14.8978
 20
24.9639
 30
0.0
 10
-14.8283
 20
24.1659
 30
0.0
 10
-14.8283
 20
24.1659
 30
0.0
  0
SPLINE
  5
F0
330
1F
100
AcDbEntity
  8
DEFAULT_1
 62
   250
100
AcDbSpline
210
0.0
220
0.0
230
1.0
 70
     8
 71
     3
 72
    12
 73
     8
 74
     0
 42
0.0000000001
 43
0.0000000001
 40
0.0
 40
0.0
 40
0.0
 40
0.0
 40
0.3333333333333333
 40
0.3333333333333333
 40
0.3333333333333333
 40
0.3333333333333333
 40
1.0
 40
1.0
 40
1.0
 40
1.0
 10
-2.2263
 20
25.9882
 30
0.0
 10
-2.2263
 20
25.9882
 30
0.0
 10
-2.2096
 20
25.1296
 30
0.0
 10
-2.2096
 20
25.1296
 30
0.0
 10
-2.2096
 20
25.1296
 30
0.0
 10
-2.2096
 20
25.1296
 30
0.0
 10
-2.1908
 20
24.1659
 30
0.0
 10
-2.1908
 20
24.1659
 30
0.0
  0
SPLINE
  5
F1
330
1F
100
AcDbEntity
  8
DEFAULT_1
 62
   250
100
AcDbSpline
210
0.0
220
0.0
230
1.0
 70
     8
 71
     3
 72
    12
 73
     8
 74
     0
 42
0.0000000001
 43
0.0000000001
 40
0.0
 40
0.0
 40
0.0
 40
0.0
 40
0.3333333333333333
 40
0.3333333333333333
 40
0.3333333333333333
 40
0.3333333333333333
 40
1.0
 40
1.0
 40
1.0
 40
1.0
 10
-0.7649
 20
24.1659
 30
0.0
 10
-0.7649
 20
24.1659
 30
0.0
 10
-0.7461
 20
25.1296
 30
0.0
 10
-0.7461
 20
25.1296
 30
0.0
 10
-0.7461
 20
25.1296
 30
0.0
 10
-0.7461
 20
25.1296
 30
0.0
 10
-0.7294
 20
25.9882
 30
0.0
 10
-0.7294
 20
25.9882
 30
0.0
  0
SPLINE
  5
F2
330
1F
100
AcDbEntity
  8
DEFAULT_1
 62
   250
100
AcDbSpline
210
0.0
220
0.0
230
1.0
 70
     8
 71
     3
 72
    16
 73
    12
 74
     0
 42
0.0000000001
 43
0.0000000001
 40
0.0
 40
0.0
 40
0.0
 40
0.0
 40
0.25
 40
0.25
 40
0.25
 40
0.25
 40
0.5
 40
0.5
 40
0.5
 40
0.5
 40
1.0
 40
1.0
 40
1.0
 40
1.0
 10
12.0312
 20
25.9882
 30
0.0
 10
12.0312
 20
25.9882
 30
0.0
 10
12.0117
 20
25.7641
 30
0.0
 10
12.0117
 20
25.7641
 30
0.0
 10
12.0117
 20
25.7641
 30
0.0
 10
12.0117
 20
25.7641
 30
0.0
 10
11.942
 20
24.9639
 30
0.0
 10
11.942
 20
24.9639
 30
0.0
 10
11.942
 20
24.9639
 30
0.0
 10
11.942
 20
24.9639
 30
0.0
 10
11.8725
 20
24.1659
 30
0.0
 10
11.8725
 20
24.1659
 30
0.0
  0
SPLINE
  5
F3
330
1F
100
AcDbEntity
  8
DEFAULT_1
 62
   250
100
AcDbSpline
210
0.0
220
0.0
230
1.0
 70
    24
 71
     3
 72
     8
 73
     4
 74
     0
 42
0.0000000001
 43
0.0000000001
 40
0.0
 40
0.0
 40
0.0
 40
0.0
 40
1.0
 40
1.0
 40
1.0
 40
1.0
 10
1.4293
 20
24.1659
 30
0.0
 10
1.4293
 20
24.1659
 30
0.0
 10
1.4338
 20
23.8755
 30
0.0
 10
1.4338
 20
23.8755
 30
0.0
  0
SPLINE
  5
F4
330
1F
100
AcDbEntity
  8
DEFAULT_1
 62
   250
100
AcDbSpline
210
0.0
220
0.0
230
1.0
 70
    24
 71
     3
 72
     8
 73
     4
 74
     0
 42
0.0000000001
 43
0.0000000001
 40
0.0
 40
0.0
 40
0.0
 40
0.0
 40
1.0
 40
1.0
 40
1.0
 40
1.0
 10
-4.385
 20
24.1659
 30
0.0
 10
-4.385
 20
24.1659
 30
0.0
 10
-4.3895
 20
23.8755
 30
0.0
 10
-4.3895
 20
23.8755
 30
0.0
  0
ENDSEC
  0
SECTION
  2
OBJECTS
  0
DICTIONARY
  5
C
330
0
100
AcDbDictionary
  3
ACAD_GROUP
350
D
  3
ACAD_LAYOUT
350
1A
  3
ACAD_MATERIAL
350
3B
  3
ACAD_MLEADERSTYLE
350
117
  3
ACAD_MLINESTYLE
350
17
  3
ACAD_PLOTSETTINGS
350
19
  3
ACAD_VISUALSTYLE
350
2A
  3
ACDBHEADERROUNDTRIPXREC
350
F5
  3
ACDBVARIABLEDICTIONARY
350
115
  0
DICTIONARY
  5
D
102
{ACAD_REACTORS
330
C
102
}
330
C
100
AcDbDictionary
  0
DICTIONARY
  5
1A
102
{ACAD_REACTORS
330
C
102
}
330
C
100
AcDbDictionary
  0
DICTIONARY
  5
3B
102
{ACAD_REACTORS
330
C
102
}
330
C
100
AcDbDictionary
  3
BYBLOCK
350
3D
  3
BYLAYER
350
3C
  3
GLOBAL
350
3E
  0
DICTIONARY
  5
117
102
{ACAD_REACTORS
330
C
102
}
330
C
100
AcDbDictionary
  0
DICTIONARY
  5
17
102
{ACAD_REACTORS
330
C
102
}
330
C
100
AcDbDictionary
  3
STANDARD
350
18
  0
DICTIONARY
  5
19
102
{ACAD_REACTORS
330
C
102
}
330
C
100
AcDbDictionary
  0
DICTIONARY
  5
2A
102
{ACAD_REACTORS
330
C
102
}
330
C
100
AcDbDictionary
  3
2DWIREFRAME
350
2F
  3
3D_HIDDEN
350
31
  3
3DWIREFRAME
350
30
  3
BASIC
350
32
  3
BRIGHTEN
350
36
  3
COLORCHANGE
350
3A
  3
CONCEPTUAL
350
34
  3
DIM
350
35
  3
FACEPATTERN
350
39
  3
FLAT
350
2B
  3
FLATWITHEDGES
350
2C
  3
GOURAUD
350
2D
  3
GOURAUDWITHEDGES
350
2E
  3
LINEPATTERN
350
38
  3
REALISTIC
350
33
  3
THICKEN
350
37
  0
DICTIONARY
  5
F5
102
{ACAD_REACTORS
330
C
102
}
330
C
100
AcDbDictionary
  3
CEPSNTYPE
350
FE
  3
DIMSTYLEDATA
350
114
  3
FINGERPRINTGUID
350
FF
  3
HYPERLINKBASE
350
F8
  3
INSUNITS
350
FD
  3
LAYOUTDICT
350
FA
  3
LWETCUNION
350
FC
  3
PLOTSETDICT
350
FB
  3
PSVPSCALE
350
101
  3
PUCSBASE
350
104
  3
PUCSORGBACK
350
10A
  3
PUCSORGBOTTOM
350
106
  3
PUCSORGFRONT
350
109
  3
PUCSORGLEFT
350
107
  3
PUCSORGRIGHT
350
108
  3
PUCSORGTOP
350
105
  3
PUCSORTHOREF
350
102
  3
PUCSORTHOVIEW
350
103
  3
STYLESHEET
350
F9
  3
TSTACKALIGN
350
F6
  3
TSTACKSIZE
350
F7
  3
UCSBASE
350
10D
  3
UCSORGBACK
350
113
  3
UCSORGBOTTOM
350
10F
  3
UCSORGFRONT
350
112
  3
UCSORGLEFT
350
110
  3
UCSORGRIGHT
350
111
  3
UCSORGTOP
350
10E
  3
UCSORTHOREF
350
10B
  3
UCSORTHOVIEW
350
10C
  3
VERSIONGUID
350
100
  0
DICTIONARY
  5
115
102
{ACAD_REACTORS
330
C
102
}
330
C
100
AcDbDictionary
  3
DIMASSOC
350
118
  3
HIDETEXT
350
119
  0
MATERIAL
  5
3D
102
{ACAD_REACTORS
330
3B
102
}
102
{ACAD_XDICTIONARY
360
11C
102
}
330
3B
100
AcDbMaterial
  1
ByBlock
  0
MATERIAL
  5
3C
102
{ACAD_REACTORS
330
3B
102
}
102
{ACAD_XDICTIONARY
360
11A
102
}
330
3B
100
AcDbMaterial
  1
ByLayer
  0
MATERIAL
  5
3E
102
{ACAD_REACTORS
330
3B
102
}
102
{ACAD_XDICTIONARY
360
11E
102
}
330
3B
100
AcDbMaterial
  1
Global
  0
MLINESTYLE
  5
18
102
{ACAD_REACTORS
330
17
102
}
330
17
100
AcDbMlineStyle
  2
Standard
 70
     0
  3

 62
   256
 51
90.0
 52
90.0
 71
     2
 49
0.5
 62
   256
  6
BYLAYER
 49
-0.5
 62
   256
  6
BYLAYER
  0
ACAD_PROXY_OBJECT
  5
2F
102
{ACAD_REACTORS
330
2A
102
}
330
2A
100
AcDbProxyObject
 90
      499
 91
      501
 93
      436
310
42CC9915DA5C99599C985B595049028333333333333E3BF0000000000000FB0107901411070040501600405405064090741402480A0340
1001
ACAD
1000
AcDbSavedByObjectVersion
1070
     0
  0
ACAD_PROXY_OBJECT
  5
31
102
{ACAD_REACTORS
330
2A
102
}
330
2A
100
AcDbProxyObject
 90
      499
 91
      501
 93
      500
310
424CD108121A5919195B90640502408333333333333E3BF0000000000000FB01079024090700405020000000000001110200405405064090740C02480A0340
1001
ACAD
1000
AcDbSavedByObjectVersion
1070
     0
  0
ACAD_PROXY_OBJECT
  5
30
102
{ACAD_REACTORS
330
2A
102
}
330
2A
100
AcDbProxyObject
 90
      499
 91
      501
 93
      436
310
42CCD915DA5C99599C985B595059028333333333333E3BF0000000000000FB0107901411070040501600405405064090741402480A0340
1001
ACAD
1000
AcDbSavedByObjectVersion
1070
     0
  0
ACAD_PROXY_OBJECT
  5
32
102
{ACAD_REACTORS
330
2A
102
}
330
2A
100
AcDbProxyObject
 90
      499
 91
      501
 93
      388
310
4150985CDA58D07406404333333333333E3BF0000000000000FB0107A41107004050150841D405064090741402480A0350
1001
ACAD
1000
AcDbSavedByObjectVersion
1070
     0
  0
ACAD_PROXY_OBJECT
  5
36
102
{ACAD_REACTORS
330
2A
102
}
330
2A
100
AcDbProxyObject
 90
      499
 91
      501
 93
      428
310
42109C9A59DA1D195B90C409028333333333333E3BF0000000000000FB010790141107004050150841D405064090741402480A029950
1001
ACAD
1000
AcDbSavedByObjectVersion
1070
     0
  0
ACAD_PROXY_OBJECT
  5
3A
102
{ACAD_REACTORS
330
2A
102
}
330
2A
100
AcDbProxyObject
 90
      499
 91
      501
 93
      452
310
42D0DBDB1BDC90DA185B99D95104090240C333333333333E3BF0000000000000FB0108901411070040501508421405064090741402480A0350
1001
ACAD
1000
AcDbSavedByObjectVersion
1070
     0
  0
ACAD_PROXY_OBJECT
  5
34
102
{ACAD_REACTORS
330
2A
102
}
330
2A
100
AcDbProxyObject
 90
      499
 91
      501
 93
      500
310
4290DBDB98D95C1D1D585B10940D028333333333333E3BF0000000000000FB0107902409070040501000000000000111010841D405064090740C02480A0340
1001
ACAD
1000
AcDbSavedByObjectVersion
1070
     0
  0
ACAD_PROXY_OBJECT
  5
35
102
{ACAD_REACTORS
330
2A
102
}
330
2A
100
AcDbProxyObject
 90
      499
 91
      501
 93
      412
310
40D11A5B50B409028333333333333E3BF0000000000000FB010790141107004050150841D405064090741402480A02677FFFFFD0
1001
ACAD
1000
AcDbSavedByObjectVersion
1070
     0
  0
ACAD_PROXY_OBJECT
  5
39
102
{ACAD_REACTORS
330
2A
102
}
330
2A
100
AcDbProxyObject
 90
      499
 91
      501
 93
      444
310
42D19858D95C185D1D195C9B90F409028333333333333E3BF0000000000000FB010790141107004050150841D405064090741402480A0350
1001
ACAD
1000
AcDbSavedByObjectVersion
1070
     0
  0
ACAD_PROXY_OBJECT
  5
2B
102
{ACAD_REACTORS
330
2A
102
}
330
2A
100
AcDbProxyObject
 90
      499
 91
      501
 93
      388
310
41119B185D240901404333333333333E3BF0000000000000F9010740A41107004050150841D405064090741402480A1B50
1001
ACAD
1000
AcDbSavedByObjectVersion
1070
     0
  0
ACAD_PROXY_OBJECT
  5
2C
102
{ACAD_REACTORS
330
2A
102
}
330
2A
100
AcDbProxyObject
 90
      499
 91
      501
 93
      476
310
43519B185D15DA5D1A115919D95CD0140901404333333333333E3BF0000000000000F9010740901411070040501600405405064090741402480A1B50
1001
ACAD
1000
AcDbSavedByObjectVersion
1070
     0
  0
ACAD_PROXY_OBJECT
  5
2D
102
{ACAD_REACTORS
330
2A
102
}
330
2A
100
AcDbProxyObject
 90
      499
 91
      501
 93
      412
310
41D1DBDD5C985D5910240902404333333333333E3BF0000000000000F9010740A411070040501641D405064090741402480A1B50
1001
ACAD
1000
AcDbSavedByObjectVersion
1070
     0
  0
ACAD_PROXY_OBJECT
  5
2E
102
{ACAD_REACTORS
330
2A
102
}
330
2A
100
AcDbProxyObject
 90
      499
 91
      501
 93
      500
310
4411DBDD5C985D5915DA5D1A115919D95CD0340902404333333333333E3BF0000000000000F9010740901411070040501600405405064090741402480A1B50
1001
ACAD
1000
AcDbSavedByObjectVersion
1070
     0
  0
ACAD_PROXY_OBJECT
  5
38
102
{ACAD_REACTORS
330
2A
102
}
330
2A
100
AcDbProxyObject
 90
      499
 91
      501
 93
      444
310
42D31A5B995C185D1D195C9B90E409028333333333333E3BF0000000000000FB010790141107004050750841D405064090741402483A0350
1001
ACAD
1000
AcDbSavedByObjectVersion
1070
     0
  0
ACAD_PROXY_OBJECT
  5
33
102
{ACAD_REACTORS
330
2A
102
}
330
2A
100
AcDbProxyObject
 90
      499
 91
      501
 93
      420
310
425499585B1A5CDD1A58D08409028333333333333E3BF0000000000000FB01079019070040501508421405064090741402480A1B40
1001
ACAD
1000
AcDbSavedByObjectVersion
1070
     0
  0
ACAD_PROXY_OBJECT
  5
37
102
{ACAD_REACTORS
330
2A
102
}
330
2A
100
AcDbProxyObject
 90
      499
 91
      501
 93
      412
310
41D51A1A58DAD95B90D409028333333333333E3BF0000000000000FB010790141107004050150C41D405064090741402480A0350
1001
ACAD
1000
AcDbSavedByObjectVersion
1070
     0
  0
XRECORD
  5
FE
102
{ACAD_REACTORS
330
F5
102
}
330
F5
100
AcDbXrecord
 90
        0
  0
XRECORD
  5
114
102
{ACAD_REACTORS
330
F5
102
}
330
F5
100
AcDbXrecord
1000
DSTYLE
1002
{
1070
   340
340
11
1002
}
  0
XRECORD
  5
FF
102
{ACAD_REACTORS
330
F5
102
}
330
F5
100
AcDbXrecord
  1
{C542E840-CE1E-4858-B243-2A99DF955FF8}
  0
XRECORD
  5
F8
102
{ACAD_REACTORS
330
F5
102
}
330
F5
100
AcDbXrecord
  1

  0
XRECORD
  5
FD
102
{ACAD_REACTORS
330
F5
102
}
330
F5
100
AcDbXrecord
 90
        4
  0
XRECORD
  5
FA
102
{ACAD_REACTORS
330
F5
102
}
330
F5
100
AcDbXrecord
340
1A
  0
XRECORD
  5
FC
102
{ACAD_REACTORS
330
F5
102
}
330
F5
100
AcDbXrecord
 90
    10781
  0
XRECORD
  5
FB
102
{ACAD_REACTORS
330
F5
102
}
330
F5
100
AcDbXrecord
340
19
  0
XRECORD
  5
101
102
{ACAD_REACTORS
330
F5
102
}
330
F5
100
AcDbXrecord
 40
0.0
  0
XRECORD
  5
104
102
{ACAD_REACTORS
330
F5
102
}
330
F5
100
AcDbXrecord
340
0
  0
XRECORD
  5
10A
102
{ACAD_REACTORS
330
F5
102
}
330
F5
100
AcDbXrecord
 10
0.0
 20
0.0
 30
0.0
  0
XRECORD
  5
106
102
{ACAD_REACTORS
330
F5
102
}
330
F5
100
AcDbXrecord
 10
0.0
 20
0.0
 30
0.0
  0
XRECORD
  5
109
102
{ACAD_REACTORS
330
F5
102
}
330
F5
100
AcDbXrecord
 10
0.0
 20
0.0
 30
0.0
  0
XRECORD
  5
107
102
{ACAD_REACTORS
330
F5
102
}
330
F5
100
AcDbXrecord
 10
0.0
 20
0.0
 30
0.0
  0
XRECORD
  5
108
102
{ACAD_REACTORS
330
F5
102
}
330
F5
100
AcDbXrecord
 10
0.0
 20
0.0
 30
0.0
  0
XRECORD
  5
105
102
{ACAD_REACTORS
330
F5
102
}
330
F5
100
AcDbXrecord
 10
0.0
 20
0.0
 30
0.0
  0
XRECORD
  5
102
102
{ACAD_REACTORS
330
F5
102
}
330
F5
100
AcDbXrecord
340
0
  0
XRECORD
  5
103
102
{ACAD_REACTORS
330
F5
102
}
330
F5
100
AcDbXrecord
 70
     0
  0
XRECORD
  5
F9
102
{ACAD_REACTORS
330
F5
102
}
330
F5
100
AcDbXrecord
  1

  0
XRECORD
  5
F6
102
{ACAD_REACTORS
330
F5
102
}
330
F5
100
AcDbXrecord
 90
        1
  0
XRECORD
  5
F7
102
{ACAD_REACTORS
330
F5
102
}
330
F5
100
AcDbXrecord
 90
       70
  0
XRECORD
  5
10D
102
{ACAD_REACTORS
330
F5
102
}
330
F5
100
AcDbXrecord
340
0
  0
XRECORD
  5
113
102
{ACAD_REACTORS
330
F5
102
}
330
F5
100
AcDbXrecord
 10
0.0
 20
0.0
 30
0.0
  0
XRECORD
  5
10F
102
{ACAD_REACTORS
330
F5
102
}
330
F5
100
AcDbXrecord
 10
0.0
 20
0.0
 30
0.0
  0
XRECORD
  5
112
102
{ACAD_REACTORS
330
F5
102
}
330
F5
100
AcDbXrecord
 10
0.0
 20
0.0
 30
0.0
  0
XRECORD
  5
110
102
{ACAD_REACTORS
330
F5
102
}
330
F5
100
AcDbXrecord
 10
0.0
 20
0.0
 30
0.0
  0
XRECORD
  5
111
102
{ACAD_REACTORS
330
F5
102
}
330
F5
100
AcDbXrecord
 10
0.0
 20
0.0
 30
0.0
  0
XRECORD
  5
10E
102
{ACAD_REACTORS
330
F5
102
}
330
F5
100
AcDbXrecord
 10
0.0
 20
0.0
 30
0.0
  0
XRECORD
  5
10B
102
{ACAD_REACTORS
330
F5
102
}
330
F5
100
AcDbXrecord
340
0
  0
XRECORD
  5
10C
102
{ACAD_REACTORS
330
F5
102
}
330
F5
100
AcDbXrecord
 70
     0
  0
XRECORD
  5
100
102
{ACAD_REACTORS
330
F5
102
}
330
F5
100
AcDbXrecord
  1
{FAEB1C32-E019-11D5-929B-00C0DF256EC4}
  0
DICTIONARYVAR
  5
118
102
{ACAD_REACTORS
330
115
102
}
330
115
100
DictionaryVariables
280
     0
  1
2
  0
DICTIONARYVAR
  5
119
102
{ACAD_REACTORS
330
115
102
}
330
115
100
DictionaryVariables
280
     0
  1
1
  0
DICTIONARY
  5
11C
330
3D
100
AcDbDictionary
280
     1
  3
ACAD_XREC_ROUNDTRIP
360
11D
  0
DICTIONARY
  5
11A
330
3C
100
AcDbDictionary
280
     1
  3
ACAD_XREC_ROUNDTRIP
360
11B
  0
DICTIONARY
  5
11E
330
3E
100
AcDbDictionary
280
     1
  3
ACAD_XREC_ROUNDTRIP
360
11F
  0
XRECORD
  5
11D
102
{ACAD_REACTORS
330
11C
102
}
330
11C
100
AcDbXrecord
102
MATERIAL
148
0.0
149
0.0
149
0.0
 93
        0
 94
      127
282
     0
 72
     1
 77
     1
171
     1
175
     1
179
     1
273
     0
  0
XRECORD
  5
11B
102
{ACAD_REACTORS
330
11A
102
}
330
11A
100
AcDbXrecord
102
MATERIAL
148
0.0
149
0.0
149
0.0
 93
        0
 94
      127
282
     0
 72
     1
 77
     1
171
     1
175
     1
179
     1
273
     0
  0
XRECORD
  5
11F
102
{ACAD_REACTORS
330
11E
102
}
330
11E
100
AcDbXrecord
102
MATERIAL
148
0.0
149
0.0
149
0.0
 93
        0
 94
      127
282
     0
 72
     1
 77
     1
171
     1
175
     1
179
     1
273
     0
  0
ENDSEC
  0
EOF
