  0
SECTION
  2
HEADER
  9
$ACADVER
  1
AC1014
  9
$ACADMAINTVER
 70
     9
  9
$DWGCODEPAGE
  3
ANSI_1250
  9
$INSBASE
 10
0.0
 20
0.0
 30
0.0
  9
$EXTMIN
 10
-16.7411
 20
-40.7911
 30
0.0
  9
$EXTMAX
 10
16.7412
 20
40.7912
 30
0.0
  9
$LIMMIN
 10
0.0
 20
0.0
  9
$LIMMAX
 10
12.0
 20
9.0
  9
$ORTHOMODE
 70
     0
  9
$REGENMODE
 70
     1
  9
$FILLMODE
 70
     1
  9
$QTEXTMODE
 70
     0
  9
$MIRRTEXT
 70
     1
  9
$DRAGMODE
 70
     2
  9
$LTSCALE
 40
1.0
  9
$OSMODE
 70
    37
  9
$ATTMODE
 70
     1
  9
$TEXTSIZE
 40
0.2
  9
$TRACEWID
 40
0.05
  9
$TEXTSTYLE
  7
STANDARD
  9
$CLAYER
  8
0
  9
$CELTYPE
  6
BYLAYER
  9
$CECOLOR
 62
   256
  9
$CELTSCALE
 40
1.0
  9
$DELOBJ
 70
     1
  9
$DISPSILH
 70
     0
  9
$DIMSCALE
 40
1.0
  9
$DIMASZ
 40
0.18
  9
$DIMEXO
 40
0.0625
  9
$DIMDLI
 40
0.38
  9
$DIMRND
 40
0.0
  9
$DIMDLE
 40
0.0
  9
$DIMEXE
 40
0.18
  9
$DIMTP
 40
0.0
  9
$DIMTM
 40
0.0
  9
$DIMTXT
 40
0.18
  9
$DIMCEN
 40
0.09
  9
$DIMTSZ
 40
0.0
  9
$DIMTOL
 70
     0
  9
$DIMLIM
 70
     0
  9
$DIMTIH
 70
     1
  9
$DIMTOH
 70
     1
  9
$DIMSE1
 70
     0
  9
$DIMSE2
 70
     0
  9
$DIMTAD
 70
     0
  9
$DIMZIN
 70
     0
  9
$DIMBLK
  1

  9
$DIMASO
 70
     1
  9
$DIMSHO
 70
     1
  9
$DIMPOST
  1

  9
$DIMAPOST
  1

  9
$DIMALT
 70
     0
  9
$DIMALTD
 70
     2
  9
$DIMALTF
 40
25.4
  9
$DIMLFAC
 40
1.0
  9
$DIMTOFL
 70
     0
  9
$DIMTVP
 40
0.0
  9
$DIMTIX
 70
     0
  9
$DIMSOXD
 70
     0
  9
$DIMSAH
 70
     0
  9
$DIMBLK1
  1

  9
$DIMBLK2
  1

  9
$DIMSTYLE
  2
STANDARD
  9
$DIMCLRD
 70
     0
  9
$DIMCLRE
 70
     0
  9
$DIMCLRT
 70
     0
  9
$DIMTFAC
 40
1.0
  9
$DIMGAP
 40
0.09
  9
$DIMJUST
 70
     0
  9
$DIMSD1
 70
     0
  9
$DIMSD2
 70
     0
  9
$DIMTOLJ
 70
     1
  9
$DIMTZIN
 70
     0
  9
$DIMALTZ
 70
     0
  9
$DIMALTTZ
 70
     0
  9
$DIMFIT
 70
     3
  9
$DIMUPT
 70
     0
  9
$DIMUNIT
 70
     2
  9
$DIMDEC
 70
     4
  9
$DIMTDEC
 70
     4
  9
$DIMALTU
 70
     2
  9
$DIMALTTD
 70
     2
  9
$DIMTXSTY
  7
STANDARD
  9
$DIMAUNIT
 70
     0
  9
$LUNITS
 70
     2
  9
$LUPREC
 70
     4
  9
$SKETCHINC
 40
0.1
  9
$FILLETRAD
 40
0.5
  9
$AUNITS
 70
     0
  9
$AUPREC
 70
     0
  9
$MENU
  1
.
  9
$ELEVATION
 40
0.0
  9
$PELEVATION
 40
0.0
  9
$THICKNESS
 40
0.0
  9
$LIMCHECK
 70
     0
  9
$CHAMFERA
 40
0.5
  9
$CHAMFERB
 40
0.5
  9
$CHAMFERC
 40
1.0
  9
$CHAMFERD
 40
0.0
  9
$SKPOLY
 70
     0
  9
$TDCREATE
 40
2456232.478050648
  9
$TDUPDATE
 40
2456232.47805066
  9
$TDINDWG
 40
0.0000000116
  9
$TDUSRTIMER
 40
0.0000000116
  9
$USRTIMER
 70
     1
  9
$ANGBASE
 50
0.0
  9
$ANGDIR
 70
     0
  9
$PDMODE
 70
     0
  9
$PDSIZE
 40
0.0
  9
$PLINEWID
 40
0.0
  9
$COORDS
 70
     1
  9
$SPLFRAME
 70
     0
  9
$SPLINETYPE
 70
     6
  9
$SPLINESEGS
 70
     8
  9
$ATTDIA
 70
     0
  9
$ATTREQ
 70
     1
  9
$HANDLING
 70
     1
  9
$HANDSEED
  5
258
  9
$SURFTAB1
 70
     6
  9
$SURFTAB2
 70
     6
  9
$SURFTYPE
 70
     6
  9
$SURFU
 70
     6
  9
$SURFV
 70
     6
  9
$UCSNAME
  2

  9
$UCSORG
 10
0.0
 20
0.0
 30
0.0
  9
$UCSXDIR
 10
1.0
 20
0.0
 30
0.0
  9
$UCSYDIR
 10
0.0
 20
1.0
 30
0.0
  9
$PUCSNAME
  2

  9
$PUCSORG
 10
0.0
 20
0.0
 30
0.0
  9
$PUCSXDIR
 10
1.0
 20
0.0
 30
0.0
  9
$PUCSYDIR
 10
0.0
 20
1.0
 30
0.0
  9
$USERI1
 70
     0
  9
$USERI2
 70
     0
  9
$USERI3
 70
     0
  9
$USERI4
 70
     0
  9
$USERI5
 70
     0
  9
$USERR1
 40
0.0
  9
$USERR2
 40
0.0
  9
$USERR3
 40
0.0
  9
$USERR4
 40
0.0
  9
$USERR5
 40
0.0
  9
$WORLDVIEW
 70
     1
  9
$SHADEDGE
 70
     3
  9
$SHADEDIF
 70
    70
  9
$TILEMODE
 70
     1
  9
$MAXACTVP
 70
    64
  9
$PINSBASE
 10
0.0
 20
0.0
 30
0.0
  9
$PLIMCHECK
 70
     0
  9
$PEXTMIN
 10
1.000000000000000E+20
 20
1.000000000000000E+20
 30
1.000000000000000E+20
  9
$PEXTMAX
 10
-1.000000000000000E+20
 20
-1.000000000000000E+20
 30
-1.000000000000000E+20
  9
$PLIMMIN
 10
0.0
 20
0.0
  9
$PLIMMAX
 10
12.0
 20
9.0
  9
$UNITMODE
 70
     0
  9
$VISRETAIN
 70
     1
  9
$PLINEGEN
 70
     0
  9
$PSLTSCALE
 70
     1
  9
$TREEDEPTH
 70
  3020
  9
$PICKSTYLE
 70
     1
  9
$CMLSTYLE
  2
STANDARD
  9
$CMLJUST
 70
     0
  9
$CMLSCALE
 40
1.0
  9
$PROXYGRAPHICS
 70
     1
  9
$MEASUREMENT
 70
     0
  0
ENDSEC
  0
SECTION
  2
CLASSES
  0
CLASS
  1
ACDBDICTIONARYWDFLT
  2
AcDbDictionaryWithDefault
  3
ObjectDBX Classes
 90
        0
280
     0
281
     0
  0
CLASS
  1
VISUALSTYLE
  2
AcDbVisualStyle
  3
ObjectDBX Classes
 90
     4095
280
     0
281
     0
  0
CLASS
  1
MATERIAL
  2
AcDbMaterial
  3
ObjectDBX Classes
 90
     1153
280
     0
281
     0
  0
CLASS
  1
DICTIONARYVAR
  2
AcDbDictionaryVar
  3
ObjectDBX Classes
 90
        0
280
     0
281
     0
  0
CLASS
  1
XRECORD
  2
AcDbXrecord
  3
AutoCAD 2000
 90
        0
280
     0
281
     0
  0
CLASS
  1
LWPOLYLINE
  2
AcDbPolyline
  3
AutoCAD 2000
 90
        0
280
     0
281
     1
  0
CLASS
  1
HATCH
  2
AcDbHatch
  3
AutoCAD 2000
 90
        0
280
     0
281
     1
  0
CLASS
  1
ACDBPLACEHOLDER
  2
AcDbPlaceHolder
  3
ObjectDBX Classes
 90
        0
280
     0
281
     0
  0
CLASS
  1
LAYOUT
  2
AcDbLayout
  3
ObjectDBX Classes
 90
        0
280
     0
281
     0
  0
ENDSEC
  0
SECTION
  2
TABLES
  0
TABLE
  2
VPORT
  5
8
330
0
100
AcDbSymbolTable
 70
     1
  0
VPORT
  5
29
330
8
100
AcDbSymbolTableRecord
100
AcDbViewportTableRecord
  2
*ACTIVE
 70
     0
 10
0.0
 20
0.0
 11
1.0
 21
1.0
 12
10.42990654205607
 22
4.5
 13
0.0
 23
0.0
 14
0.5
 24
0.5
 15
0.5
 25
0.5
 16
0.0
 26
0.0
 36
1.0
 17
0.0
 27
0.0
 37
0.0
 40
9.0
 41
1.972972972850329
 42
50.0
 43
0.0
 44
0.0
 50
0.0
 51
0.0
 71
     0
 72
   100
 73
     1
 74
     3
 75
     0
 76
     0
 77
     0
 78
     0
  0
ENDTAB
  0
TABLE
  2
LTYPE
  5
5
330
0
100
AcDbSymbolTable
 70
     4
  0
LTYPE
  5
14
330
5
100
AcDbSymbolTableRecord
100
AcDbLinetypeTableRecord
  2
BYBLOCK
 70
     0
  3

 72
    65
 73
     0
 40
0.0
  0
LTYPE
  5
15
330
5
100
AcDbSymbolTableRecord
100
AcDbLinetypeTableRecord
  2
BYLAYER
 70
     0
  3

 72
    65
 73
     0
 40
0.0
  0
LTYPE
  5
16
330
5
100
AcDbSymbolTableRecord
100
AcDbLinetypeTableRecord
  2
CONTINUOUS
 70
     0
  3
Solid line
 72
    65
 73
     0
 40
0.0
  0
LTYPE
  5
59
330
5
100
AcDbSymbolTableRecord
100
AcDbLinetypeTableRecord
  2
NEW_LINE1
 70
     0
  3

 72
    65
 73
     4
 40
1.2
 49
0.5
 74
     4
 75
     0
340
0
 46
1.0
 50
0.0
 44
0.0
 45
0.0
 49
-0.3
 74
     4
 75
     0
340
0
 46
1.0
 50
0.0
 44
0.0
 45
0.0
 49
0.1
 74
     4
 75
     0
340
0
 46
1.0
 50
0.0
 44
0.0
 45
0.0
 49
-0.3
 74
     4
 75
     0
340
0
 46
1.0
 50
0.0
 44
0.0
 45
0.0
  0
LTYPE
  5
5B
330
5
100
AcDbSymbolTableRecord
100
AcDbLinetypeTableRecord
  2
NEW_LINE2
 70
     0
  3

 72
    65
 73
     4
 40
1.2
 49
0.5
 74
     4
 75
     0
340
0
 46
1.0
 50
0.0
 44
0.0
 45
0.0
 49
-0.3
 74
     4
 75
     0
340
0
 46
1.0
 50
0.0
 44
0.0
 45
0.0
 49
0.1
 74
     4
 75
     0
340
0
 46
1.0
 50
0.0
 44
0.0
 45
0.0
 49
-0.3
 74
     4
 75
     0
340
0
 46
1.0
 50
0.0
 44
0.0
 45
0.0
  0
LTYPE
  5
AC
330
5
100
AcDbSymbolTableRecord
100
AcDbLinetypeTableRecord
  2
NEW_LINE3
 70
     0
  3

 72
    65
 73
     4
 40
1.2
 49
0.5
 74
     4
 75
     0
340
0
 46
1.0
 50
0.0
 44
0.0
 45
0.0
 49
-0.3
 74
     4
 75
     0
340
0
 46
1.0
 50
0.0
 44
0.0
 45
0.0
 49
0.1
 74
     4
 75
     0
340
0
 46
1.0
 50
0.0
 44
0.0
 45
0.0
 49
-0.3
 74
     4
 75
     0
340
0
 46
1.0
 50
0.0
 44
0.0
 45
0.0
  0
ENDTAB
  0
TABLE
  2
LAYER
  5
2
330
0
100
AcDbSymbolTable
 70
     2
  0
LAYER
  5
10
330
2
100
AcDbSymbolTableRecord
100
AcDbLayerTableRecord
  2
0
 70
     0
 62
     7
  6
CONTINUOUS
  0
LAYER
  5
40
330
2
100
AcDbSymbolTableRecord
100
AcDbLayerTableRecord
  2
DEFAULT_1
 70
     0
 62
     7
  6
CONTINUOUS
  0
ENDTAB
  0
TABLE
  2
STYLE
  5
3
330
0
100
AcDbSymbolTable
 70
     1
  0
STYLE
  5
11
330
3
100
AcDbSymbolTableRecord
100
AcDbTextStyleTableRecord
  2
STANDARD
 70
     0
 40
0.0
 41
1.0
 50
0.0
 71
     0
 42
0.2
  3
txt
  4

  0
ENDTAB
  0
TABLE
  2
VIEW
  5
6
330
0
100
AcDbSymbolTable
 70
     0
  0
ENDTAB
  0
TABLE
  2
UCS
  5
7
330
0
100
AcDbSymbolTable
 70
     0
  0
ENDTAB
  0
TABLE
  2
APPID
  5
9
330
0
100
AcDbSymbolTable
 70
     2
  0
APPID
  5
12
330
9
100
AcDbSymbolTableRecord
100
AcDbRegAppTableRecord
  2
ACAD
 70
     0
  0
APPID
  5
3F
330
9
100
AcDbSymbolTableRecord
100
AcDbRegAppTableRecord
  2
ODA
 70
     0
  0
ENDTAB
  0
TABLE
  2
DIMSTYLE
  5
A
330
0
100
AcDbSymbolTable
 70
     1
  0
DIMSTYLE
105
27
330
A
100
AcDbSymbolTableRecord
100
AcDbDimStyleTableRecord
  2
STANDARD
 70
     0
  3

  4

  5

  6

  7

 40
1.0
 41
0.18
 42
0.0625
 43
0.38
 44
0.18
 45
0.0
 46
0.0
 47
0.0
 48
0.0
140
0.18
141
0.09
142
0.0
143
25.4
144
1.0
145
0.0
146
1.0
147
0.09
 71
     0
 72
     0
 73
     1
 74
     1
 75
     0
 76
     0
 77
     0
 78
     0
170
     0
171
     2
172
     0
173
     0
174
     0
175
     0
176
     0
177
     0
178
     0
270
     2
271
     4
272
     4
273
     2
274
     2
340
11
275
     0
280
     0
281
     0
282
     0
283
     1
284
     0
285
     0
286
     0
287
     3
288
     0
  0
ENDTAB
  0
TABLE
  2
BLOCK_RECORD
  5
1
330
0
100
AcDbSymbolTable
 70
     1
  0
BLOCK_RECORD
  5
1F
330
1
100
AcDbSymbolTableRecord
100
AcDbBlockTableRecord
  2
*MODEL_SPACE
  0
BLOCK_RECORD
  5
1B
330
1
100
AcDbSymbolTableRecord
100
AcDbBlockTableRecord
  2
*PAPER_SPACE
  0
ENDTAB
  0
ENDSEC
  0
SECTION
  2
BLOCKS
  0
BLOCK
  5
20
330
1F
100
AcDbEntity
  8
0
100
AcDbBlockBegin
  2
*MODEL_SPACE
 70
     0
 10
0.0
 20
0.0
 30
0.0
  3
*MODEL_SPACE
  1

  0
ENDBLK
  5
21
330
1F
100
AcDbEntity
  8
0
100
AcDbBlockEnd
  0
BLOCK
  5
1C
330
1B
100
AcDbEntity
 67
     1
  8
0
100
AcDbBlockBegin
  2
*PAPER_SPACE
 70
     0
 10
0.0
 20
0.0
 30
0.0
  3
*PAPER_SPACE
  1

  0
ENDBLK
  5
1D
330
1B
100
AcDbEntity
 67
     1
  8
0
100
AcDbBlockEnd
  0
ENDSEC
  0
SECTION
  2
ENTITIES
  0
SPLINE
  5
41
330
1F
100
AcDbEntity
  8
DEFAULT_1
 62
   250
100
AcDbSpline
210
0.0
220
0.0
230
1.0
 70
    24
 71
     3
 72
     8
 73
     4
 74
     0
 42
0.0000000001
 43
0.0000000001
 40
0.0
 40
0.0
 40
0.0
 40
0.0
 40
1.0
 40
1.0
 40
1.0
 40
1.0
 10
-7.0726
 20
-31.3363
 30
0.0
 10
-7.0726
 20
-31.3363
 30
0.0
 10
-13.0183
 20
-31.3363
 30
0.0
 10
-13.0183
 20
-31.3363
 30
0.0
  0
SPLINE
  5
42
330
1F
100
AcDbEntity
  8
DEFAULT_1
 62
   250
100
AcDbSpline
210
0.0
220
0.0
230
1.0
 70
    24
 71
     3
 72
     8
 73
     4
 74
     0
 42
0.0000000001
 43
0.0000000001
 40
0.0
 40
0.0
 40
0.0
 40
0.0
 40
1.0
 40
1.0
 40
1.0
 40
1.0
 10
-7.125
 20
-13.4314
 30
0.0
 10
-7.125
 20
-13.4314
 30
0.0
 10
-13.0183
 20
-13.4314
 30
0.0
 10
-13.0183
 20
-13.4314
 30
0.0
  0
SPLINE
  5
43
330
1F
100
AcDbEntity
  8
DEFAULT_1
 62
   250
100
AcDbSpline
210
0.0
220
0.0
230
1.0
 70
    24
 71
     3
 72
     8
 73
     4
 74
     0
 42
0.0000000001
 43
0.0000000001
 40
0.0
 40
0.0
 40
0.0
 40
0.0
 40
1.0
 40
1.0
 40
1.0
 40
1.0
 10
-12.8478
 20
-14.2556
 30
0.0
 10
-12.8478
 20
-14.2556
 30
0.0
 10
-12.8478
 20
-30.843
 30
0.0
 10
-12.8478
 20
-30.843
 30
0.0
  0
SPLINE
  5
44
330
1F
100
AcDbEntity
  8
DEFAULT_1
 62
   250
100
AcDbSpline
210
0.0
220
0.0
230
1.0
 70
    24
 71
     3
 72
     8
 73
     4
 74
     0
 42
0.0000000001
 43
0.0000000001
 40
0.0
 40
0.0
 40
0.0
 40
0.0
 40
1.0
 40
1.0
 40
1.0
 40
1.0
 10
-6.7475
 20
-31.9781
 30
0.0
 10
-6.7475
 20
-31.9781
 30
0.0
 10
-6.7475
 20
-40.4085
 30
0.0
 10
-6.7475
 20
-40.4085
 30
0.0
  0
SPLINE
  5
45
330
1F
100
AcDbEntity
  8
DEFAULT_1
 62
   250
100
AcDbSpline
210
0.0
220
0.0
230
1.0
 70
    24
 71
     3
 72
     8
 73
     4
 74
     0
 42
0.0000000001
 43
0.0000000001
 40
0.0
 40
0.0
 40
0.0
 40
0.0
 40
1.0
 40
1.0
 40
1.0
 40
1.0
 10
11.1574
 20
-31.7476
 30
0.0
 10
11.1574
 20
-31.7476
 30
0.0
 10
11.1574
 20
-40.7911
 30
0.0
 10
11.1574
 20
-40.7911
 30
0.0
  0
SPLINE
  5
46
330
1F
100
AcDbEntity
  8
DEFAULT_1
 62
   250
100
AcDbSpline
210
0.0
220
0.0
230
1.0
 70
    24
 71
     3
 72
     8
 73
     4
 74
     0
 42
0.0000000001
 43
0.0000000001
 40
0.0
 40
0.0
 40
0.0
 40
0.0
 40
1.0
 40
1.0
 40
1.0
 40
1.0
 10
11.109
 20
-39.9455
 30
0.0
 10
11.109
 20
-39.9455
 30
0.0
 10
-6.3304
 20
-39.9455
 30
0.0
 10
-6.3304
 20
-39.9455
 30
0.0
  0
SPLINE
  5
47
330
1F
100
AcDbEntity
  8
DEFAULT_1
 62
   250
100
AcDbSpline
210
0.0
220
0.0
230
1.0
 70
    24
 71
     3
 72
     8
 73
     4
 74
     0
 42
0.0000000001
 43
0.0000000001
 40
0.0
 40
0.0
 40
0.0
 40
0.0
 40
1.0
 40
1.0
 40
1.0
 40
1.0
 10
-6.7475
 20
-13.5166
 30
0.0
 10
-6.7475
 20
-13.5166
 30
0.0
 10
-6.7475
 20
-31.251
 30
0.0
 10
-6.7475
 20
-31.251
 30
0.0
  0
SPLINE
  5
48
330
1F
100
AcDbEntity
  8
DEFAULT_1
 62
   250
100
AcDbSpline
210
0.0
220
0.0
230
1.0
 70
    24
 71
     3
 72
     8
 73
     4
 74
     0
 42
0.0000000001
 43
0.0000000001
 40
0.0
 40
0.0
 40
0.0
 40
0.0
 40
1.0
 40
1.0
 40
1.0
 40
1.0
 10
-6.4917
 20
-13.6872
 30
0.0
 10
-6.4917
 20
-13.6872
 30
0.0
 10
-6.4917
 20
-31.0805
 30
0.0
 10
-6.4917
 20
-31.0805
 30
0.0
  0
SPLINE
  5
49
330
1F
100
AcDbEntity
  8
DEFAULT_1
 62
   250
100
AcDbSpline
210
0.0
220
0.0
230
1.0
 70
    24
 71
     3
 72
     8
 73
     4
 74
     0
 42
0.0000000001
 43
0.0000000001
 40
0.0
 40
0.0
 40
0.0
 40
0.0
 40
1.0
 40
1.0
 40
1.0
 40
1.0
 10
-6.6623
 20
-31.3363
 30
0.0
 10
-6.6623
 20
-31.3363
 30
0.0
 10
11.0721
 20
-31.3363
 30
0.0
 10
11.0721
 20
-31.3363
 30
0.0
  0
SPLINE
  5
4A
330
1F
100
AcDbEntity
  8
DEFAULT_1
 62
   250
100
AcDbSpline
210
0.0
220
0.0
230
1.0
 70
    24
 71
     3
 72
     8
 73
     4
 74
     0
 42
0.0000000001
 43
0.0000000001
 40
0.0
 40
0.0
 40
0.0
 40
0.0
 40
1.0
 40
1.0
 40
1.0
 40
1.0
 10
-6.4917
 20
-31.0805
 30
0.0
 10
-6.4917
 20
-31.0805
 30
0.0
 10
10.9016
 20
-31.0805
 30
0.0
 10
10.9016
 20
-31.0805
 30
0.0
  0
SPLINE
  5
4B
330
1F
100
AcDbEntity
  8
DEFAULT_1
 62
   250
100
AcDbSpline
210
0.0
220
0.0
230
1.0
 70
    24
 71
     3
 72
     8
 73
     4
 74
     0
 42
0.0000000001
 43
0.0000000001
 40
0.0
 40
0.0
 40
0.0
 40
0.0
 40
1.0
 40
1.0
 40
1.0
 40
1.0
 10
10.9016
 20
-31.0805
 30
0.0
 10
10.9016
 20
-31.0805
 30
0.0
 10
10.9016
 20
-13.6872
 30
0.0
 10
10.9016
 20
-13.6872
 30
0.0
  0
SPLINE
  5
4C
330
1F
100
AcDbEntity
  8
DEFAULT_1
 62
   250
100
AcDbSpline
210
0.0
220
0.0
230
1.0
 70
    24
 71
     3
 72
     8
 73
     4
 74
     0
 42
0.0000000001
 43
0.0000000001
 40
0.0
 40
0.0
 40
0.0
 40
0.0
 40
1.0
 40
1.0
 40
1.0
 40
1.0
 10
11.1574
 20
-31.251
 30
0.0
 10
11.1574
 20
-31.251
 30
0.0
 10
11.1574
 20
-13.5166
 30
0.0
 10
11.1574
 20
-13.5166
 30
0.0
  0
SPLINE
  5
4D
330
1F
100
AcDbEntity
  8
DEFAULT_1
 62
   250
100
AcDbSpline
210
0.0
220
0.0
230
1.0
 70
    24
 71
     3
 72
     8
 73
     4
 74
     0
 42
0.0000000001
 43
0.0000000001
 40
0.0
 40
0.0
 40
0.0
 40
0.0
 40
1.0
 40
1.0
 40
1.0
 40
1.0
 10
10.9016
 20
-13.6872
 30
0.0
 10
10.9016
 20
-13.6872
 30
0.0
 10
-6.4917
 20
-13.6872
 30
0.0
 10
-6.4917
 20
-13.6872
 30
0.0
  0
SPLINE
  5
4E
330
1F
100
AcDbEntity
  8
DEFAULT_1
 62
   250
100
AcDbSpline
210
0.0
220
0.0
230
1.0
 70
    24
 71
     3
 72
     8
 73
     4
 74
     0
 42
0.0000000001
 43
0.0000000001
 40
0.0
 40
0.0
 40
0.0
 40
0.0
 40
1.0
 40
1.0
 40
1.0
 40
1.0
 10
11.0721
 20
-13.4314
 30
0.0
 10
11.0721
 20
-13.4314
 30
0.0
 10
-6.6623
 20
-13.4314
 30
0.0
 10
-6.6623
 20
-13.4314
 30
0.0
  0
SPLINE
  5
4F
330
1F
100
AcDbEntity
  8
DEFAULT_1
 62
   250
100
AcDbSpline
210
0.0
220
0.0
230
1.0
 70
     8
 71
     3
 72
     8
 73
     4
 74
     0
 42
0.0000000001
 43
0.0000000001
 40
0.0
 40
0.0
 40
0.0
 40
0.0
 40
1.0
 40
1.0
 40
1.0
 40
1.0
 10
11.1574
 20
-13.5166
 30
0.0
 10
11.1574
 20
-13.4696
 30
0.0
 10
11.1192
 20
-13.4314
 30
0.0
 10
11.0721
 20
-13.4314
 30
0.0
  0
SPLINE
  5
50
330
1F
100
AcDbEntity
  8
DEFAULT_1
 62
   250
100
AcDbSpline
210
0.0
220
0.0
230
1.0
 70
     8
 71
     3
 72
     8
 73
     4
 74
     0
 42
0.0000000001
 43
0.0000000001
 40
0.0
 40
0.0
 40
0.0
 40
0.0
 40
1.0
 40
1.0
 40
1.0
 40
1.0
 10
-6.6623
 20
-13.4314
 30
0.0
 10
-6.7094
 20
-13.4314
 30
0.0
 10
-6.7475
 20
-13.4696
 30
0.0
 10
-6.7475
 20
-13.5166
 30
0.0
  0
SPLINE
  5
51
330
1F
100
AcDbEntity
  8
DEFAULT_1
 62
   250
100
AcDbSpline
210
0.0
220
0.0
230
1.0
 70
     8
 71
     3
 72
     8
 73
     4
 74
     0
 42
0.0000000001
 43
0.0000000001
 40
0.0
 40
0.0
 40
0.0
 40
0.0
 40
1.0
 40
1.0
 40
1.0
 40
1.0
 10
-6.7475
 20
-31.251
 30
0.0
 10
-6.7475
 20
-31.2981
 30
0.0
 10
-6.7094
 20
-31.3363
 30
0.0
 10
-6.6623
 20
-31.3363
 30
0.0
  0
SPLINE
  5
52
330
1F
100
AcDbEntity
  8
DEFAULT_1
 62
   250
100
AcDbSpline
210
0.0
220
0.0
230
1.0
 70
     8
 71
     3
 72
     8
 73
     4
 74
     0
 42
0.0000000001
 43
0.0000000001
 40
0.0
 40
0.0
 40
0.0
 40
0.0
 40
1.0
 40
1.0
 40
1.0
 40
1.0
 10
11.0721
 20
-31.3363
 30
0.0
 10
11.1192
 20
-31.3363
 30
0.0
 10
11.1574
 20
-31.2981
 30
0.0
 10
11.1574
 20
-31.251
 30
0.0
  0
SPLINE
  5
53
330
1F
100
AcDbEntity
  8
DEFAULT_1
 62
   250
100
AcDbSpline
210
0.0
220
0.0
230
1.0
 70
     8
 71
     3
 72
     8
 73
     4
 74
     0
 42
0.0000000001
 43
0.0000000001
 40
0.0
 40
0.0
 40
0.0
 40
0.0
 40
1.0
 40
1.0
 40
1.0
 40
1.0
 10
4.9698
 20
-13.4219
 30
0.0
 10
3.1684
 20
-12.8662
 30
0.0
 10
1.2414
 20
-12.8662
 30
0.0
 10
-0.5599
 20
-13.4219
 30
0.0
  0
SPLINE
  5
54
330
1F
100
AcDbEntity
  8
DEFAULT_1
 62
   250
100
AcDbSpline
210
0.0
220
0.0
230
1.0
 70
     8
 71
     3
 72
     8
 73
     4
 74
     0
 42
0.0000000001
 43
0.0000000001
 40
0.0
 40
0.0
 40
0.0
 40
0.0
 40
1.0
 40
1.0
 40
1.0
 40
1.0
 10
11.1669
 20
-25.1487
 30
0.0
 10
11.7226
 20
-23.3474
 30
0.0
 10
11.7226
 20
-21.4203
 30
0.0
 10
11.1669
 20
-19.619
 30
0.0
  0
SPLINE
  5
55
330
1F
100
AcDbEntity
  8
DEFAULT_1
 62
   250
100
AcDbSpline
210
0.0
220
0.0
230
1.0
 70
     8
 71
     3
 72
     8
 73
     4
 74
     0
 42
0.0000000001
 43
0.0000000001
 40
0.0
 40
0.0
 40
0.0
 40
0.0
 40
1.0
 40
1.0
 40
1.0
 40
1.0
 10
-0.5599
 20
-31.3458
 30
0.0
 10
1.2414
 20
-31.9015
 30
0.0
 10
3.1684
 20
-31.9015
 30
0.0
 10
4.9698
 20
-31.3458
 30
0.0
  0
SPLINE
  5
56
330
1F
100
AcDbEntity
  8
DEFAULT_1
 62
   250
100
AcDbSpline
210
0.0
220
0.0
230
1.0
 70
     8
 71
     3
 72
     8
 73
     4
 74
     0
 42
0.0000000001
 43
0.0000000001
 40
0.0
 40
0.0
 40
0.0
 40
0.0
 40
1.0
 40
1.0
 40
1.0
 40
1.0
 10
-6.757
 20
-19.619
 30
0.0
 10
-7.3128
 20
-21.4203
 30
0.0
 10
-7.3128
 20
-23.3474
 30
0.0
 10
-6.757
 20
-25.1487
 30
0.0
  0
SPLINE
  5
57
330
1F
100
AcDbEntity
  8
DEFAULT_1
 62
   250
100
AcDbSpline
210
0.0
220
0.0
230
1.0
 70
    11
 71
     3
 72
    20
 73
    16
 74
     0
 42
0.0000000001
 43
0.0000000001
 40
0.0
 40
0.0
 40
0.0
 40
0.0
 40
0.2
 40
0.2
 40
0.2
 40
0.2
 40
0.4
 40
0.4
 40
0.4
 40
0.4
 40
0.6
 40
0.6
 40
0.6
 40
0.6
 40
1.0
 40
1.0
 40
1.0
 40
1.0
 10
15.8468
 20
-22.3838
 30
0.0
 10
15.8468
 20
-14.8497
 30
0.0
 10
9.7391
 20
-8.742
 30
0.0
 10
2.2049
 20
-8.742
 30
0.0
 10
2.2049
 20
-8.742
 30
0.0
 10
-5.3292
 20
-8.742
 30
0.0
 10
-11.4369
 20
-14.8496
 30
0.0
 10
-11.4369
 20
-22.3838
 30
0.0
 10
-11.4369
 20
-22.3838
 30
0.0
 10
-11.4369
 20
-29.918
 30
0.0
 10
-5.3292
 20
-36.0257
 30
0.0
 10
2.2049
 20
-36.0257
 30
0.0
 10
2.2049
 20
-36.0257
 30
0.0
 10
9.7391
 20
-36.0257
 30
0.0
 10
15.8468
 20
-29.918
 30
0.0
 10
15.8468
 20
-22.3838
 30
0.0
  0
SPLINE
  5
58
330
1F
100
AcDbEntity
  8
DEFAULT_1
  6
NEW_LINE1
 62
   250
100
AcDbSpline
210
0.0
220
0.0
230
1.0
 70
    24
 71
     3
 72
     8
 73
     4
 74
     0
 42
0.0000000001
 43
0.0000000001
 40
0.0
 40
0.0
 40
0.0
 40
0.0
 40
1.0
 40
1.0
 40
1.0
 40
1.0
 10
2.2049
 20
-36.7639
 30
0.0
 10
2.2049
 20
-36.7639
 30
0.0
 10
2.2049
 20
-8.4009
 30
0.0
 10
2.2049
 20
-8.4009
 30
0.0
  0
SPLINE
  5
5A
330
1F
100
AcDbEntity
  8
DEFAULT_1
  6
NEW_LINE2
 62
   250
100
AcDbSpline
210
0.0
220
0.0
230
1.0
 70
    24
 71
     3
 72
     8
 73
     4
 74
     0
 42
0.0000000001
 43
0.0000000001
 40
0.0
 40
0.0
 40
0.0
 40
0.0
 40
1.0
 40
1.0
 40
1.0
 40
1.0
 10
16.7412
 20
-22.3838
 30
0.0
 10
16.7412
 20
-22.3838
 30
0.0
 10
-11.9687
 20
-22.3838
 30
0.0
 10
-11.9687
 20
-22.3838
 30
0.0
  0
SPLINE
  5
5C
330
1F
100
AcDbEntity
  8
DEFAULT_1
 62
   250
100
AcDbSpline
210
0.0
220
0.0
230
1.0
 70
    27
 71
     3
 72
    12
 73
     8
 74
     0
 42
0.0000000001
 43
0.0000000001
 40
0.0
 40
0.0
 40
0.0
 40
0.0
 40
0.3333333333333333
 40
0.3333333333333333
 40
0.3333333333333333
 40
0.3333333333333333
 40
1.0
 40
1.0
 40
1.0
 40
1.0
 10
8.4693
 20
-24.6276
 30
0.0
 10
8.4693
 20
-24.6276
 30
0.0
 10
3.7343
 20
-24.6276
 30
0.0
 10
3.7343
 20
-24.6276
 30
0.0
 10
3.7343
 20
-24.6276
 30
0.0
 10
3.7343
 20
-24.6276
 30
0.0
 10
8.4693
 20
-24.6276
 30
0.0
 10
8.4693
 20
-24.6276
 30
0.0
  0
SPLINE
  5
5D
330
1F
100
AcDbEntity
  8
DEFAULT_1
 62
   250
100
AcDbSpline
210
0.0
220
0.0
230
1.0
 70
    27
 71
     3
 72
    12
 73
     8
 74
     0
 42
0.0000000001
 43
0.0000000001
 40
0.0
 40
0.0
 40
0.0
 40
0.0
 40
0.3333333333333333
 40
0.3333333333333333
 40
0.3333333333333333
 40
0.3333333333333333
 40
1.0
 40
1.0
 40
1.0
 40
1.0
 10
8.4693
 20
-29.3603
 30
0.0
 10
8.4693
 20
-29.3603
 30
0.0
 10
3.7343
 20
-29.3603
 30
0.0
 10
3.7343
 20
-29.3603
 30
0.0
 10
3.7343
 20
-29.3603
 30
0.0
 10
3.7343
 20
-29.3603
 30
0.0
 10
8.4693
 20
-29.3603
 30
0.0
 10
8.4693
 20
-29.3603
 30
0.0
  0
SPLINE
  5
5E
330
1F
100
AcDbEntity
  8
DEFAULT_1
 62
   250
100
AcDbSpline
210
0.0
220
0.0
230
1.0
 70
    27
 71
     3
 72
    12
 73
     8
 74
     0
 42
0.0000000001
 43
0.0000000001
 40
0.0
 40
0.0
 40
0.0
 40
0.0
 40
0.3333333333333333
 40
0.3333333333333333
 40
0.3333333333333333
 40
0.3333333333333333
 40
1.0
 40
1.0
 40
1.0
 40
1.0
 10
3.7343
 20
-27.9219
 30
0.0
 10
3.7343
 20
-27.9219
 30
0.0
 10
8.4693
 20
-27.9219
 30
0.0
 10
8.4693
 20
-27.9219
 30
0.0
 10
8.4693
 20
-27.9219
 30
0.0
 10
8.4693
 20
-27.9219
 30
0.0
 10
3.7343
 20
-27.9219
 30
0.0
 10
3.7343
 20
-27.9219
 30
0.0
  0
SPLINE
  5
5F
330
1F
100
AcDbEntity
  8
DEFAULT_1
 62
   250
100
AcDbSpline
210
0.0
220
0.0
230
1.0
 70
    27
 71
     3
 72
    12
 73
     8
 74
     0
 42
0.0000000001
 43
0.0000000001
 40
0.0
 40
0.0
 40
0.0
 40
0.0
 40
0.3333333333333333
 40
0.3333333333333333
 40
0.3333333333333333
 40
0.3333333333333333
 40
1.0
 40
1.0
 40
1.0
 40
1.0
 10
8.4848
 20
-27.0047
 30
0.0
 10
8.4848
 20
-27.0047
 30
0.0
 10
3.7498
 20
-27.0047
 30
0.0
 10
3.7498
 20
-27.0047
 30
0.0
 10
3.7498
 20
-27.0047
 30
0.0
 10
3.7498
 20
-27.0047
 30
0.0
 10
8.4848
 20
-27.0047
 30
0.0
 10
8.4848
 20
-27.0047
 30
0.0
  0
SPLINE
  5
60
330
1F
100
AcDbEntity
  8
DEFAULT_1
 62
   250
100
AcDbSpline
210
0.0
220
0.0
230
1.0
 70
    27
 71
     3
 72
    12
 73
     8
 74
     0
 42
0.0000000001
 43
0.0000000001
 40
0.0
 40
0.0
 40
0.0
 40
0.0
 40
0.3333333333333333
 40
0.3333333333333333
 40
0.3333333333333333
 40
0.3333333333333333
 40
1.0
 40
1.0
 40
1.0
 40
1.0
 10
3.7498
 20
-25.5663
 30
0.0
 10
3.7498
 20
-25.5663
 30
0.0
 10
8.4848
 20
-25.5663
 30
0.0
 10
8.4848
 20
-25.5663
 30
0.0
 10
8.4848
 20
-25.5663
 30
0.0
 10
8.4848
 20
-25.5663
 30
0.0
 10
3.7498
 20
-25.5663
 30
0.0
 10
3.7498
 20
-25.5663
 30
0.0
  0
SPLINE
  5
61
330
1F
100
AcDbEntity
  8
DEFAULT_1
 62
   250
100
AcDbSpline
210
0.0
220
0.0
230
1.0
 70
    27
 71
     3
 72
    12
 73
     8
 74
     0
 42
0.0000000001
 43
0.0000000001
 40
0.0
 40
0.0
 40
0.0
 40
0.0
 40
0.3333333333333333
 40
0.3333333333333333
 40
0.3333333333333333
 40
0.3333333333333333
 40
1.0
 40
1.0
 40
1.0
 40
1.0
 10
3.7343
 20
-23.1892
 30
0.0
 10
3.7343
 20
-23.1892
 30
0.0
 10
8.4693
 20
-23.1892
 30
0.0
 10
8.4693
 20
-23.1892
 30
0.0
 10
8.4693
 20
-23.1892
 30
0.0
 10
8.4693
 20
-23.1892
 30
0.0
 10
3.7343
 20
-23.1892
 30
0.0
 10
3.7343
 20
-23.1892
 30
0.0
  0
SPLINE
  5
62
330
1F
100
AcDbEntity
  8
DEFAULT_1
 62
   250
100
AcDbSpline
210
0.0
220
0.0
230
1.0
 70
     8
 71
     3
 72
    12
 73
     8
 74
     0
 42
0.0000000001
 43
0.0000000001
 40
0.0
 40
0.0
 40
0.0
 40
0.0
 40
0.3333333333333333
 40
0.3333333333333333
 40
0.3333333333333333
 40
0.3333333333333333
 40
1.0
 40
1.0
 40
1.0
 40
1.0
 10
3.7343
 20
-23.1892
 30
0.0
 10
3.3373
 20
-23.1892
 30
0.0
 10
3.0156
 20
-23.5112
 30
0.0
 10
3.0156
 20
-23.9084
 30
0.0
 10
3.0156
 20
-23.9084
 30
0.0
 10
3.0156
 20
-24.3056
 30
0.0
 10
3.3373
 20
-24.6276
 30
0.0
 10
3.7343
 20
-24.6276
 30
0.0
  0
SPLINE
  5
63
330
1F
100
AcDbEntity
  8
DEFAULT_1
 62
   250
100
AcDbSpline
210
0.0
220
0.0
230
1.0
 70
     8
 71
     3
 72
    12
 73
     8
 74
     0
 42
0.0000000001
 43
0.0000000001
 40
0.0
 40
0.0
 40
0.0
 40
0.0
 40
0.3333333333333333
 40
0.3333333333333333
 40
0.3333333333333333
 40
0.3333333333333333
 40
1.0
 40
1.0
 40
1.0
 40
1.0
 10
3.7343
 20
-27.9219
 30
0.0
 10
3.3373
 20
-27.9219
 30
0.0
 10
3.0156
 20
-28.2439
 30
0.0
 10
3.0156
 20
-28.6411
 30
0.0
 10
3.0156
 20
-28.6411
 30
0.0
 10
3.0156
 20
-29.0383
 30
0.0
 10
3.3373
 20
-29.3603
 30
0.0
 10
3.7343
 20
-29.3603
 30
0.0
  0
SPLINE
  5
64
330
1F
100
AcDbEntity
  8
DEFAULT_1
 62
   250
100
AcDbSpline
210
0.0
220
0.0
230
1.0
 70
     8
 71
     3
 72
    12
 73
     8
 74
     0
 42
0.0000000001
 43
0.0000000001
 40
0.0
 40
0.0
 40
0.0
 40
0.0
 40
0.3333333333333333
 40
0.3333333333333333
 40
0.3333333333333333
 40
0.3333333333333333
 40
1.0
 40
1.0
 40
1.0
 40
1.0
 10
8.4693
 20
-29.3603
 30
0.0
 10
8.8662
 20
-29.3603
 30
0.0
 10
9.1879
 20
-29.0383
 30
0.0
 10
9.1879
 20
-28.6411
 30
0.0
 10
9.1879
 20
-28.6411
 30
0.0
 10
9.1879
 20
-28.2439
 30
0.0
 10
8.8662
 20
-27.9219
 30
0.0
 10
8.4693
 20
-27.9219
 30
0.0
  0
SPLINE
  5
65
330
1F
100
AcDbEntity
  8
DEFAULT_1
 62
   250
100
AcDbSpline
210
0.0
220
0.0
230
1.0
 70
     8
 71
     3
 72
    12
 73
     8
 74
     0
 42
0.0000000001
 43
0.0000000001
 40
0.0
 40
0.0
 40
0.0
 40
0.0
 40
0.3333333333333333
 40
0.3333333333333333
 40
0.3333333333333333
 40
0.3333333333333333
 40
1.0
 40
1.0
 40
1.0
 40
1.0
 10
3.7498
 20
-25.5663
 30
0.0
 10
3.3528
 20
-25.5663
 30
0.0
 10
3.0311
 20
-25.8883
 30
0.0
 10
3.0311
 20
-26.2855
 30
0.0
 10
3.0311
 20
-26.2855
 30
0.0
 10
3.0311
 20
-26.6827
 30
0.0
 10
3.3528
 20
-27.0047
 30
0.0
 10
3.7498
 20
-27.0047
 30
0.0
  0
SPLINE
  5
66
330
1F
100
AcDbEntity
  8
DEFAULT_1
 62
   250
100
AcDbSpline
210
0.0
220
0.0
230
1.0
 70
     8
 71
     3
 72
    12
 73
     8
 74
     0
 42
0.0000000001
 43
0.0000000001
 40
0.0
 40
0.0
 40
0.0
 40
0.0
 40
0.3333333333333333
 40
0.3333333333333333
 40
0.3333333333333333
 40
0.3333333333333333
 40
1.0
 40
1.0
 40
1.0
 40
1.0
 10
8.4848
 20
-27.0047
 30
0.0
 10
8.8817
 20
-27.0047
 30
0.0
 10
9.2035
 20
-26.6827
 30
0.0
 10
9.2035
 20
-26.2855
 30
0.0
 10
9.2035
 20
-26.2855
 30
0.0
 10
9.2035
 20
-25.8883
 30
0.0
 10
8.8817
 20
-25.5663
 30
0.0
 10
8.4848
 20
-25.5663
 30
0.0
  0
SPLINE
  5
67
330
1F
100
AcDbEntity
  8
DEFAULT_1
 62
   250
100
AcDbSpline
210
0.0
220
0.0
230
1.0
 70
     8
 71
     3
 72
    12
 73
     8
 74
     0
 42
0.0000000001
 43
0.0000000001
 40
0.0
 40
0.0
 40
0.0
 40
0.0
 40
0.3333333333333333
 40
0.3333333333333333
 40
0.3333333333333333
 40
0.3333333333333333
 40
1.0
 40
1.0
 40
1.0
 40
1.0
 10
8.4693
 20
-24.6276
 30
0.0
 10
8.8662
 20
-24.6276
 30
0.0
 10
9.1879
 20
-24.3056
 30
0.0
 10
9.1879
 20
-23.9084
 30
0.0
 10
9.1879
 20
-23.9084
 30
0.0
 10
9.1879
 20
-23.5112
 30
0.0
 10
8.8662
 20
-23.1892
 30
0.0
 10
8.4693
 20
-23.1892
 30
0.0
  0
SPLINE
  5
68
330
1F
100
AcDbEntity
  8
DEFAULT_1
 62
   250
100
AcDbSpline
210
0.0
220
0.0
230
1.0
 70
    27
 71
     3
 72
    12
 73
     8
 74
     0
 42
0.0000000001
 43
0.0000000001
 40
0.0
 40
0.0
 40
0.0
 40
0.0
 40
0.3333333333333333
 40
0.3333333333333333
 40
0.3333333333333333
 40
0.3333333333333333
 40
1.0
 40
1.0
 40
1.0
 40
1.0
 10
4.4549
 20
-16.127
 30
0.0
 10
4.4549
 20
-16.127
 30
0.0
 10
4.4549
 20
-20.865
 30
0.0
 10
4.4549
 20
-20.865
 30
0.0
 10
4.4549
 20
-20.865
 30
0.0
 10
4.4549
 20
-20.865
 30
0.0
 10
4.4549
 20
-16.127
 30
0.0
 10
4.4549
 20
-16.127
 30
0.0
  0
SPLINE
  5
69
330
1F
100
AcDbEntity
  8
DEFAULT_1
 62
   250
100
AcDbSpline
210
0.0
220
0.0
230
1.0
 70
    27
 71
     3
 72
    12
 73
     8
 74
     0
 42
0.0000000001
 43
0.0000000001
 40
0.0
 40
0.0
 40
0.0
 40
0.0
 40
0.3333333333333333
 40
0.3333333333333333
 40
0.3333333333333333
 40
0.3333333333333333
 40
1.0
 40
1.0
 40
1.0
 40
1.0
 10
9.1846
 20
-16.127
 30
0.0
 10
9.1846
 20
-16.127
 30
0.0
 10
9.1846
 20
-20.865
 30
0.0
 10
9.1846
 20
-20.865
 30
0.0
 10
9.1846
 20
-20.865
 30
0.0
 10
9.1846
 20
-20.865
 30
0.0
 10
9.1846
 20
-16.127
 30
0.0
 10
9.1846
 20
-16.127
 30
0.0
  0
SPLINE
  5
6A
330
1F
100
AcDbEntity
  8
DEFAULT_1
 62
   250
100
AcDbSpline
210
0.0
220
0.0
230
1.0
 70
    27
 71
     3
 72
    12
 73
     8
 74
     0
 42
0.0000000001
 43
0.0000000001
 40
0.0
 40
0.0
 40
0.0
 40
0.0
 40
0.3333333333333333
 40
0.3333333333333333
 40
0.3333333333333333
 40
0.3333333333333333
 40
1.0
 40
1.0
 40
1.0
 40
1.0
 10
7.7471
 20
-20.865
 30
0.0
 10
7.7471
 20
-20.865
 30
0.0
 10
7.7471
 20
-16.127
 30
0.0
 10
7.7471
 20
-16.127
 30
0.0
 10
7.7471
 20
-16.127
 30
0.0
 10
7.7471
 20
-16.127
 30
0.0
 10
7.7471
 20
-20.865
 30
0.0
 10
7.7471
 20
-20.865
 30
0.0
  0
SPLINE
  5
6B
330
1F
100
AcDbEntity
  8
DEFAULT_1
 62
   250
100
AcDbSpline
210
0.0
220
0.0
230
1.0
 70
    27
 71
     3
 72
    12
 73
     8
 74
     0
 42
0.0000000001
 43
0.0000000001
 40
0.0
 40
0.0
 40
0.0
 40
0.0
 40
0.3333333333333333
 40
0.3333333333333333
 40
0.3333333333333333
 40
0.3333333333333333
 40
1.0
 40
1.0
 40
1.0
 40
1.0
 10
6.8305
 20
-16.1115
 30
0.0
 10
6.8305
 20
-16.1115
 30
0.0
 10
6.8305
 20
-20.8495
 30
0.0
 10
6.8305
 20
-20.8495
 30
0.0
 10
6.8305
 20
-20.8495
 30
0.0
 10
6.8305
 20
-20.8495
 30
0.0
 10
6.8305
 20
-16.1115
 30
0.0
 10
6.8305
 20
-16.1115
 30
0.0
  0
SPLINE
  5
6C
330
1F
100
AcDbEntity
  8
DEFAULT_1
 62
   250
100
AcDbSpline
210
0.0
220
0.0
230
1.0
 70
    27
 71
     3
 72
    12
 73
     8
 74
     0
 42
0.0000000001
 43
0.0000000001
 40
0.0
 40
0.0
 40
0.0
 40
0.0
 40
0.3333333333333333
 40
0.3333333333333333
 40
0.3333333333333333
 40
0.3333333333333333
 40
1.0
 40
1.0
 40
1.0
 40
1.0
 10
5.393
 20
-20.8495
 30
0.0
 10
5.393
 20
-20.8495
 30
0.0
 10
5.393
 20
-16.1115
 30
0.0
 10
5.393
 20
-16.1115
 30
0.0
 10
5.393
 20
-16.1115
 30
0.0
 10
5.393
 20
-16.1115
 30
0.0
 10
5.393
 20
-20.8495
 30
0.0
 10
5.393
 20
-20.8495
 30
0.0
  0
SPLINE
  5
6D
330
1F
100
AcDbEntity
  8
DEFAULT_1
 62
   250
100
AcDbSpline
210
0.0
220
0.0
230
1.0
 70
    27
 71
     3
 72
    12
 73
     8
 74
     0
 42
0.0000000001
 43
0.0000000001
 40
0.0
 40
0.0
 40
0.0
 40
0.0
 40
0.3333333333333333
 40
0.3333333333333333
 40
0.3333333333333333
 40
0.3333333333333333
 40
1.0
 40
1.0
 40
1.0
 40
1.0
 10
3.0174
 20
-20.865
 30
0.0
 10
3.0174
 20
-20.865
 30
0.0
 10
3.0174
 20
-16.127
 30
0.0
 10
3.0174
 20
-16.127
 30
0.0
 10
3.0174
 20
-16.127
 30
0.0
 10
3.0174
 20
-16.127
 30
0.0
 10
3.0174
 20
-20.865
 30
0.0
 10
3.0174
 20
-20.865
 30
0.0
  0
SPLINE
  5
6E
330
1F
100
AcDbEntity
  8
DEFAULT_1
 62
   250
100
AcDbSpline
210
0.0
220
0.0
230
1.0
 70
     8
 71
     3
 72
    12
 73
     8
 74
     0
 42
0.0000000001
 43
0.0000000001
 40
0.0
 40
0.0
 40
0.0
 40
0.0
 40
0.3333333333333333
 40
0.3333333333333333
 40
0.3333333333333333
 40
0.3333333333333333
 40
1.0
 40
1.0
 40
1.0
 40
1.0
 10
3.0174
 20
-20.865
 30
0.0
 10
3.0174
 20
-21.2622
 30
0.0
 10
3.3392
 20
-21.5842
 30
0.0
 10
3.7362
 20
-21.5842
 30
0.0
 10
3.7362
 20
-21.5842
 30
0.0
 10
4.1331
 20
-21.5842
 30
0.0
 10
4.4549
 20
-21.2622
 30
0.0
 10
4.4549
 20
-20.865
 30
0.0
  0
SPLINE
  5
6F
330
1F
100
AcDbEntity
  8
DEFAULT_1
 62
   250
100
AcDbSpline
210
0.0
220
0.0
230
1.0
 70
     8
 71
     3
 72
    12
 73
     8
 74
     0
 42
0.0000000001
 43
0.0000000001
 40
0.0
 40
0.0
 40
0.0
 40
0.0
 40
0.3333333333333333
 40
0.3333333333333333
 40
0.3333333333333333
 40
0.3333333333333333
 40
1.0
 40
1.0
 40
1.0
 40
1.0
 10
7.7471
 20
-20.865
 30
0.0
 10
7.7471
 20
-21.2622
 30
0.0
 10
8.0689
 20
-21.5842
 30
0.0
 10
8.4658
 20
-21.5842
 30
0.0
 10
8.4658
 20
-21.5842
 30
0.0
 10
8.8628
 20
-21.5842
 30
0.0
 10
9.1846
 20
-21.2622
 30
0.0
 10
9.1846
 20
-20.865
 30
0.0
  0
SPLINE
  5
70
330
1F
100
AcDbEntity
  8
DEFAULT_1
 62
   250
100
AcDbSpline
210
0.0
220
0.0
230
1.0
 70
     8
 71
     3
 72
    12
 73
     8
 74
     0
 42
0.0000000001
 43
0.0000000001
 40
0.0
 40
0.0
 40
0.0
 40
0.0
 40
0.3333333333333333
 40
0.3333333333333333
 40
0.3333333333333333
 40
0.3333333333333333
 40
1.0
 40
1.0
 40
1.0
 40
1.0
 10
9.1846
 20
-16.127
 30
0.0
 10
9.1846
 20
-15.7298
 30
0.0
 10
8.8628
 20
-15.4078
 30
0.0
 10
8.4658
 20
-15.4078
 30
0.0
 10
8.4658
 20
-15.4078
 30
0.0
 10
8.0689
 20
-15.4078
 30
0.0
 10
7.7471
 20
-15.7298
 30
0.0
 10
7.7471
 20
-16.127
 30
0.0
  0
SPLINE
  5
71
330
1F
100
AcDbEntity
  8
DEFAULT_1
 62
   250
100
AcDbSpline
210
0.0
220
0.0
230
1.0
 70
     8
 71
     3
 72
    12
 73
     8
 74
     0
 42
0.0000000001
 43
0.0000000001
 40
0.0
 40
0.0
 40
0.0
 40
0.0
 40
0.3333333333333333
 40
0.3333333333333333
 40
0.3333333333333333
 40
0.3333333333333333
 40
1.0
 40
1.0
 40
1.0
 40
1.0
 10
5.393
 20
-20.8495
 30
0.0
 10
5.393
 20
-21.2467
 30
0.0
 10
5.7148
 20
-21.5687
 30
0.0
 10
6.1118
 20
-21.5687
 30
0.0
 10
6.1118
 20
-21.5687
 30
0.0
 10
6.5087
 20
-21.5687
 30
0.0
 10
6.8305
 20
-21.2467
 30
0.0
 10
6.8305
 20
-20.8495
 30
0.0
  0
SPLINE
  5
72
330
1F
100
AcDbEntity
  8
DEFAULT_1
 62
   250
100
AcDbSpline
210
0.0
220
0.0
230
1.0
 70
     8
 71
     3
 72
    12
 73
     8
 74
     0
 42
0.0000000001
 43
0.0000000001
 40
0.0
 40
0.0
 40
0.0
 40
0.0
 40
0.3333333333333333
 40
0.3333333333333333
 40
0.3333333333333333
 40
0.3333333333333333
 40
1.0
 40
1.0
 40
1.0
 40
1.0
 10
6.8305
 20
-16.1115
 30
0.0
 10
6.8305
 20
-15.7143
 30
0.0
 10
6.5087
 20
-15.3923
 30
0.0
 10
6.1118
 20
-15.3923
 30
0.0
 10
6.1118
 20
-15.3923
 30
0.0
 10
5.7148
 20
-15.3923
 30
0.0
 10
5.393
 20
-15.7143
 30
0.0
 10
5.393
 20
-16.1115
 30
0.0
  0
SPLINE
  5
73
330
1F
100
AcDbEntity
  8
DEFAULT_1
 62
   250
100
AcDbSpline
210
0.0
220
0.0
230
1.0
 70
     8
 71
     3
 72
    12
 73
     8
 74
     0
 42
0.0000000001
 43
0.0000000001
 40
0.0
 40
0.0
 40
0.0
 40
0.0
 40
0.3333333333333333
 40
0.3333333333333333
 40
0.3333333333333333
 40
0.3333333333333333
 40
1.0
 40
1.0
 40
1.0
 40
1.0
 10
4.4549
 20
-16.127
 30
0.0
 10
4.4549
 20
-15.7298
 30
0.0
 10
4.1331
 20
-15.4078
 30
0.0
 10
3.7362
 20
-15.4078
 30
0.0
 10
3.7362
 20
-15.4078
 30
0.0
 10
3.3392
 20
-15.4078
 30
0.0
 10
3.0174
 20
-15.7298
 30
0.0
 10
3.0174
 20
-16.127
 30
0.0
  0
SPLINE
  5
74
330
1F
100
AcDbEntity
  8
DEFAULT_1
 62
   250
100
AcDbSpline
210
0.0
220
0.0
230
1.0
 70
    27
 71
     3
 72
    12
 73
     8
 74
     0
 42
0.0000000001
 43
0.0000000001
 40
0.0
 40
0.0
 40
0.0
 40
0.0
 40
0.3333333333333333
 40
0.3333333333333333
 40
0.3333333333333333
 40
0.3333333333333333
 40
1.0
 40
1.0
 40
1.0
 40
1.0
 10
-3.3181
 20
-23.922
 30
0.0
 10
-3.3181
 20
-23.922
 30
0.0
 10
-3.3181
 20
-28.66
 30
0.0
 10
-3.3181
 20
-28.66
 30
0.0
 10
-3.3181
 20
-28.66
 30
0.0
 10
-3.3181
 20
-28.66
 30
0.0
 10
-3.3181
 20
-23.922
 30
0.0
 10
-3.3181
 20
-23.922
 30
0.0
  0
SPLINE
  5
75
330
1F
100
AcDbEntity
  8
DEFAULT_1
 62
   250
100
AcDbSpline
210
0.0
220
0.0
230
1.0
 70
    27
 71
     3
 72
    12
 73
     8
 74
     0
 42
0.0000000001
 43
0.0000000001
 40
0.0
 40
0.0
 40
0.0
 40
0.0
 40
0.3333333333333333
 40
0.3333333333333333
 40
0.3333333333333333
 40
0.3333333333333333
 40
1.0
 40
1.0
 40
1.0
 40
1.0
 10
1.4116
 20
-23.922
 30
0.0
 10
1.4116
 20
-23.922
 30
0.0
 10
1.4116
 20
-28.66
 30
0.0
 10
1.4116
 20
-28.66
 30
0.0
 10
1.4116
 20
-28.66
 30
0.0
 10
1.4116
 20
-28.66
 30
0.0
 10
1.4116
 20
-23.922
 30
0.0
 10
1.4116
 20
-23.922
 30
0.0
  0
SPLINE
  5
76
330
1F
100
AcDbEntity
  8
DEFAULT_1
 62
   250
100
AcDbSpline
210
0.0
220
0.0
230
1.0
 70
    27
 71
     3
 72
    12
 73
     8
 74
     0
 42
0.0000000001
 43
0.0000000001
 40
0.0
 40
0.0
 40
0.0
 40
0.0
 40
0.3333333333333333
 40
0.3333333333333333
 40
0.3333333333333333
 40
0.3333333333333333
 40
1.0
 40
1.0
 40
1.0
 40
1.0
 10
-0.0259
 20
-28.66
 30
0.0
 10
-0.0259
 20
-28.66
 30
0.0
 10
-0.0259
 20
-23.922
 30
0.0
 10
-0.0259
 20
-23.922
 30
0.0
 10
-0.0259
 20
-23.922
 30
0.0
 10
-0.0259
 20
-23.922
 30
0.0
 10
-0.0259
 20
-28.66
 30
0.0
 10
-0.0259
 20
-28.66
 30
0.0
  0
SPLINE
  5
77
330
1F
100
AcDbEntity
  8
DEFAULT_1
 62
   250
100
AcDbSpline
210
0.0
220
0.0
230
1.0
 70
    27
 71
     3
 72
    12
 73
     8
 74
     0
 42
0.0000000001
 43
0.0000000001
 40
0.0
 40
0.0
 40
0.0
 40
0.0
 40
0.3333333333333333
 40
0.3333333333333333
 40
0.3333333333333333
 40
0.3333333333333333
 40
1.0
 40
1.0
 40
1.0
 40
1.0
 10
-0.9425
 20
-23.9065
 30
0.0
 10
-0.9425
 20
-23.9065
 30
0.0
 10
-0.9425
 20
-28.6445
 30
0.0
 10
-0.9425
 20
-28.6445
 30
0.0
 10
-0.9425
 20
-28.6445
 30
0.0
 10
-0.9425
 20
-28.6445
 30
0.0
 10
-0.9425
 20
-23.9065
 30
0.0
 10
-0.9425
 20
-23.9065
 30
0.0
  0
SPLINE
  5
78
330
1F
100
AcDbEntity
  8
DEFAULT_1
 62
   250
100
AcDbSpline
210
0.0
220
0.0
230
1.0
 70
    27
 71
     3
 72
    12
 73
     8
 74
     0
 42
0.0000000001
 43
0.0000000001
 40
0.0
 40
0.0
 40
0.0
 40
0.0
 40
0.3333333333333333
 40
0.3333333333333333
 40
0.3333333333333333
 40
0.3333333333333333
 40
1.0
 40
1.0
 40
1.0
 40
1.0
 10
-2.38
 20
-28.6445
 30
0.0
 10
-2.38
 20
-28.6445
 30
0.0
 10
-2.38
 20
-23.9065
 30
0.0
 10
-2.38
 20
-23.9065
 30
0.0
 10
-2.38
 20
-23.9065
 30
0.0
 10
-2.38
 20
-23.9065
 30
0.0
 10
-2.38
 20
-28.6445
 30
0.0
 10
-2.38
 20
-28.6445
 30
0.0
  0
SPLINE
  5
79
330
1F
100
AcDbEntity
  8
DEFAULT_1
 62
   250
100
AcDbSpline
210
0.0
220
0.0
230
1.0
 70
    27
 71
     3
 72
    12
 73
     8
 74
     0
 42
0.0000000001
 43
0.0000000001
 40
0.0
 40
0.0
 40
0.0
 40
0.0
 40
0.3333333333333333
 40
0.3333333333333333
 40
0.3333333333333333
 40
0.3333333333333333
 40
1.0
 40
1.0
 40
1.0
 40
1.0
 10
-4.7556
 20
-28.66
 30
0.0
 10
-4.7556
 20
-28.66
 30
0.0
 10
-4.7556
 20
-23.922
 30
0.0
 10
-4.7556
 20
-23.922
 30
0.0
 10
-4.7556
 20
-23.922
 30
0.0
 10
-4.7556
 20
-23.922
 30
0.0
 10
-4.7556
 20
-28.66
 30
0.0
 10
-4.7556
 20
-28.66
 30
0.0
  0
SPLINE
  5
7A
330
1F
100
AcDbEntity
  8
DEFAULT_1
 62
   250
100
AcDbSpline
210
0.0
220
0.0
230
1.0
 70
     8
 71
     3
 72
    12
 73
     8
 74
     0
 42
0.0000000001
 43
0.0000000001
 40
0.0
 40
0.0
 40
0.0
 40
0.0
 40
0.3333333333333333
 40
0.3333333333333333
 40
0.3333333333333333
 40
0.3333333333333333
 40
1.0
 40
1.0
 40
1.0
 40
1.0
 10
-4.7556
 20
-28.66
 30
0.0
 10
-4.7556
 20
-29.0572
 30
0.0
 10
-4.4338
 20
-29.3792
 30
0.0
 10
-4.0368
 20
-29.3792
 30
0.0
 10
-4.0368
 20
-29.3792
 30
0.0
 10
-3.6399
 20
-29.3792
 30
0.0
 10
-3.3181
 20
-29.0572
 30
0.0
 10
-3.3181
 20
-28.66
 30
0.0
  0
SPLINE
  5
7B
330
1F
100
AcDbEntity
  8
DEFAULT_1
 62
   250
100
AcDbSpline
210
0.0
220
0.0
230
1.0
 70
     8
 71
     3
 72
    12
 73
     8
 74
     0
 42
0.0000000001
 43
0.0000000001
 40
0.0
 40
0.0
 40
0.0
 40
0.0
 40
0.3333333333333333
 40
0.3333333333333333
 40
0.3333333333333333
 40
0.3333333333333333
 40
1.0
 40
1.0
 40
1.0
 40
1.0
 10
-0.0259
 20
-28.66
 30
0.0
 10
-0.0259
 20
-29.0572
 30
0.0
 10
0.2959
 20
-29.3792
 30
0.0
 10
0.6928
 20
-29.3792
 30
0.0
 10
0.6928
 20
-29.3792
 30
0.0
 10
1.0898
 20
-29.3792
 30
0.0
 10
1.4116
 20
-29.0572
 30
0.0
 10
1.4116
 20
-28.66
 30
0.0
  0
SPLINE
  5
7C
330
1F
100
AcDbEntity
  8
DEFAULT_1
 62
   250
100
AcDbSpline
210
0.0
220
0.0
230
1.0
 70
     8
 71
     3
 72
    12
 73
     8
 74
     0
 42
0.0000000001
 43
0.0000000001
 40
0.0
 40
0.0
 40
0.0
 40
0.0
 40
0.3333333333333333
 40
0.3333333333333333
 40
0.3333333333333333
 40
0.3333333333333333
 40
1.0
 40
1.0
 40
1.0
 40
1.0
 10
1.4116
 20
-23.922
 30
0.0
 10
1.4116
 20
-23.5248
 30
0.0
 10
1.0898
 20
-23.2028
 30
0.0
 10
0.6928
 20
-23.2028
 30
0.0
 10
0.6928
 20
-23.2028
 30
0.0
 10
0.2959
 20
-23.2028
 30
0.0
 10
-0.0259
 20
-23.5248
 30
0.0
 10
-0.0259
 20
-23.922
 30
0.0
  0
SPLINE
  5
7D
330
1F
100
AcDbEntity
  8
DEFAULT_1
 62
   250
100
AcDbSpline
210
0.0
220
0.0
230
1.0
 70
     8
 71
     3
 72
    12
 73
     8
 74
     0
 42
0.0000000001
 43
0.0000000001
 40
0.0
 40
0.0
 40
0.0
 40
0.0
 40
0.3333333333333333
 40
0.3333333333333333
 40
0.3333333333333333
 40
0.3333333333333333
 40
1.0
 40
1.0
 40
1.0
 40
1.0
 10
-2.38
 20
-28.6445
 30
0.0
 10
-2.38
 20
-29.0417
 30
0.0
 10
-2.0582
 20
-29.3637
 30
0.0
 10
-1.6612
 20
-29.3637
 30
0.0
 10
-1.6612
 20
-29.3637
 30
0.0
 10
-1.2643
 20
-29.3637
 30
0.0
 10
-0.9425
 20
-29.0417
 30
0.0
 10
-0.9425
 20
-28.6445
 30
0.0
  0
SPLINE
  5
7E
330
1F
100
AcDbEntity
  8
DEFAULT_1
 62
   250
100
AcDbSpline
210
0.0
220
0.0
230
1.0
 70
     8
 71
     3
 72
    12
 73
     8
 74
     0
 42
0.0000000001
 43
0.0000000001
 40
0.0
 40
0.0
 40
0.0
 40
0.0
 40
0.3333333333333333
 40
0.3333333333333333
 40
0.3333333333333333
 40
0.3333333333333333
 40
1.0
 40
1.0
 40
1.0
 40
1.0
 10
-0.9425
 20
-23.9065
 30
0.0
 10
-0.9425
 20
-23.5093
 30
0.0
 10
-1.2643
 20
-23.1873
 30
0.0
 10
-1.6612
 20
-23.1873
 30
0.0
 10
-1.6612
 20
-23.1873
 30
0.0
 10
-2.0582
 20
-23.1873
 30
0.0
 10
-2.38
 20
-23.5093
 30
0.0
 10
-2.38
 20
-23.9065
 30
0.0
  0
SPLINE
  5
7F
330
1F
100
AcDbEntity
  8
DEFAULT_1
 62
   250
100
AcDbSpline
210
0.0
220
0.0
230
1.0
 70
     8
 71
     3
 72
    12
 73
     8
 74
     0
 42
0.0000000001
 43
0.0000000001
 40
0.0
 40
0.0
 40
0.0
 40
0.0
 40
0.3333333333333333
 40
0.3333333333333333
 40
0.3333333333333333
 40
0.3333333333333333
 40
1.0
 40
1.0
 40
1.0
 40
1.0
 10
-3.3181
 20
-23.922
 30
0.0
 10
-3.3181
 20
-23.5248
 30
0.0
 10
-3.6399
 20
-23.2028
 30
0.0
 10
-4.0368
 20
-23.2028
 30
0.0
 10
-4.0368
 20
-23.2028
 30
0.0
 10
-4.4338
 20
-23.2028
 30
0.0
 10
-4.7556
 20
-23.5248
 30
0.0
 10
-4.7556
 20
-23.922
 30
0.0
  0
SPLINE
  5
80
330
1F
100
AcDbEntity
  8
DEFAULT_1
 62
   250
100
AcDbSpline
210
0.0
220
0.0
230
1.0
 70
    24
 71
     3
 72
     8
 73
     4
 74
     0
 42
0.0000000001
 43
0.0000000001
 40
0.0
 40
0.0
 40
0.0
 40
0.0
 40
1.0
 40
1.0
 40
1.0
 40
1.0
 10
10.4875
 20
-13.7614
 30
0.0
 10
10.4875
 20
-13.7614
 30
0.0
 10
-6.085
 20
-13.7614
 30
0.0
 10
-6.085
 20
-13.7614
 30
0.0
  0
SPLINE
  5
81
330
1F
100
AcDbEntity
  8
DEFAULT_1
 62
   250
100
AcDbSpline
210
0.0
220
0.0
230
1.0
 70
    24
 71
     3
 72
     8
 73
     4
 74
     0
 42
0.0000000001
 43
0.0000000001
 40
0.0
 40
0.0
 40
0.0
 40
0.0
 40
1.0
 40
1.0
 40
1.0
 40
1.0
 10
-6.085
 20
-31.0214
 30
0.0
 10
-6.085
 20
-31.0214
 30
0.0
 10
10.4875
 20
-31.0214
 30
0.0
 10
10.4875
 20
-31.0214
 30
0.0
  0
SPLINE
  5
82
330
1F
100
AcDbEntity
  8
DEFAULT_1
 62
   250
100
AcDbSpline
210
0.0
220
0.0
230
1.0
 70
    24
 71
     3
 72
     8
 73
     4
 74
     0
 42
0.0000000001
 43
0.0000000001
 40
0.0
 40
0.0
 40
0.0
 40
0.0
 40
1.0
 40
1.0
 40
1.0
 40
1.0
 10
-6.4232
 20
-14.0998
 30
0.0
 10
-6.4232
 20
-14.0998
 30
0.0
 10
-6.4232
 20
-30.6829
 30
0.0
 10
-6.4232
 20
-30.6829
 30
0.0
  0
SPLINE
  5
83
330
1F
100
AcDbEntity
  8
DEFAULT_1
 62
   250
100
AcDbSpline
210
0.0
220
0.0
230
1.0
 70
    24
 71
     3
 72
     8
 73
     4
 74
     0
 42
0.0000000001
 43
0.0000000001
 40
0.0
 40
0.0
 40
0.0
 40
0.0
 40
1.0
 40
1.0
 40
1.0
 40
1.0
 10
10.8257
 20
-30.6829
 30
0.0
 10
10.8257
 20
-30.6829
 30
0.0
 10
10.8257
 20
-14.0998
 30
0.0
 10
10.8257
 20
-14.0998
 30
0.0
  0
SPLINE
  5
84
330
1F
100
AcDbEntity
  8
DEFAULT_1
 62
   250
100
AcDbSpline
210
0.0
220
0.0
230
1.0
 70
     8
 71
     3
 72
     8
 73
     4
 74
     0
 42
0.0000000001
 43
0.0000000001
 40
0.0
 40
0.0
 40
0.0
 40
0.0
 40
1.0
 40
1.0
 40
1.0
 40
1.0
 10
-6.085
 20
-13.7614
 30
0.0
 10
-6.2718
 20
-13.7614
 30
0.0
 10
-6.4232
 20
-13.9129
 30
0.0
 10
-6.4232
 20
-14.0998
 30
0.0
  0
SPLINE
  5
85
330
1F
100
AcDbEntity
  8
DEFAULT_1
 62
   250
100
AcDbSpline
210
0.0
220
0.0
230
1.0
 70
     8
 71
     3
 72
     8
 73
     4
 74
     0
 42
0.0000000001
 43
0.0000000001
 40
0.0
 40
0.0
 40
0.0
 40
0.0
 40
1.0
 40
1.0
 40
1.0
 40
1.0
 10
10.8257
 20
-14.0998
 30
0.0
 10
10.8257
 20
-13.9129
 30
0.0
 10
10.6743
 20
-13.7614
 30
0.0
 10
10.4875
 20
-13.7614
 30
0.0
  0
SPLINE
  5
86
330
1F
100
AcDbEntity
  8
DEFAULT_1
 62
   250
100
AcDbSpline
210
0.0
220
0.0
230
1.0
 70
     8
 71
     3
 72
     8
 73
     4
 74
     0
 42
0.0000000001
 43
0.0000000001
 40
0.0
 40
0.0
 40
0.0
 40
0.0
 40
1.0
 40
1.0
 40
1.0
 40
1.0
 10
-6.4232
 20
-30.6829
 30
0.0
 10
-6.4232
 20
-30.8699
 30
0.0
 10
-6.2718
 20
-31.0214
 30
0.0
 10
-6.085
 20
-31.0214
 30
0.0
  0
SPLINE
  5
87
330
1F
100
AcDbEntity
  8
DEFAULT_1
 62
   250
100
AcDbSpline
210
0.0
220
0.0
230
1.0
 70
     8
 71
     3
 72
     8
 73
     4
 74
     0
 42
0.0000000001
 43
0.0000000001
 40
0.0
 40
0.0
 40
0.0
 40
0.0
 40
1.0
 40
1.0
 40
1.0
 40
1.0
 10
10.4875
 20
-31.0214
 30
0.0
 10
10.6743
 20
-31.0214
 30
0.0
 10
10.8257
 20
-30.8699
 30
0.0
 10
10.8257
 20
-30.6829
 30
0.0
  0
SPLINE
  5
88
330
1F
100
AcDbEntity
  8
DEFAULT_1
 62
   250
100
AcDbSpline
210
0.0
220
0.0
230
1.0
 70
    27
 71
     3
 72
    12
 73
     8
 74
     0
 42
0.0000000001
 43
0.0000000001
 40
0.0
 40
0.0
 40
0.0
 40
0.0
 40
0.3333333333333333
 40
0.3333333333333333
 40
0.3333333333333333
 40
0.3333333333333333
 40
1.0
 40
1.0
 40
1.0
 40
1.0
 10
0.6793
 20
-16.8496
 30
0.0
 10
0.6793
 20
-16.8496
 30
0.0
 10
-4.0558
 20
-16.8496
 30
0.0
 10
-4.0558
 20
-16.8496
 30
0.0
 10
-4.0558
 20
-16.8496
 30
0.0
 10
-4.0558
 20
-16.8496
 30
0.0
 10
0.6793
 20
-16.8496
 30
0.0
 10
0.6793
 20
-16.8496
 30
0.0
  0
SPLINE
  5
89
330
1F
100
AcDbEntity
  8
DEFAULT_1
 62
   250
100
AcDbSpline
210
0.0
220
0.0
230
1.0
 70
    27
 71
     3
 72
    12
 73
     8
 74
     0
 42
0.0000000001
 43
0.0000000001
 40
0.0
 40
0.0
 40
0.0
 40
0.0
 40
0.3333333333333333
 40
0.3333333333333333
 40
0.3333333333333333
 40
0.3333333333333333
 40
1.0
 40
1.0
 40
1.0
 40
1.0
 10
0.6793
 20
-21.5823
 30
0.0
 10
0.6793
 20
-21.5823
 30
0.0
 10
-4.0558
 20
-21.5823
 30
0.0
 10
-4.0558
 20
-21.5823
 30
0.0
 10
-4.0558
 20
-21.5823
 30
0.0
 10
-4.0558
 20
-21.5823
 30
0.0
 10
0.6793
 20
-21.5823
 30
0.0
 10
0.6793
 20
-21.5823
 30
0.0
  0
SPLINE
  5
8A
330
1F
100
AcDbEntity
  8
DEFAULT_1
 62
   250
100
AcDbSpline
210
0.0
220
0.0
230
1.0
 70
    27
 71
     3
 72
    12
 73
     8
 74
     0
 42
0.0000000001
 43
0.0000000001
 40
0.0
 40
0.0
 40
0.0
 40
0.0
 40
0.3333333333333333
 40
0.3333333333333333
 40
0.3333333333333333
 40
0.3333333333333333
 40
1.0
 40
1.0
 40
1.0
 40
1.0
 10
-4.0558
 20
-20.1439
 30
0.0
 10
-4.0558
 20
-20.1439
 30
0.0
 10
0.6793
 20
-20.1439
 30
0.0
 10
0.6793
 20
-20.1439
 30
0.0
 10
0.6793
 20
-20.1439
 30
0.0
 10
0.6793
 20
-20.1439
 30
0.0
 10
-4.0558
 20
-20.1439
 30
0.0
 10
-4.0558
 20
-20.1439
 30
0.0
  0
SPLINE
  5
8B
330
1F
100
AcDbEntity
  8
DEFAULT_1
 62
   250
100
AcDbSpline
210
0.0
220
0.0
230
1.0
 70
    27
 71
     3
 72
    12
 73
     8
 74
     0
 42
0.0000000001
 43
0.0000000001
 40
0.0
 40
0.0
 40
0.0
 40
0.0
 40
0.3333333333333333
 40
0.3333333333333333
 40
0.3333333333333333
 40
0.3333333333333333
 40
1.0
 40
1.0
 40
1.0
 40
1.0
 10
0.6948
 20
-19.2267
 30
0.0
 10
0.6948
 20
-19.2267
 30
0.0
 10
-4.0402
 20
-19.2267
 30
0.0
 10
-4.0402
 20
-19.2267
 30
0.0
 10
-4.0402
 20
-19.2267
 30
0.0
 10
-4.0402
 20
-19.2267
 30
0.0
 10
0.6948
 20
-19.2267
 30
0.0
 10
0.6948
 20
-19.2267
 30
0.0
  0
SPLINE
  5
8C
330
1F
100
AcDbEntity
  8
DEFAULT_1
 62
   250
100
AcDbSpline
210
0.0
220
0.0
230
1.0
 70
    27
 71
     3
 72
    12
 73
     8
 74
     0
 42
0.0000000001
 43
0.0000000001
 40
0.0
 40
0.0
 40
0.0
 40
0.0
 40
0.3333333333333333
 40
0.3333333333333333
 40
0.3333333333333333
 40
0.3333333333333333
 40
1.0
 40
1.0
 40
1.0
 40
1.0
 10
-4.0402
 20
-17.7884
 30
0.0
 10
-4.0402
 20
-17.7884
 30
0.0
 10
0.6948
 20
-17.7884
 30
0.0
 10
0.6948
 20
-17.7884
 30
0.0
 10
0.6948
 20
-17.7884
 30
0.0
 10
0.6948
 20
-17.7884
 30
0.0
 10
-4.0402
 20
-17.7884
 30
0.0
 10
-4.0402
 20
-17.7884
 30
0.0
  0
SPLINE
  5
8D
330
1F
100
AcDbEntity
  8
DEFAULT_1
 62
   250
100
AcDbSpline
210
0.0
220
0.0
230
1.0
 70
    27
 71
     3
 72
    12
 73
     8
 74
     0
 42
0.0000000001
 43
0.0000000001
 40
0.0
 40
0.0
 40
0.0
 40
0.0
 40
0.3333333333333333
 40
0.3333333333333333
 40
0.3333333333333333
 40
0.3333333333333333
 40
1.0
 40
1.0
 40
1.0
 40
1.0
 10
-4.0558
 20
-15.4112
 30
0.0
 10
-4.0558
 20
-15.4112
 30
0.0
 10
0.6793
 20
-15.4112
 30
0.0
 10
0.6793
 20
-15.4112
 30
0.0
 10
0.6793
 20
-15.4112
 30
0.0
 10
0.6793
 20
-15.4112
 30
0.0
 10
-4.0558
 20
-15.4112
 30
0.0
 10
-4.0558
 20
-15.4112
 30
0.0
  0
SPLINE
  5
8E
330
1F
100
AcDbEntity
  8
DEFAULT_1
 62
   250
100
AcDbSpline
210
0.0
220
0.0
230
1.0
 70
     8
 71
     3
 72
    12
 73
     8
 74
     0
 42
0.0000000001
 43
0.0000000001
 40
0.0
 40
0.0
 40
0.0
 40
0.0
 40
0.3333333333333333
 40
0.3333333333333333
 40
0.3333333333333333
 40
0.3333333333333333
 40
1.0
 40
1.0
 40
1.0
 40
1.0
 10
-4.0558
 20
-15.4112
 30
0.0
 10
-4.4527
 20
-15.4112
 30
0.0
 10
-4.7745
 20
-15.7332
 30
0.0
 10
-4.7745
 20
-16.1304
 30
0.0
 10
-4.7745
 20
-16.1304
 30
0.0
 10
-4.7745
 20
-16.5276
 30
0.0
 10
-4.4527
 20
-16.8496
 30
0.0
 10
-4.0558
 20
-16.8496
 30
0.0
  0
SPLINE
  5
8F
330
1F
100
AcDbEntity
  8
DEFAULT_1
 62
   250
100
AcDbSpline
210
0.0
220
0.0
230
1.0
 70
     8
 71
     3
 72
    12
 73
     8
 74
     0
 42
0.0000000001
 43
0.0000000001
 40
0.0
 40
0.0
 40
0.0
 40
0.0
 40
0.3333333333333333
 40
0.3333333333333333
 40
0.3333333333333333
 40
0.3333333333333333
 40
1.0
 40
1.0
 40
1.0
 40
1.0
 10
-4.0558
 20
-20.1439
 30
0.0
 10
-4.4527
 20
-20.1439
 30
0.0
 10
-4.7745
 20
-20.4659
 30
0.0
 10
-4.7745
 20
-20.8631
 30
0.0
 10
-4.7745
 20
-20.8631
 30
0.0
 10
-4.7745
 20
-21.2603
 30
0.0
 10
-4.4527
 20
-21.5823
 30
0.0
 10
-4.0558
 20
-21.5823
 30
0.0
  0
SPLINE
  5
90
330
1F
100
AcDbEntity
  8
DEFAULT_1
 62
   250
100
AcDbSpline
210
0.0
220
0.0
230
1.0
 70
     8
 71
     3
 72
    12
 73
     8
 74
     0
 42
0.0000000001
 43
0.0000000001
 40
0.0
 40
0.0
 40
0.0
 40
0.0
 40
0.3333333333333333
 40
0.3333333333333333
 40
0.3333333333333333
 40
0.3333333333333333
 40
1.0
 40
1.0
 40
1.0
 40
1.0
 10
0.6793
 20
-21.5823
 30
0.0
 10
1.0762
 20
-21.5823
 30
0.0
 10
1.3979
 20
-21.2603
 30
0.0
 10
1.3979
 20
-20.8631
 30
0.0
 10
1.3979
 20
-20.8631
 30
0.0
 10
1.3979
 20
-20.4659
 30
0.0
 10
1.0762
 20
-20.1439
 30
0.0
 10
0.6793
 20
-20.1439
 30
0.0
  0
SPLINE
  5
91
330
1F
100
AcDbEntity
  8
DEFAULT_1
 62
   250
100
AcDbSpline
210
0.0
220
0.0
230
1.0
 70
     8
 71
     3
 72
    12
 73
     8
 74
     0
 42
0.0000000001
 43
0.0000000001
 40
0.0
 40
0.0
 40
0.0
 40
0.0
 40
0.3333333333333333
 40
0.3333333333333333
 40
0.3333333333333333
 40
0.3333333333333333
 40
1.0
 40
1.0
 40
1.0
 40
1.0
 10
-4.0402
 20
-17.7884
 30
0.0
 10
-4.4372
 20
-17.7884
 30
0.0
 10
-4.759
 20
-18.1103
 30
0.0
 10
-4.759
 20
-18.5075
 30
0.0
 10
-4.759
 20
-18.5075
 30
0.0
 10
-4.759
 20
-18.9047
 30
0.0
 10
-4.4372
 20
-19.2267
 30
0.0
 10
-4.0402
 20
-19.2267
 30
0.0
  0
SPLINE
  5
92
330
1F
100
AcDbEntity
  8
DEFAULT_1
 62
   250
100
AcDbSpline
210
0.0
220
0.0
230
1.0
 70
     8
 71
     3
 72
    12
 73
     8
 74
     0
 42
0.0000000001
 43
0.0000000001
 40
0.0
 40
0.0
 40
0.0
 40
0.0
 40
0.3333333333333333
 40
0.3333333333333333
 40
0.3333333333333333
 40
0.3333333333333333
 40
1.0
 40
1.0
 40
1.0
 40
1.0
 10
0.6948
 20
-19.2267
 30
0.0
 10
1.0917
 20
-19.2267
 30
0.0
 10
1.4134
 20
-18.9047
 30
0.0
 10
1.4134
 20
-18.5075
 30
0.0
 10
1.4134
 20
-18.5075
 30
0.0
 10
1.4134
 20
-18.1103
 30
0.0
 10
1.0917
 20
-17.7884
 30
0.0
 10
0.6948
 20
-17.7884
 30
0.0
  0
SPLINE
  5
93
330
1F
100
AcDbEntity
  8
DEFAULT_1
 62
   250
100
AcDbSpline
210
0.0
220
0.0
230
1.0
 70
     8
 71
     3
 72
    12
 73
     8
 74
     0
 42
0.0000000001
 43
0.0000000001
 40
0.0
 40
0.0
 40
0.0
 40
0.0
 40
0.3333333333333333
 40
0.3333333333333333
 40
0.3333333333333333
 40
0.3333333333333333
 40
1.0
 40
1.0
 40
1.0
 40
1.0
 10
0.6793
 20
-16.8496
 30
0.0
 10
1.0762
 20
-16.8496
 30
0.0
 10
1.3979
 20
-16.5276
 30
0.0
 10
1.3979
 20
-16.1304
 30
0.0
 10
1.3979
 20
-16.1304
 30
0.0
 10
1.3979
 20
-15.7332
 30
0.0
 10
1.0762
 20
-15.4112
 30
0.0
 10
0.6793
 20
-15.4112
 30
0.0
  0
SPLINE
  5
94
330
1F
100
AcDbEntity
  8
DEFAULT_1
 62
   250
100
AcDbSpline
210
0.0
220
0.0
230
1.0
 70
    11
 71
     3
 72
    40
 73
    36
 74
     0
 42
0.0000000001
 43
0.0000000001
 40
0.0
 40
0.0
 40
0.0
 40
0.0
 40
0.1
 40
0.1
 40
0.1
 40
0.1
 40
0.2
 40
0.2
 40
0.2
 40
0.2
 40
0.3
 40
0.3
 40
0.3
 40
0.3
 40
0.4
 40
0.4
 40
0.4
 40
0.4
 40
0.5
 40
0.5
 40
0.5
 40
0.5
 40
0.6
 40
0.6
 40
0.6
 40
0.6
 40
0.7
 40
0.7
 40
0.7
 40
0.7
 40
0.8
 40
0.8
 40
0.8
 40
0.8
 40
1.0
 40
1.0
 40
1.0
 40
1.0
 10
0.7629
 20
-39.6159
 30
0.0
 10
0.7629
 20
-39.6159
 30
0.0
 10
0.515
 20
-39.6159
 30
0.0
 10
0.515
 20
-39.6159
 30
0.0
 10
0.515
 20
-39.6159
 30
0.0
 10
0.515
 20
-39.6159
 30
0.0
 10
0.515
 20
-38.0355
 30
0.0
 10
0.515
 20
-38.0355
 30
0.0
 10
0.515
 20
-38.0355
 30
0.0
 10
0.4552
 20
-38.0924
 30
0.0
 10
0.3772
 20
-38.1493
 30
0.0
 10
0.2803
 20
-38.2062
 30
0.0
 10
0.2803
 20
-38.2062
 30
0.0
 10
0.1829
 20
-38.2631
 30
0.0
 10
0.0959
 20
-38.3059
 30
0.0
 10
0.0187
 20
-38.3342
 30
0.0
 10
0.0187
 20
-38.3342
 30
0.0
 10
0.0187
 20
-38.3342
 30
0.0
 10
0.0187
 20
-38.0947
 30
0.0
 10
0.0187
 20
-38.0947
 30
0.0
 10
0.0187
 20
-38.0947
 30
0.0
 10
0.1575
 20
-38.0294
 30
0.0
 10
0.2789
 20
-37.9503
 30
0.0
 10
0.3828
 20
-37.8577
 30
0.0
 10
0.3828
 20
-37.8577
 30
0.0
 10
0.4863
 20
-37.7645
 30
0.0
 10
0.5601
 20
-37.6747
 30
0.0
 10
0.6034
 20
-37.5872
 30
0.0
 10
0.6034
 20
-37.5872
 30
0.0
 10
0.6034
 20
-37.5872
 30
0.0
 10
0.7629
 20
-37.5872
 30
0.0
 10
0.7629
 20
-37.5872
 30
0.0
 10
0.7629
 20
-37.5872
 30
0.0
 10
0.7629
 20
-37.5872
 30
0.0
 10
0.7629
 20
-39.6159
 30
0.0
 10
0.7629
 20
-39.6159
 30
0.0
  0
SPLINE
  5
95
330
1F
100
AcDbEntity
  8
DEFAULT_1
 62
   250
100
AcDbSpline
210
0.0
220
0.0
230
1.0
 70
    11
 71
     3
 72
    52
 73
    48
 74
     0
 42
0.0000000001
 43
0.0000000001
 40
0.0
 40
0.0
 40
0.0
 40
0.0
 40
0.0769230769230769
 40
0.0769230769230769
 40
0.0769230769230769
 40
0.0769230769230769
 40
0.1538461538461539
 40
0.1538461538461539
 40
0.1538461538461539
 40
0.1538461538461539
 40
0.2307692307692308
 40
0.2307692307692308
 40
0.2307692307692308
 40
0.2307692307692308
 40
0.3076923076923077
 40
0.3076923076923077
 40
0.3076923076923077
 40
0.3076923076923077
 40
0.3846153846153846
 40
0.3846153846153846
 40
0.3846153846153846
 40
0.3846153846153846
 40
0.4615384615384616
 40
0.4615384615384616
 40
0.4615384615384616
 40
0.4615384615384616
 40
0.5384615384615384
 40
0.5384615384615384
 40
0.5384615384615384
 40
0.5384615384615384
 40
0.6153846153846154
 40
0.6153846153846154
 40
0.6153846153846154
 40
0.6153846153846154
 40
0.6923076923076923
 40
0.6923076923076923
 40
0.6923076923076923
 40
0.6923076923076923
 40
0.7692307692307693
 40
0.7692307692307693
 40
0.7692307692307693
 40
0.7692307692307693
 40
0.8461538461538461
 40
0.8461538461538461
 40
0.8461538461538461
 40
0.8461538461538461
 40
1.0
 40
1.0
 40
1.0
 40
1.0
 10
1.3983
 20
-38.6197
 30
0.0
 10
1.3983
 20
-38.3807
 30
0.0
 10
1.4228
 20
-38.1883
 30
0.0
 10
1.4722
 20
-38.043
 30
0.0
 10
1.4722
 20
-38.043
 30
0.0
 10
1.5211
 20
-37.8972
 30
0.0
 10
1.5945
 20
-37.7848
 30
0.0
 10
1.6914
 20
-37.7057
 30
0.0
 10
1.6914
 20
-37.7057
 30
0.0
 10
1.7883
 20
-37.6267
 30
0.0
 10
1.9101
 20
-37.5872
 30
0.0
 10
2.0568
 20
-37.5872
 30
0.0
 10
2.0568
 20
-37.5872
 30
0.0
 10
2.1655
 20
-37.5872
 30
0.0
 10
2.2605
 20
-37.6093
 30
0.0
 10
2.3423
 20
-37.6531
 30
0.0
 10
2.3423
 20
-37.6531
 30
0.0
 10
2.4242
 20
-37.6963
 30
0.0
 10
2.4915
 20
-37.7594
 30
0.0
 10
2.5451
 20
-37.8417
 30
0.0
 10
2.5451
 20
-37.8417
 30
0.0
 10
2.5982
 20
-37.924
 30
0.0
 10
2.6401
 20
-38.0242
 30
0.0
 10
2.6702
 20
-38.1422
 30
0.0
 10
2.6702
 20
-38.1422
 30
0.0
 10
2.7008
 20
-38.2603
 30
0.0
 10
2.7158
 20
-38.4193
 30
0.0
 10
2.7158
 20
-38.6197
 30
0.0
 10
2.7158
 20
-38.6197
 30
0.0
 10
2.7158
 20
-38.8567
 30
0.0
 10
2.6914
 20
-39.0477
 30
0.0
 10
2.6429
 20
-39.1935
 30
0.0
 10
2.6429
 20
-39.1935
 30
0.0
 10
2.594
 20
-39.3393
 30
0.0
 10
2.5211
 20
-39.4517
 30
0.0
 10
2.4242
 20
-39.5312
 30
0.0
 10
2.4242
 20
-39.5312
 30
0.0
 10
2.3273
 20
-39.6107
 30
0.0
 10
2.205
 20
-39.6502
 30
0.0
 10
2.0568
 20
-39.6502
 30
0.0
 10
2.0568
 20
-39.6502
 30
0.0
 10
1.8621
 20
-39.6502
 30
0.0
 10
1.7092
 20
-39.5806
 30
0.0
 10
1.5982
 20
-39.4409
 30
0.0
 10
1.5982
 20
-39.4409
 30
0.0
 10
1.4651
 20
-39.273
 30
0.0
 10
1.3983
 20
-38.9988
 30
0.0
 10
1.3983
 20
-38.6197
 30
0.0
  0
SPLINE
  5
96
330
1F
100
AcDbEntity
  8
DEFAULT_1
 62
   250
100
AcDbSpline
210
0.0
220
0.0
230
1.0
 70
    11
 71
     3
 72
    36
 73
    32
 74
     0
 42
0.0000000001
 43
0.0000000001
 40
0.0
 40
0.0
 40
0.0
 40
0.0
 40
0.1111111111111111
 40
0.1111111111111111
 40
0.1111111111111111
 40
0.1111111111111111
 40
0.2222222222222222
 40
0.2222222222222222
 40
0.2222222222222222
 40
0.2222222222222222
 40
0.3333333333333333
 40
0.3333333333333333
 40
0.3333333333333333
 40
0.3333333333333333
 40
0.4444444444444444
 40
0.4444444444444444
 40
0.4444444444444444
 40
0.4444444444444444
 40
0.5555555555555556
 40
0.5555555555555556
 40
0.5555555555555556
 40
0.5555555555555556
 40
0.6666666666666666
 40
0.6666666666666666
 40
0.6666666666666666
 40
0.6666666666666666
 40
0.7777777777777778
 40
0.7777777777777778
 40
0.7777777777777778
 40
0.7777777777777778
 40
1.0
 40
1.0
 40
1.0
 40
1.0
 10
1.6533
 20
-38.6197
 30
0.0
 10
1.6533
 20
-38.9513
 30
0.0
 10
1.6923
 20
-39.1719
 30
0.0
 10
1.7699
 20
-39.2819
 30
0.0
 10
1.7699
 20
-39.2819
 30
0.0
 10
1.8475
 20
-39.3915
 30
0.0
 10
1.943
 20
-39.4466
 30
0.0
 10
2.0568
 20
-39.4466
 30
0.0
 10
2.0568
 20
-39.4466
 30
0.0
 10
2.1711
 20
-39.4466
 30
0.0
 10
2.2666
 20
-39.3911
 30
0.0
 10
2.3442
 20
-39.281
 30
0.0
 10
2.3442
 20
-39.281
 30
0.0
 10
2.4218
 20
-39.1709
 30
0.0
 10
2.4609
 20
-38.9503
 30
0.0
 10
2.4609
 20
-38.6197
 30
0.0
 10
2.4609
 20
-38.6197
 30
0.0
 10
2.4609
 20
-38.2871
 30
0.0
 10
2.4218
 20
-38.066
 30
0.0
 10
2.3442
 20
-37.9569
 30
0.0
 10
2.3442
 20
-37.9569
 30
0.0
 10
2.2666
 20
-37.8473
 30
0.0
 10
2.1702
 20
-37.7928
 30
0.0
 10
2.0545
 20
-37.7928
 30
0.0
 10
2.0545
 20
-37.7928
 30
0.0
 10
1.9402
 20
-37.7928
 30
0.0
 10
1.8494
 20
-37.8412
 30
0.0
 10
1.7812
 20
-37.9376
 30
0.0
 10
1.7812
 20
-37.9376
 30
0.0
 10
1.6961
 20
-38.0604
 30
0.0
 10
1.6533
 20
-38.2881
 30
0.0
 10
1.6533
 20
-38.6197
 30
0.0
  0
SPLINE
  5
97
330
1F
100
AcDbEntity
  8
DEFAULT_1
 62
   250
100
AcDbSpline
210
0.0
220
0.0
230
1.0
 70
    11
 71
     3
 72
    92
 73
    88
 74
     0
 42
0.0000000001
 43
0.0000000001
 40
0.0
 40
0.0
 40
0.0
 40
0.0
 40
0.0434782608695652
 40
0.0434782608695652
 40
0.0434782608695652
 40
0.0434782608695652
 40
0.0869565217391304
 40
0.0869565217391304
 40
0.0869565217391304
 40
0.0869565217391304
 40
0.1304347826086956
 40
0.1304347826086956
 40
0.1304347826086956
 40
0.1304347826086956
 40
0.1739130434782609
 40
0.1739130434782609
 40
0.1739130434782609
 40
0.1739130434782609
 40
0.2173913043478261
 40
0.2173913043478261
 40
0.2173913043478261
 40
0.2173913043478261
 40
0.2608695652173913
 40
0.2608695652173913
 40
0.2608695652173913
 40
0.2608695652173913
 40
0.3043478260869565
 40
0.3043478260869565
 40
0.3043478260869565
 40
0.3043478260869565
 40
0.3478260869565217
 40
0.3478260869565217
 40
0.3478260869565217
 40
0.3478260869565217
 40
0.391304347826087
 40
0.391304347826087
 40
0.391304347826087
 40
0.391304347826087
 40
0.4347826086956522
 40
0.4347826086956522
 40
0.4347826086956522
 40
0.4347826086956522
 40
0.4782608695652174
 40
0.4782608695652174
 40
0.4782608695652174
 40
0.4782608695652174
 40
0.5217391304347826
 40
0.5217391304347826
 40
0.5217391304347826
 40
0.5217391304347826
 40
0.5652173913043478
 40
0.5652173913043478
 40
0.5652173913043478
 40
0.5652173913043478
 40
0.6086956521739131
 40
0.6086956521739131
 40
0.6086956521739131
 40
0.6086956521739131
 40
0.6521739130434783
 40
0.6521739130434783
 40
0.6521739130434783
 40
0.6521739130434783
 40
0.6956521739130435
 40
0.6956521739130435
 40
0.6956521739130435
 40
0.6956521739130435
 40
0.7391304347826086
 40
0.7391304347826086
 40
0.7391304347826086
 40
0.7391304347826086
 40
0.782608695652174
 40
0.782608695652174
 40
0.782608695652174
 40
0.782608695652174
 40
0.8260869565217391
 40
0.8260869565217391
 40
0.8260869565217391
 40
0.8260869565217391
 40
0.8695652173913043
 40
0.8695652173913043
 40
0.8695652173913043
 40
0.8695652173913043
 40
0.9130434782608695
 40
0.9130434782608695
 40
0.9130434782608695
 40
0.9130434782608695
 40
1.0
 40
1.0
 40
1.0
 40
1.0
 10
2.9679
 20
-39.0867
 30
0.0
 10
2.9679
 20
-39.0867
 30
0.0
 10
3.2285
 20
-39.0646
 30
0.0
 10
3.2285
 20
-39.0646
 30
0.0
 10
3.2285
 20
-39.0646
 30
0.0
 10
3.2478
 20
-39.1916
 30
0.0
 10
3.2925
 20
-39.2866
 30
0.0
 10
3.3626
 20
-39.3506
 30
0.0
 10
3.3626
 20
-39.3506
 30
0.0
 10
3.4331
 20
-39.4146
 30
0.0
 10
3.5178
 20
-39.4466
 30
0.0
 10
3.617
 20
-39.4466
 30
0.0
 10
3.617
 20
-39.4466
 30
0.0
 10
3.7365
 20
-39.4466
 30
0.0
 10
3.8376
 20
-39.4014
 30
0.0
 10
3.9199
 20
-39.3116
 30
0.0
 10
3.9199
 20
-39.3116
 30
0.0
 10
4.0027
 20
-39.2213
 30
0.0
 10
4.0441
 20
-39.1018
 30
0.0
 10
4.0441
 20
-38.9532
 30
0.0
 10
4.0441
 20
-38.9532
 30
0.0
 10
4.0441
 20
-38.8116
 30
0.0
 10
4.0046
 20
-38.7001
 30
0.0
 10
3.9251
 20
-38.6183
 30
0.0
 10
3.9251
 20
-38.6183
 30
0.0
 10
3.8456
 20
-38.5364
 30
0.0
 10
3.7417
 20
-38.4955
 30
0.0
 10
3.6128
 20
-38.4955
 30
0.0
 10
3.6128
 20
-38.4955
 30
0.0
 10
3.5328
 20
-38.4955
 30
0.0
 10
3.4609
 20
-38.5138
 30
0.0
 10
3.3964
 20
-38.55
 30
0.0
 10
3.3964
 20
-38.55
 30
0.0
 10
3.332
 20
-38.5863
 30
0.0
 10
3.2817
 20
-38.6333
 30
0.0
 10
3.245
 20
-38.6912
 30
0.0
 10
3.245
 20
-38.6912
 30
0.0
 10
3.245
 20
-38.6912
 30
0.0
 10
3.0121
 20
-38.6611
 30
0.0
 10
3.0121
 20
-38.6611
 30
0.0
 10
3.0121
 20
-38.6611
 30
0.0
 10
3.0121
 20
-38.6611
 30
0.0
 10
3.2078
 20
-37.6234
 30
0.0
 10
3.2078
 20
-37.6234
 30
0.0
 10
3.2078
 20
-37.6234
 30
0.0
 10
3.2078
 20
-37.6234
 30
0.0
 10
4.2125
 20
-37.6234
 30
0.0
 10
4.2125
 20
-37.6234
 30
0.0
 10
4.2125
 20
-37.6234
 30
0.0
 10
4.2125
 20
-37.6234
 30
0.0
 10
4.2125
 20
-37.8605
 30
0.0
 10
4.2125
 20
-37.8605
 30
0.0
 10
4.2125
 20
-37.8605
 30
0.0
 10
4.2125
 20
-37.8605
 30
0.0
 10
3.4063
 20
-37.8605
 30
0.0
 10
3.4063
 20
-37.8605
 30
0.0
 10
3.4063
 20
-37.8605
 30
0.0
 10
3.4063
 20
-37.8605
 30
0.0
 10
3.2972
 20
-38.4033
 30
0.0
 10
3.2972
 20
-38.4033
 30
0.0
 10
3.2972
 20
-38.4033
 30
0.0
 10
3.4185
 20
-38.3186
 30
0.0
 10
3.546
 20
-38.2763
 30
0.0
 10
3.6791
 20
-38.2763
 30
0.0
 10
3.6791
 20
-38.2763
 30
0.0
 10
3.8555
 20
-38.2763
 30
0.0
 10
4.0041
 20
-38.3374
 30
0.0
 10
4.1255
 20
-38.4597
 30
0.0
 10
4.1255
 20
-38.4597
 30
0.0
 10
4.2468
 20
-38.582
 30
0.0
 10
4.3075
 20
-38.7391
 30
0.0
 10
4.3075
 20
-38.931
 30
0.0
 10
4.3075
 20
-38.931
 30
0.0
 10
4.3075
 20
-39.114
 30
0.0
 10
4.2539
 20
-39.2721
 30
0.0
 10
4.1476
 20
-39.4052
 30
0.0
 10
4.1476
 20
-39.4052
 30
0.0
 10
4.0178
 20
-39.5684
 30
0.0
 10
3.8409
 20
-39.6502
 30
0.0
 10
3.617
 20
-39.6502
 30
0.0
 10
3.617
 20
-39.6502
 30
0.0
 10
3.4331
 20
-39.6502
 30
0.0
 10
3.2831
 20
-39.599
 30
0.0
 10
3.1669
 20
-39.496
 30
0.0
 10
3.1669
 20
-39.496
 30
0.0
 10
3.0507
 20
-39.3929
 30
0.0
 10
2.9844
 20
-39.2565
 30
0.0
 10
2.9679
 20
-39.0867
 30
0.0
  0
SPLINE
  5
98
330
1F
100
AcDbEntity
  8
DEFAULT_1
 62
   250
100
AcDbSpline
210
0.0
220
0.0
230
1.0
 70
    11
 71
     3
 72
    20
 73
    16
 74
     0
 42
0.0000000001
 43
0.0000000001
 40
0.0
 40
0.0
 40
0.0
 40
0.0
 40
0.2
 40
0.2
 40
0.2
 40
0.2
 40
0.4
 40
0.4
 40
0.4
 40
0.4
 40
0.6
 40
0.6
 40
0.6
 40
0.6
 40
1.0
 40
1.0
 40
1.0
 40
1.0
 10
8.6177
 20
-39.5577
 30
0.0
 10
8.6177
 20
-39.5577
 30
0.0
 10
11.1177
 20
-39.9106
 30
0.0
 10
11.1177
 20
-39.9106
 30
0.0
 10
11.1177
 20
-39.9106
 30
0.0
 10
11.1177
 20
-39.9106
 30
0.0
 10
11.1177
 20
-39.9889
 30
0.0
 10
11.1177
 20
-39.9889
 30
0.0
 10
11.1177
 20
-39.9889
 30
0.0
 10
11.1177
 20
-39.9889
 30
0.0
 10
8.6177
 20
-40.3652
 30
0.0
 10
8.6177
 20
-40.3652
 30
0.0
 10
8.6177
 20
-40.3652
 30
0.0
 10
8.6177
 20
-40.3652
 30
0.0
 10
8.6177
 20
-39.5577
 30
0.0
 10
8.6177
 20
-39.5577
 30
0.0
  0
SPLINE
  5
99
330
1F
100
AcDbEntity
  8
DEFAULT_1
 62
   250
100
AcDbSpline
210
0.0
220
0.0
230
1.0
 70
    11
 71
     3
 72
    20
 73
    16
 74
     0
 42
0.0000000001
 43
0.0000000001
 40
0.0
 40
0.0
 40
0.0
 40
0.0
 40
0.2
 40
0.2
 40
0.2
 40
0.2
 40
0.4
 40
0.4
 40
0.4
 40
0.4
 40
0.6
 40
0.6
 40
0.6
 40
0.6
 40
1.0
 40
1.0
 40
1.0
 40
1.0
 10
-4.1643
 20
-40.3542
 30
0.0
 10
-4.1643
 20
-40.3542
 30
0.0
 10
-6.6643
 20
-40.0013
 30
0.0
 10
-6.6643
 20
-40.0013
 30
0.0
 10
-6.6643
 20
-40.0013
 30
0.0
 10
-6.6643
 20
-40.0013
 30
0.0
 10
-6.6643
 20
-39.923
 30
0.0
 10
-6.6643
 20
-39.923
 30
0.0
 10
-6.6643
 20
-39.923
 30
0.0
 10
-6.6643
 20
-39.923
 30
0.0
 10
-4.1643
 20
-39.5467
 30
0.0
 10
-4.1643
 20
-39.5467
 30
0.0
 10
-4.1643
 20
-39.5467
 30
0.0
 10
-4.1643
 20
-39.5467
 30
0.0
 10
-4.1643
 20
-40.3542
 30
0.0
 10
-4.1643
 20
-40.3542
 30
0.0
  0
SPLINE
  5
9A
330
1F
100
AcDbEntity
  8
DEFAULT_1
 62
   250
100
AcDbSpline
210
0.0
220
0.0
230
1.0
 70
    11
 71
     3
 72
    40
 73
    36
 74
     0
 42
0.0000000001
 43
0.0000000001
 40
0.0
 40
0.0
 40
0.0
 40
0.0
 40
0.1
 40
0.1
 40
0.1
 40
0.1
 40
0.2
 40
0.2
 40
0.2
 40
0.2
 40
0.3
 40
0.3
 40
0.3
 40
0.3
 40
0.4
 40
0.4
 40
0.4
 40
0.4
 40
0.5
 40
0.5
 40
0.5
 40
0.5
 40
0.6
 40
0.6
 40
0.6
 40
0.6
 40
0.7
 40
0.7
 40
0.7
 40
0.7
 40
0.8
 40
0.8
 40
0.8
 40
0.8
 40
1.0
 40
1.0
 40
1.0
 40
1.0
 10
-13.5929
 20
-23.7698
 30
0.0
 10
-13.5929
 20
-23.7698
 30
0.0
 10
-13.5929
 20
-24.0177
 30
0.0
 10
-13.5929
 20
-24.0177
 30
0.0
 10
-13.5929
 20
-24.0177
 30
0.0
 10
-13.5929
 20
-24.0177
 30
0.0
 10
-15.1733
 20
-24.0177
 30
0.0
 10
-15.1733
 20
-24.0177
 30
0.0
 10
-15.1733
 20
-24.0177
 30
0.0
 10
-15.1164
 20
-24.0775
 30
0.0
 10
-15.0595
 20
-24.1555
 30
0.0
 10
-15.0026
 20
-24.2524
 30
0.0
 10
-15.0026
 20
-24.2524
 30
0.0
 10
-14.9457
 20
-24.3498
 30
0.0
 10
-14.9029
 20
-24.4368
 30
0.0
 10
-14.8746
 20
-24.514
 30
0.0
 10
-14.8746
 20
-24.514
 30
0.0
 10
-14.8746
 20
-24.514
 30
0.0
 10
-15.1141
 20
-24.514
 30
0.0
 10
-15.1141
 20
-24.514
 30
0.0
 10
-15.1141
 20
-24.514
 30
0.0
 10
-15.1794
 20
-24.3752
 30
0.0
 10
-15.2585
 20
-24.2538
 30
0.0
 10
-15.3511
 20
-24.1499
 30
0.0
 10
-15.3511
 20
-24.1499
 30
0.0
 10
-15.4443
 20
-24.0464
 30
0.0
 10
-15.5341
 20
-23.9726
 30
0.0
 10
-15.6216
 20
-23.9293
 30
0.0
 10
-15.6216
 20
-23.9293
 30
0.0
 10
-15.6216
 20
-23.9293
 30
0.0
 10
-15.6216
 20
-23.7698
 30
0.0
 10
-15.6216
 20
-23.7698
 30
0.0
 10
-15.6216
 20
-23.7698
 30
0.0
 10
-15.6216
 20
-23.7698
 30
0.0
 10
-13.5929
 20
-23.7698
 30
0.0
 10
-13.5929
 20
-23.7698
 30
0.0
  0
SPLINE
  5
9B
330
1F
100
AcDbEntity
  8
DEFAULT_1
 62
   250
100
AcDbSpline
210
0.0
220
0.0
230
1.0
 70
    11
 71
     3
 72
    52
 73
    48
 74
     0
 42
0.0000000001
 43
0.0000000001
 40
0.0
 40
0.0
 40
0.0
 40
0.0
 40
0.0769230769230769
 40
0.0769230769230769
 40
0.0769230769230769
 40
0.0769230769230769
 40
0.1538461538461539
 40
0.1538461538461539
 40
0.1538461538461539
 40
0.1538461538461539
 40
0.2307692307692308
 40
0.2307692307692308
 40
0.2307692307692308
 40
0.2307692307692308
 40
0.3076923076923077
 40
0.3076923076923077
 40
0.3076923076923077
 40
0.3076923076923077
 40
0.3846153846153846
 40
0.3846153846153846
 40
0.3846153846153846
 40
0.3846153846153846
 40
0.4615384615384616
 40
0.4615384615384616
 40
0.4615384615384616
 40
0.4615384615384616
 40
0.5384615384615384
 40
0.5384615384615384
 40
0.5384615384615384
 40
0.5384615384615384
 40
0.6153846153846154
 40
0.6153846153846154
 40
0.6153846153846154
 40
0.6153846153846154
 40
0.6923076923076923
 40
0.6923076923076923
 40
0.6923076923076923
 40
0.6923076923076923
 40
0.7692307692307693
 40
0.7692307692307693
 40
0.7692307692307693
 40
0.7692307692307693
 40
0.8461538461538461
 40
0.8461538461538461
 40
0.8461538461538461
 40
0.8461538461538461
 40
1.0
 40
1.0
 40
1.0
 40
1.0
 10
-14.5891
 20
-23.1344
 30
0.0
 10
-14.8281
 20
-23.1344
 30
0.0
 10
-15.0205
 20
-23.1099
 30
0.0
 10
-15.1658
 20
-23.0605
 30
0.0
 10
-15.1658
 20
-23.0605
 30
0.0
 10
-15.3116
 20
-23.0116
 30
0.0
 10
-15.424
 20
-22.9382
 30
0.0
 10
-15.5031
 20
-22.8413
 30
0.0
 10
-15.5031
 20
-22.8413
 30
0.0
 10
-15.5821
 20
-22.7444
 30
0.0
 10
-15.6216
 20
-22.6226
 30
0.0
 10
-15.6216
 20
-22.4759
 30
0.0
 10
-15.6216
 20
-22.4759
 30
0.0
 10
-15.6216
 20
-22.3672
 30
0.0
 10
-15.5995
 20
-22.2722
 30
0.0
 10
-15.5557
 20
-22.1904
 30
0.0
 10
-15.5557
 20
-22.1904
 30
0.0
 10
-15.5125
 20
-22.1085
 30
0.0
 10
-15.4494
 20
-22.0412
 30
0.0
 10
-15.3671
 20
-21.9876
 30
0.0
 10
-15.3671
 20
-21.9876
 30
0.0
 10
-15.2848
 20
-21.9345
 30
0.0
 10
-15.1846
 20
-21.8926
 30
0.0
 10
-15.0666
 20
-21.8625
 30
0.0
 10
-15.0666
 20
-21.8625
 30
0.0
 10
-14.9485
 20
-21.8319
 30
0.0
 10
-14.7895
 20
-21.8169
 30
0.0
 10
-14.5891
 20
-21.8169
 30
0.0
 10
-14.5891
 20
-21.8169
 30
0.0
 10
-14.3521
 20
-21.8169
 30
0.0
 10
-14.1611
 20
-21.8413
 30
0.0
 10
-14.0153
 20
-21.8898
 30
0.0
 10
-14.0153
 20
-21.8898
 30
0.0
 10
-13.8695
 20
-21.9387
 30
0.0
 10
-13.7571
 20
-22.0116
 30
0.0
 10
-13.6776
 20
-22.1085
 30
0.0
 10
-13.6776
 20
-22.1085
 30
0.0
 10
-13.5981
 20
-22.2054
 30
0.0
 10
-13.5586
 20
-22.3277
 30
0.0
 10
-13.5586
 20
-22.4759
 30
0.0
 10
-13.5586
 20
-22.4759
 30
0.0
 10
-13.5586
 20
-22.6706
 30
0.0
 10
-13.6282
 20
-22.8235
 30
0.0
 10
-13.7679
 20
-22.9345
 30
0.0
 10
-13.7679
 20
-22.9345
 30
0.0
 10
-13.9358
 20
-23.0676
 30
0.0
 10
-14.21
 20
-23.1344
 30
0.0
 10
-14.5891
 20
-23.1344
 30
0.0
  0
SPLINE
  5
9C
330
1F
100
AcDbEntity
  8
DEFAULT_1
 62
   250
100
AcDbSpline
210
0.0
220
0.0
230
1.0
 70
    11
 71
     3
 72
    36
 73
    32
 74
     0
 42
0.0000000001
 43
0.0000000001
 40
0.0
 40
0.0
 40
0.0
 40
0.0
 40
0.1111111111111111
 40
0.1111111111111111
 40
0.1111111111111111
 40
0.1111111111111111
 40
0.2222222222222222
 40
0.2222222222222222
 40
0.2222222222222222
 40
0.2222222222222222
 40
0.3333333333333333
 40
0.3333333333333333
 40
0.3333333333333333
 40
0.3333333333333333
 40
0.4444444444444444
 40
0.4444444444444444
 40
0.4444444444444444
 40
0.4444444444444444
 40
0.5555555555555556
 40
0.5555555555555556
 40
0.5555555555555556
 40
0.5555555555555556
 40
0.6666666666666666
 40
0.6666666666666666
 40
0.6666666666666666
 40
0.6666666666666666
 40
0.7777777777777778
 40
0.7777777777777778
 40
0.7777777777777778
 40
0.7777777777777778
 40
1.0
 40
1.0
 40
1.0
 40
1.0
 10
-14.5891
 20
-22.8794
 30
0.0
 10
-14.2575
 20
-22.8794
 30
0.0
 10
-14.0369
 20
-22.8404
 30
0.0
 10
-13.9269
 20
-22.7628
 30
0.0
 10
-13.9269
 20
-22.7628
 30
0.0
 10
-13.8173
 20
-22.6852
 30
0.0
 10
-13.7622
 20
-22.5897
 30
0.0
 10
-13.7622
 20
-22.4759
 30
0.0
 10
-13.7622
 20
-22.4759
 30
0.0
 10
-13.7622
 20
-22.3616
 30
0.0
 10
-13.8177
 20
-22.2661
 30
0.0
 10
-13.9278
 20
-22.1885
 30
0.0
 10
-13.9278
 20
-22.1885
 30
0.0
 10
-14.0379
 20
-22.1109
 30
0.0
 10
-14.2585
 20
-22.0718
 30
0.0
 10
-14.5891
 20
-22.0718
 30
0.0
 10
-14.5891
 20
-22.0718
 30
0.0
 10
-14.9217
 20
-22.0718
 30
0.0
 10
-15.1428
 20
-22.1109
 30
0.0
 10
-15.2519
 20
-22.1885
 30
0.0
 10
-15.2519
 20
-22.1885
 30
0.0
 10
-15.3615
 20
-22.2661
 30
0.0
 10
-15.416
 20
-22.3625
 30
0.0
 10
-15.416
 20
-22.4782
 30
0.0
 10
-15.416
 20
-22.4782
 30
0.0
 10
-15.416
 20
-22.5925
 30
0.0
 10
-15.3676
 20
-22.6833
 30
0.0
 10
-15.2712
 20
-22.7515
 30
0.0
 10
-15.2712
 20
-22.7515
 30
0.0
 10
-15.1484
 20
-22.8366
 30
0.0
 10
-14.9207
 20
-22.8794
 30
0.0
 10
-14.5891
 20
-22.8794
 30
0.0
  0
SPLINE
  5
9D
330
1F
100
AcDbEntity
  8
DEFAULT_1
 62
   250
100
AcDbSpline
210
0.0
220
0.0
230
1.0
 70
    11
 71
     3
 72
    92
 73
    88
 74
     0
 42
0.0000000001
 43
0.0000000001
 40
0.0
 40
0.0
 40
0.0
 40
0.0
 40
0.0434782608695652
 40
0.0434782608695652
 40
0.0434782608695652
 40
0.0434782608695652
 40
0.0869565217391304
 40
0.0869565217391304
 40
0.0869565217391304
 40
0.0869565217391304
 40
0.1304347826086956
 40
0.1304347826086956
 40
0.1304347826086956
 40
0.1304347826086956
 40
0.1739130434782609
 40
0.1739130434782609
 40
0.1739130434782609
 40
0.1739130434782609
 40
0.2173913043478261
 40
0.2173913043478261
 40
0.2173913043478261
 40
0.2173913043478261
 40
0.2608695652173913
 40
0.2608695652173913
 40
0.2608695652173913
 40
0.2608695652173913
 40
0.3043478260869565
 40
0.3043478260869565
 40
0.3043478260869565
 40
0.3043478260869565
 40
0.3478260869565217
 40
0.3478260869565217
 40
0.3478260869565217
 40
0.3478260869565217
 40
0.391304347826087
 40
0.391304347826087
 40
0.391304347826087
 40
0.391304347826087
 40
0.4347826086956522
 40
0.4347826086956522
 40
0.4347826086956522
 40
0.4347826086956522
 40
0.4782608695652174
 40
0.4782608695652174
 40
0.4782608695652174
 40
0.4782608695652174
 40
0.5217391304347826
 40
0.5217391304347826
 40
0.5217391304347826
 40
0.5217391304347826
 40
0.5652173913043478
 40
0.5652173913043478
 40
0.5652173913043478
 40
0.5652173913043478
 40
0.6086956521739131
 40
0.6086956521739131
 40
0.6086956521739131
 40
0.6086956521739131
 40
0.6521739130434783
 40
0.6521739130434783
 40
0.6521739130434783
 40
0.6521739130434783
 40
0.6956521739130435
 40
0.6956521739130435
 40
0.6956521739130435
 40
0.6956521739130435
 40
0.7391304347826086
 40
0.7391304347826086
 40
0.7391304347826086
 40
0.7391304347826086
 40
0.782608695652174
 40
0.782608695652174
 40
0.782608695652174
 40
0.782608695652174
 40
0.8260869565217391
 40
0.8260869565217391
 40
0.8260869565217391
 40
0.8260869565217391
 40
0.8695652173913043
 40
0.8695652173913043
 40
0.8695652173913043
 40
0.8695652173913043
 40
0.9130434782608695
 40
0.9130434782608695
 40
0.9130434782608695
 40
0.9130434782608695
 40
1.0
 40
1.0
 40
1.0
 40
1.0
 10
-14.1221
 20
-21.5648
 30
0.0
 10
-14.1221
 20
-21.5648
 30
0.0
 10
-14.1442
 20
-21.3042
 30
0.0
 10
-14.1442
 20
-21.3042
 30
0.0
 10
-14.1442
 20
-21.3042
 30
0.0
 10
-14.0172
 20
-21.2849
 30
0.0
 10
-13.9222
 20
-21.2402
 30
0.0
 10
-13.8582
 20
-21.1701
 30
0.0
 10
-13.8582
 20
-21.1701
 30
0.0
 10
-13.7942
 20
-21.0996
 30
0.0
 10
-13.7622
 20
-21.0149
 30
0.0
 10
-13.7622
 20
-20.9157
 30
0.0
 10
-13.7622
 20
-20.9157
 30
0.0
 10
-13.7622
 20
-20.7962
 30
0.0
 10
-13.8074
 20
-20.6951
 30
0.0
 10
-13.8972
 20
-20.6128
 30
0.0
 10
-13.8972
 20
-20.6128
 30
0.0
 10
-13.9875
 20
-20.53
 30
0.0
 10
-14.107
 20
-20.4886
 30
0.0
 10
-14.2556
 20
-20.4886
 30
0.0
 10
-14.2556
 20
-20.4886
 30
0.0
 10
-14.3972
 20
-20.4886
 30
0.0
 10
-14.5087
 20
-20.5281
 30
0.0
 10
-14.5905
 20
-20.6076
 30
0.0
 10
-14.5905
 20
-20.6076
 30
0.0
 10
-14.6724
 20
-20.6871
 30
0.0
 10
-14.7133
 20
-20.791
 30
0.0
 10
-14.7133
 20
-20.9199
 30
0.0
 10
-14.7133
 20
-20.9199
 30
0.0
 10
-14.7133
 20
-20.9999
 30
0.0
 10
-14.695
 20
-21.0718
 30
0.0
 10
-14.6588
 20
-21.1363
 30
0.0
 10
-14.6588
 20
-21.1363
 30
0.0
 10
-14.6225
 20
-21.2007
 30
0.0
 10
-14.5755
 20
-21.251
 30
0.0
 10
-14.5176
 20
-21.2877
 30
0.0
 10
-14.5176
 20
-21.2877
 30
0.0
 10
-14.5176
 20
-21.2877
 30
0.0
 10
-14.5477
 20
-21.5206
 30
0.0
 10
-14.5477
 20
-21.5206
 30
0.0
 10
-14.5477
 20
-21.5206
 30
0.0
 10
-14.5477
 20
-21.5206
 30
0.0
 10
-15.5854
 20
-21.3249
 30
0.0
 10
-15.5854
 20
-21.3249
 30
0.0
 10
-15.5854
 20
-21.3249
 30
0.0
 10
-15.5854
 20
-21.3249
 30
0.0
 10
-15.5854
 20
-20.3202
 30
0.0
 10
-15.5854
 20
-20.3202
 30
0.0
 10
-15.5854
 20
-20.3202
 30
0.0
 10
-15.5854
 20
-20.3202
 30
0.0
 10
-15.3483
 20
-20.3202
 30
0.0
 10
-15.3483
 20
-20.3202
 30
0.0
 10
-15.3483
 20
-20.3202
 30
0.0
 10
-15.3483
 20
-20.3202
 30
0.0
 10
-15.3483
 20
-21.1264
 30
0.0
 10
-15.3483
 20
-21.1264
 30
0.0
 10
-15.3483
 20
-21.1264
 30
0.0
 10
-15.3483
 20
-21.1264
 30
0.0
 10
-14.8055
 20
-21.2355
 30
0.0
 10
-14.8055
 20
-21.2355
 30
0.0
 10
-14.8055
 20
-21.2355
 30
0.0
 10
-14.8902
 20
-21.1142
 30
0.0
 10
-14.9325
 20
-20.9867
 30
0.0
 10
-14.9325
 20
-20.8536
 30
0.0
 10
-14.9325
 20
-20.8536
 30
0.0
 10
-14.9325
 20
-20.6772
 30
0.0
 10
-14.8714
 20
-20.5286
 30
0.0
 10
-14.7491
 20
-20.4072
 30
0.0
 10
-14.7491
 20
-20.4072
 30
0.0
 10
-14.6268
 20
-20.2859
 30
0.0
 10
-14.4697
 20
-20.2252
 30
0.0
 10
-14.2778
 20
-20.2252
 30
0.0
 10
-14.2778
 20
-20.2252
 30
0.0
 10
-14.0948
 20
-20.2252
 30
0.0
 10
-13.9367
 20
-20.2788
 30
0.0
 10
-13.8036
 20
-20.3851
 30
0.0
 10
-13.8036
 20
-20.3851
 30
0.0
 10
-13.6404
 20
-20.5149
 30
0.0
 10
-13.5586
 20
-20.6918
 30
0.0
 10
-13.5586
 20
-20.9157
 30
0.0
 10
-13.5586
 20
-20.9157
 30
0.0
 10
-13.5586
 20
-21.0996
 30
0.0
 10
-13.6098
 20
-21.2496
 30
0.0
 10
-13.7128
 20
-21.3658
 30
0.0
 10
-13.7128
 20
-21.3658
 30
0.0
 10
-13.8159
 20
-21.482
 30
0.0
 10
-13.9523
 20
-21.5483
 30
0.0
 10
-14.1221
 20
-21.5648
 30
0.0
  0
SPLINE
  5
9E
330
1F
100
AcDbEntity
  8
DEFAULT_1
 62
   250
100
AcDbSpline
210
0.0
220
0.0
230
1.0
 70
    11
 71
     3
 72
    20
 73
    16
 74
     0
 42
0.0000000001
 43
0.0000000001
 40
0.0
 40
0.0
 40
0.0
 40
0.0
 40
0.2
 40
0.2
 40
0.2
 40
0.2
 40
0.4
 40
0.4
 40
0.4
 40
0.4
 40
0.6
 40
0.6
 40
0.6
 40
0.6
 40
1.0
 40
1.0
 40
1.0
 40
1.0
 10
-13.2435
 20
-15.9947
 30
0.0
 10
-13.2435
 20
-15.9947
 30
0.0
 10
-12.8906
 20
-13.4947
 30
0.0
 10
-12.8906
 20
-13.4947
 30
0.0
 10
-12.8906
 20
-13.4947
 30
0.0
 10
-12.8906
 20
-13.4947
 30
0.0
 10
-12.8123
 20
-13.4947
 30
0.0
 10
-12.8123
 20
-13.4947
 30
0.0
 10
-12.8123
 20
-13.4947
 30
0.0
 10
-12.8123
 20
-13.4947
 30
0.0
 10
-12.436
 20
-15.9947
 30
0.0
 10
-12.436
 20
-15.9947
 30
0.0
 10
-12.436
 20
-15.9947
 30
0.0
 10
-12.436
 20
-15.9947
 30
0.0
 10
-13.2435
 20
-15.9947
 30
0.0
 10
-13.2435
 20
-15.9947
 30
0.0
  0
SPLINE
  5
9F
330
1F
100
AcDbEntity
  8
DEFAULT_1
 62
   250
100
AcDbSpline
210
0.0
220
0.0
230
1.0
 70
    11
 71
     3
 72
    20
 73
    16
 74
     0
 42
0.0000000001
 43
0.0000000001
 40
0.0
 40
0.0
 40
0.0
 40
0.0
 40
0.2
 40
0.2
 40
0.2
 40
0.2
 40
0.4
 40
0.4
 40
0.4
 40
0.4
 40
0.6
 40
0.6
 40
0.6
 40
0.6
 40
1.0
 40
1.0
 40
1.0
 40
1.0
 10
-12.4489
 20
-28.6907
 30
0.0
 10
-12.4489
 20
-28.6907
 30
0.0
 10
-12.8018
 20
-31.1907
 30
0.0
 10
-12.8018
 20
-31.1907
 30
0.0
 10
-12.8018
 20
-31.1907
 30
0.0
 10
-12.8018
 20
-31.1907
 30
0.0
 10
-12.8801
 20
-31.1907
 30
0.0
 10
-12.8801
 20
-31.1907
 30
0.0
 10
-12.8801
 20
-31.1907
 30
0.0
 10
-12.8801
 20
-31.1907
 30
0.0
 10
-13.2564
 20
-28.6907
 30
0.0
 10
-13.2564
 20
-28.6907
 30
0.0
 10
-13.2564
 20
-28.6907
 30
0.0
 10
-13.2564
 20
-28.6907
 30
0.0
 10
-12.4489
 20
-28.6907
 30
0.0
 10
-12.4489
 20
-28.6907
 30
0.0
  0
SPLINE
  5
A0
330
1F
100
AcDbEntity
  8
DEFAULT_1
 62
   250
100
AcDbSpline
210
0.0
220
0.0
230
1.0
 70
    24
 71
     3
 72
     8
 73
     4
 74
     0
 42
0.0000000001
 43
0.0000000001
 40
0.0
 40
0.0
 40
0.0
 40
0.0
 40
1.0
 40
1.0
 40
1.0
 40
1.0
 10
-5.0412
 20
6.0533
 30
0.0
 10
-5.0412
 20
6.0533
 30
0.0
 10
-14.6753
 20
6.0533
 30
0.0
 10
-14.6753
 20
6.0533
 30
0.0
  0
SPLINE
  5
A1
330
1F
100
AcDbEntity
  8
DEFAULT_1
 62
   250
100
AcDbSpline
210
0.0
220
0.0
230
1.0
 70
    24
 71
     3
 72
     8
 73
     4
 74
     0
 42
0.0000000001
 43
0.0000000001
 40
0.0
 40
0.0
 40
0.0
 40
0.0
 40
1.0
 40
1.0
 40
1.0
 40
1.0
 10
-13.9947
 20
19.5245
 30
0.0
 10
-13.9947
 20
19.5245
 30
0.0
 10
-13.9947
 20
-5.7846
 30
0.0
 10
-13.9947
 20
-5.7846
 30
0.0
  0
SPLINE
  5
A2
330
1F
100
AcDbEntity
  8
DEFAULT_1
 62
   250
100
AcDbSpline
210
0.0
220
0.0
230
1.0
 70
    24
 71
     3
 72
     8
 73
     4
 74
     0
 42
0.0000000001
 43
0.0000000001
 40
0.0
 40
0.0
 40
0.0
 40
0.0
 40
1.0
 40
1.0
 40
1.0
 40
1.0
 10
-13.9973
 20
34.8657
 30
0.0
 10
-13.9973
 20
34.8657
 30
0.0
 10
-13.9973
 20
19.5128
 30
0.0
 10
-13.9973
 20
19.5128
 30
0.0
  0
SPLINE
  5
A3
330
1F
100
AcDbEntity
  8
DEFAULT_1
 62
   250
100
AcDbSpline
210
0.0
220
0.0
230
1.0
 70
    24
 71
     3
 72
     8
 73
     4
 74
     0
 42
0.0000000001
 43
0.0000000001
 40
0.0
 40
0.0
 40
0.0
 40
0.0
 40
1.0
 40
1.0
 40
1.0
 40
1.0
 10
-11.5324
 20
17.536
 30
0.0
 10
-11.5324
 20
17.536
 30
0.0
 10
-11.5324
 20
38.7187
 30
0.0
 10
-11.5324
 20
38.7187
 30
0.0
  0
SPLINE
  5
A4
330
1F
100
AcDbEntity
  8
DEFAULT_1
 62
   250
100
AcDbSpline
210
0.0
220
0.0
230
1.0
 70
    24
 71
     3
 72
     8
 73
     4
 74
     0
 42
0.0000000001
 43
0.0000000001
 40
0.0
 40
0.0
 40
0.0
 40
0.0
 40
1.0
 40
1.0
 40
1.0
 40
1.0
 10
15.7512
 20
17.5691
 30
0.0
 10
15.7512
 20
17.5691
 30
0.0
 10
15.7512
 20
38.785
 30
0.0
 10
15.7512
 20
38.785
 30
0.0
  0
SPLINE
  5
A5
330
1F
100
AcDbEntity
  8
DEFAULT_1
 62
   250
100
AcDbSpline
210
0.0
220
0.0
230
1.0
 70
    24
 71
     3
 72
     8
 73
     4
 74
     0
 42
0.0000000001
 43
0.0000000001
 40
0.0
 40
0.0
 40
0.0
 40
0.0
 40
1.0
 40
1.0
 40
1.0
 40
1.0
 10
15.3049
 20
38.0776
 30
0.0
 10
15.3049
 20
38.0776
 30
0.0
 10
-10.8966
 20
38.0776
 30
0.0
 10
-10.8966
 20
38.0776
 30
0.0
  0
SPLINE
  5
A6
330
1F
100
AcDbEntity
  8
DEFAULT_1
 62
   250
100
AcDbSpline
210
0.0
220
0.0
230
1.0
 70
    24
 71
     3
 72
     8
 73
     4
 74
     0
 42
0.0000000001
 43
0.0000000001
 40
0.0
 40
0.0
 40
0.0
 40
0.0
 40
1.0
 40
1.0
 40
1.0
 40
1.0
 10
-7.651
 20
35.1318
 30
0.0
 10
-7.651
 20
35.1318
 30
0.0
 10
-14.6767
 20
35.1318
 30
0.0
 10
-14.6767
 20
35.1318
 30
0.0
  0
SPLINE
  5
A7
330
1F
100
AcDbEntity
  8
DEFAULT_1
 62
   250
100
AcDbSpline
210
0.0
220
0.0
230
1.0
 70
    24
 71
     3
 72
     8
 73
     4
 74
     0
 42
0.0000000001
 43
0.0000000001
 40
0.0
 40
0.0
 40
0.0
 40
0.0
 40
1.0
 40
1.0
 40
1.0
 40
1.0
 10
-7.2694
 20
19.5246
 30
0.0
 10
-7.2694
 20
19.5246
 30
0.0
 10
-14.7072
 20
19.5246
 30
0.0
 10
-14.7072
 20
19.5246
 30
0.0
  0
SPLINE
  5
A8
330
1F
100
AcDbEntity
  8
DEFAULT_1
 62
   250
100
AcDbSpline
210
0.0
220
0.0
230
1.0
 70
    11
 71
     3
 72
    36
 73
    32
 74
     0
 42
0.0000000001
 43
0.0000000001
 40
0.0
 40
0.0
 40
0.0
 40
0.0
 40
0.1111111111111111
 40
0.1111111111111111
 40
0.1111111111111111
 40
0.1111111111111111
 40
0.2222222222222222
 40
0.2222222222222222
 40
0.2222222222222222
 40
0.2222222222222222
 40
0.3333333333333333
 40
0.3333333333333333
 40
0.3333333333333333
 40
0.3333333333333333
 40
0.4444444444444444
 40
0.4444444444444444
 40
0.4444444444444444
 40
0.4444444444444444
 40
0.5555555555555556
 40
0.5555555555555556
 40
0.5555555555555556
 40
0.5555555555555556
 40
0.6666666666666666
 40
0.6666666666666666
 40
0.6666666666666666
 40
0.6666666666666666
 40
0.7777777777777778
 40
0.7777777777777778
 40
0.7777777777777778
 40
0.7777777777777778
 40
1.0
 40
1.0
 40
1.0
 40
1.0
 10
15.7206
 20
16.6086
 30
0.0
 10
15.7206
 20
16.6086
 30
0.0
 10
15.7206
 20
16.8858
 30
0.0
 10
15.7206
 20
16.8858
 30
0.0
 10
15.7206
 20
16.8858
 30
0.0
 10
15.7206
 20
16.8858
 30
0.0
 10
11.4882
 20
16.9429
 30
0.0
 10
11.4882
 20
16.9429
 30
0.0
 10
11.4882
 20
16.9429
 30
0.0
 10
11.4882
 20
16.9429
 30
0.0
 10
-7.2694
 20
16.9429
 30
0.0
 10
-7.2694
 20
16.9429
 30
0.0
 10
-7.2694
 20
16.9429
 30
0.0
 10
-7.2694
 20
16.9429
 30
0.0
 10
-11.5836
 20
16.8165
 30
0.0
 10
-11.5836
 20
16.8165
 30
0.0
 10
-11.5836
 20
16.8165
 30
0.0
 10
-11.5836
 20
16.8165
 30
0.0
 10
-11.5836
 20
16.5624
 30
0.0
 10
-11.5836
 20
16.5624
 30
0.0
 10
-11.5836
 20
16.5624
 30
0.0
 10
-11.5836
 20
16.5624
 30
0.0
 10
-6.7557
 20
16.4007
 30
0.0
 10
-6.7557
 20
16.4007
 30
0.0
 10
-6.7557
 20
16.4007
 30
0.0
 10
-6.7557
 20
16.4007
 30
0.0
 10
10.7079
 20
16.4469
 30
0.0
 10
10.7079
 20
16.4469
 30
0.0
 10
10.7079
 20
16.4469
 30
0.0
 10
10.7079
 20
16.4469
 30
0.0
 10
15.7206
 20
16.6086
 30
0.0
 10
15.7206
 20
16.6086
 30
0.0
  0
SPLINE
  5
A9
330
1F
100
AcDbEntity
  8
DEFAULT_1
 62
   250
100
AcDbSpline
210
0.0
220
0.0
230
1.0
 70
     8
 71
     3
 72
    16
 73
    12
 74
     0
 42
0.0000000001
 43
0.0000000001
 40
0.0
 40
0.0
 40
0.0
 40
0.0
 40
0.25
 40
0.25
 40
0.25
 40
0.25
 40
0.5
 40
0.5
 40
0.5
 40
0.5
 40
1.0
 40
1.0
 40
1.0
 40
1.0
 10
-6.6996
 20
16.4498
 30
0.0
 10
-6.6996
 20
16.4498
 30
0.0
 10
-6.7031
 20
15.7731
 30
0.0
 10
-6.7031
 20
15.7731
 30
0.0
 10
-6.7031
 20
15.7731
 30
0.0
 10
-6.7031
 20
15.7731
 30
0.0
 10
10.9219
 20
15.7731
 30
0.0
 10
10.9219
 20
15.7731
 30
0.0
 10
10.9219
 20
15.7731
 30
0.0
 10
10.9219
 20
15.7731
 30
0.0
 10
10.9471
 20
16.5226
 30
0.0
 10
10.9471
 20
16.5226
 30
0.0
  0
SPLINE
  5
AA
330
1F
100
AcDbEntity
  8
DEFAULT_1
 62
   250
100
AcDbSpline
210
0.0
220
0.0
230
1.0
 70
     8
 71
     3
 72
    16
 73
    12
 74
     0
 42
0.0000000001
 43
0.0000000001
 40
0.0
 40
0.0
 40
0.0
 40
0.0
 40
0.25
 40
0.25
 40
0.25
 40
0.25
 40
0.5
 40
0.5
 40
0.5
 40
0.5
 40
1.0
 40
1.0
 40
1.0
 40
1.0
 10
-7.2628
 20
16.9606
 30
0.0
 10
-7.2628
 20
16.9606
 30
0.0
 10
-7.2694
 20
19.5246
 30
0.0
 10
-7.2694
 20
19.5246
 30
0.0
 10
-7.2694
 20
19.5246
 30
0.0
 10
-7.2694
 20
19.5246
 30
0.0
 10
11.4882
 20
19.5246
 30
0.0
 10
11.4882
 20
19.5246
 30
0.0
 10
11.4882
 20
19.5246
 30
0.0
 10
11.4882
 20
19.5246
 30
0.0
 10
11.4845
 20
16.9353
 30
0.0
 10
11.4845
 20
16.9353
 30
0.0
  0
SPLINE
  5
AB
330
1F
100
AcDbEntity
  8
DEFAULT_1
  6
NEW_LINE3
 62
   250
100
AcDbSpline
210
0.0
220
0.0
230
1.0
 70
    24
 71
     3
 72
     8
 73
     4
 74
     0
 42
0.0000000001
 43
0.0000000001
 40
0.0
 40
0.0
 40
0.0
 40
0.0
 40
1.0
 40
1.0
 40
1.0
 40
1.0
 10
2.1094
 20
-3.1076
 30
0.0
 10
2.1094
 20
-3.1076
 30
0.0
 10
2.1094
 20
35.9985
 30
0.0
 10
2.1094
 20
35.9985
 30
0.0
  0
SPLINE
  5
AD
330
1F
100
AcDbEntity
  8
DEFAULT_1
 62
   250
100
AcDbSpline
210
0.0
220
0.0
230
1.0
 70
    11
 71
     3
 72
    92
 73
    88
 74
     0
 42
0.0000000001
 43
0.0000000001
 40
0.0
 40
0.0
 40
0.0
 40
0.0
 40
0.0434782608695652
 40
0.0434782608695652
 40
0.0434782608695652
 40
0.0434782608695652
 40
0.0869565217391304
 40
0.0869565217391304
 40
0.0869565217391304
 40
0.0869565217391304
 40
0.1304347826086956
 40
0.1304347826086956
 40
0.1304347826086956
 40
0.1304347826086956
 40
0.1739130434782609
 40
0.1739130434782609
 40
0.1739130434782609
 40
0.1739130434782609
 40
0.2173913043478261
 40
0.2173913043478261
 40
0.2173913043478261
 40
0.2173913043478261
 40
0.2608695652173913
 40
0.2608695652173913
 40
0.2608695652173913
 40
0.2608695652173913
 40
0.3043478260869565
 40
0.3043478260869565
 40
0.3043478260869565
 40
0.3043478260869565
 40
0.3478260869565217
 40
0.3478260869565217
 40
0.3478260869565217
 40
0.3478260869565217
 40
0.391304347826087
 40
0.391304347826087
 40
0.391304347826087
 40
0.391304347826087
 40
0.4347826086956522
 40
0.4347826086956522
 40
0.4347826086956522
 40
0.4347826086956522
 40
0.4782608695652174
 40
0.4782608695652174
 40
0.4782608695652174
 40
0.4782608695652174
 40
0.5217391304347826
 40
0.5217391304347826
 40
0.5217391304347826
 40
0.5217391304347826
 40
0.5652173913043478
 40
0.5652173913043478
 40
0.5652173913043478
 40
0.5652173913043478
 40
0.6086956521739131
 40
0.6086956521739131
 40
0.6086956521739131
 40
0.6086956521739131
 40
0.6521739130434783
 40
0.6521739130434783
 40
0.6521739130434783
 40
0.6521739130434783
 40
0.6956521739130435
 40
0.6956521739130435
 40
0.6956521739130435
 40
0.6956521739130435
 40
0.7391304347826086
 40
0.7391304347826086
 40
0.7391304347826086
 40
0.7391304347826086
 40
0.782608695652174
 40
0.782608695652174
 40
0.782608695652174
 40
0.782608695652174
 40
0.8260869565217391
 40
0.8260869565217391
 40
0.8260869565217391
 40
0.8260869565217391
 40
0.8695652173913043
 40
0.8695652173913043
 40
0.8695652173913043
 40
0.8695652173913043
 40
0.9130434782608695
 40
0.9130434782608695
 40
0.9130434782608695
 40
0.9130434782608695
 40
1.0
 40
1.0
 40
1.0
 40
1.0
 10
-15.2416
 20
0.2575
 30
0.0
 10
-15.2416
 20
0.2575
 30
0.0
 10
-15.2637
 20
0.5181
 30
0.0
 10
-15.2637
 20
0.5181
 30
0.0
 10
-15.2637
 20
0.5181
 30
0.0
 10
-15.1367
 20
0.5374
 30
0.0
 10
-15.0417
 20
0.5821
 30
0.0
 10
-14.9777
 20
0.6522
 30
0.0
 10
-14.9777
 20
0.6522
 30
0.0
 10
-14.9137
 20
0.7227
 30
0.0
 10
-14.8817
 20
0.8074
 30
0.0
 10
-14.8817
 20
0.9066
 30
0.0
 10
-14.8817
 20
0.9066
 30
0.0
 10
-14.8817
 20
1.0261
 30
0.0
 10
-14.9269
 20
1.1272
 30
0.0
 10
-15.0167
 20
1.2095
 30
0.0
 10
-15.0167
 20
1.2095
 30
0.0
 10
-15.107
 20
1.2923
 30
0.0
 10
-15.2265
 20
1.3337
 30
0.0
 10
-15.3751
 20
1.3337
 30
0.0
 10
-15.3751
 20
1.3337
 30
0.0
 10
-15.5167
 20
1.3337
 30
0.0
 10
-15.6282
 20
1.2942
 30
0.0
 10
-15.71
 20
1.2147
 30
0.0
 10
-15.71
 20
1.2147
 30
0.0
 10
-15.7919
 20
1.1352
 30
0.0
 10
-15.8328
 20
1.0313
 30
0.0
 10
-15.8328
 20
0.9024
 30
0.0
 10
-15.8328
 20
0.9024
 30
0.0
 10
-15.8328
 20
0.8224
 30
0.0
 10
-15.8145
 20
0.7505
 30
0.0
 10
-15.7783
 20
0.686
 30
0.0
 10
-15.7783
 20
0.686
 30
0.0
 10
-15.742
 20
0.6216
 30
0.0
 10
-15.695
 20
0.5713
 30
0.0
 10
-15.6371
 20
0.5346
 30
0.0
 10
-15.6371
 20
0.5346
 30
0.0
 10
-15.6371
 20
0.5346
 30
0.0
 10
-15.6672
 20
0.3017
 30
0.0
 10
-15.6672
 20
0.3017
 30
0.0
 10
-15.6672
 20
0.3017
 30
0.0
 10
-15.6672
 20
0.3017
 30
0.0
 10
-16.7049
 20
0.4974
 30
0.0
 10
-16.7049
 20
0.4974
 30
0.0
 10
-16.7049
 20
0.4974
 30
0.0
 10
-16.7049
 20
0.4974
 30
0.0
 10
-16.7049
 20
1.5021
 30
0.0
 10
-16.7049
 20
1.5021
 30
0.0
 10
-16.7049
 20
1.5021
 30
0.0
 10
-16.7049
 20
1.5021
 30
0.0
 10
-16.4678
 20
1.5021
 30
0.0
 10
-16.4678
 20
1.5021
 30
0.0
 10
-16.4678
 20
1.5021
 30
0.0
 10
-16.4678
 20
1.5021
 30
0.0
 10
-16.4678
 20
0.6959
 30
0.0
 10
-16.4678
 20
0.6959
 30
0.0
 10
-16.4678
 20
0.6959
 30
0.0
 10
-16.4678
 20
0.6959
 30
0.0
 10
-15.925
 20
0.5868
 30
0.0
 10
-15.925
 20
0.5868
 30
0.0
 10
-15.925
 20
0.5868
 30
0.0
 10
-16.0097
 20
0.7081
 30
0.0
 10
-16.052
 20
0.8356
 30
0.0
 10
-16.052
 20
0.9687
 30
0.0
 10
-16.052
 20
0.9687
 30
0.0
 10
-16.052
 20
1.1451
 30
0.0
 10
-15.9909
 20
1.2937
 30
0.0
 10
-15.8686
 20
1.4151
 30
0.0
 10
-15.8686
 20
1.4151
 30
0.0
 10
-15.7463
 20
1.5364
 30
0.0
 10
-15.5892
 20
1.5971
 30
0.0
 10
-15.3973
 20
1.5971
 30
0.0
 10
-15.3973
 20
1.5971
 30
0.0
 10
-15.2143
 20
1.5971
 30
0.0
 10
-15.0562
 20
1.5435
 30
0.0
 10
-14.9231
 20
1.4372
 30
0.0
 10
-14.9231
 20
1.4372
 30
0.0
 10
-14.7599
 20
1.3074
 30
0.0
 10
-14.6781
 20
1.1305
 30
0.0
 10
-14.6781
 20
0.9066
 30
0.0
 10
-14.6781
 20
0.9066
 30
0.0
 10
-14.6781
 20
0.7227
 30
0.0
 10
-14.7293
 20
0.5727
 30
0.0
 10
-14.8323
 20
0.4565
 30
0.0
 10
-14.8323
 20
0.4565
 30
0.0
 10
-14.9354
 20
0.3403
 30
0.0
 10
-15.0718
 20
0.274
 30
0.0
 10
-15.2416
 20
0.2575
 30
0.0
  0
SPLINE
  5
AE
330
1F
100
AcDbEntity
  8
DEFAULT_1
 62
   250
100
AcDbSpline
210
0.0
220
0.0
230
1.0
 70
    11
 71
     3
 72
    52
 73
    48
 74
     0
 42
0.0000000001
 43
0.0000000001
 40
0.0
 40
0.0
 40
0.0
 40
0.0
 40
0.0769230769230769
 40
0.0769230769230769
 40
0.0769230769230769
 40
0.0769230769230769
 40
0.1538461538461539
 40
0.1538461538461539
 40
0.1538461538461539
 40
0.1538461538461539
 40
0.2307692307692308
 40
0.2307692307692308
 40
0.2307692307692308
 40
0.2307692307692308
 40
0.3076923076923077
 40
0.3076923076923077
 40
0.3076923076923077
 40
0.3076923076923077
 40
0.3846153846153846
 40
0.3846153846153846
 40
0.3846153846153846
 40
0.3846153846153846
 40
0.4615384615384616
 40
0.4615384615384616
 40
0.4615384615384616
 40
0.4615384615384616
 40
0.5384615384615384
 40
0.5384615384615384
 40
0.5384615384615384
 40
0.5384615384615384
 40
0.6153846153846154
 40
0.6153846153846154
 40
0.6153846153846154
 40
0.6153846153846154
 40
0.6923076923076923
 40
0.6923076923076923
 40
0.6923076923076923
 40
0.6923076923076923
 40
0.7692307692307693
 40
0.7692307692307693
 40
0.7692307692307693
 40
0.7692307692307693
 40
0.8461538461538461
 40
0.8461538461538461
 40
0.8461538461538461
 40
0.8461538461538461
 40
1.0
 40
1.0
 40
1.0
 40
1.0
 10
-15.7086
 20
1.8271
 30
0.0
 10
-15.9476
 20
1.8271
 30
0.0
 10
-16.14
 20
1.8516
 30
0.0
 10
-16.2853
 20
1.901
 30
0.0
 10
-16.2853
 20
1.901
 30
0.0
 10
-16.4311
 20
1.9499
 30
0.0
 10
-16.5435
 20
2.0233
 30
0.0
 10
-16.6226
 20
2.1202
 30
0.0
 10
-16.6226
 20
2.1202
 30
0.0
 10
-16.7016
 20
2.2171
 30
0.0
 10
-16.7411
 20
2.3389
 30
0.0
 10
-16.7411
 20
2.4856
 30
0.0
 10
-16.7411
 20
2.4856
 30
0.0
 10
-16.7411
 20
2.5943
 30
0.0
 10
-16.719
 20
2.6893
 30
0.0
 10
-16.6752
 20
2.7711
 30
0.0
 10
-16.6752
 20
2.7711
 30
0.0
 10
-16.632
 20
2.853
 30
0.0
 10
-16.5689
 20
2.9203
 30
0.0
 10
-16.4866
 20
2.9739
 30
0.0
 10
-16.4866
 20
2.9739
 30
0.0
 10
-16.4043
 20
3.027
 30
0.0
 10
-16.3041
 20
3.0689
 30
0.0
 10
-16.1861
 20
3.099
 30
0.0
 10
-16.1861
 20
3.099
 30
0.0
 10
-16.068
 20
3.1296
 30
0.0
 10
-15.909
 20
3.1446
 30
0.0
 10
-15.7086
 20
3.1446
 30
0.0
 10
-15.7086
 20
3.1446
 30
0.0
 10
-15.4716
 20
3.1446
 30
0.0
 10
-15.2806
 20
3.1202
 30
0.0
 10
-15.1348
 20
3.0717
 30
0.0
 10
-15.1348
 20
3.0717
 30
0.0
 10
-14.989
 20
3.0228
 30
0.0
 10
-14.8766
 20
2.9499
 30
0.0
 10
-14.7971
 20
2.853
 30
0.0
 10
-14.7971
 20
2.853
 30
0.0
 10
-14.7176
 20
2.7561
 30
0.0
 10
-14.6781
 20
2.6338
 30
0.0
 10
-14.6781
 20
2.4856
 30
0.0
 10
-14.6781
 20
2.4856
 30
0.0
 10
-14.6781
 20
2.2909
 30
0.0
 10
-14.7477
 20
2.138
 30
0.0
 10
-14.8874
 20
2.027
 30
0.0
 10
-14.8874
 20
2.027
 30
0.0
 10
-15.0553
 20
1.8939
 30
0.0
 10
-15.3295
 20
1.8271
 30
0.0
 10
-15.7086
 20
1.8271
 30
0.0
  0
SPLINE
  5
AF
330
1F
100
AcDbEntity
  8
DEFAULT_1
 62
   250
100
AcDbSpline
210
0.0
220
0.0
230
1.0
 70
    11
 71
     3
 72
    36
 73
    32
 74
     0
 42
0.0000000001
 43
0.0000000001
 40
0.0
 40
0.0
 40
0.0
 40
0.0
 40
0.1111111111111111
 40
0.1111111111111111
 40
0.1111111111111111
 40
0.1111111111111111
 40
0.2222222222222222
 40
0.2222222222222222
 40
0.2222222222222222
 40
0.2222222222222222
 40
0.3333333333333333
 40
0.3333333333333333
 40
0.3333333333333333
 40
0.3333333333333333
 40
0.4444444444444444
 40
0.4444444444444444
 40
0.4444444444444444
 40
0.4444444444444444
 40
0.5555555555555556
 40
0.5555555555555556
 40
0.5555555555555556
 40
0.5555555555555556
 40
0.6666666666666666
 40
0.6666666666666666
 40
0.6666666666666666
 40
0.6666666666666666
 40
0.7777777777777778
 40
0.7777777777777778
 40
0.7777777777777778
 40
0.7777777777777778
 40
1.0
 40
1.0
 40
1.0
 40
1.0
 10
-15.7086
 20
2.0821
 30
0.0
 10
-15.377
 20
2.0821
 30
0.0
 10
-15.1564
 20
2.1211
 30
0.0
 10
-15.0464
 20
2.1987
 30
0.0
 10
-15.0464
 20
2.1987
 30
0.0
 10
-14.9368
 20
2.2763
 30
0.0
 10
-14.8817
 20
2.3718
 30
0.0
 10
-14.8817
 20
2.4856
 30
0.0
 10
-14.8817
 20
2.4856
 30
0.0
 10
-14.8817
 20
2.5999
 30
0.0
 10
-14.9372
 20
2.6954
 30
0.0
 10
-15.0473
 20
2.773
 30
0.0
 10
-15.0473
 20
2.773
 30
0.0
 10
-15.1574
 20
2.8506
 30
0.0
 10
-15.378
 20
2.8897
 30
0.0
 10
-15.7086
 20
2.8897
 30
0.0
 10
-15.7086
 20
2.8897
 30
0.0
 10
-16.0412
 20
2.8897
 30
0.0
 10
-16.2623
 20
2.8506
 30
0.0
 10
-16.3714
 20
2.773
 30
0.0
 10
-16.3714
 20
2.773
 30
0.0
 10
-16.481
 20
2.6954
 30
0.0
 10
-16.5355
 20
2.599
 30
0.0
 10
-16.5355
 20
2.4833
 30
0.0
 10
-16.5355
 20
2.4833
 30
0.0
 10
-16.5355
 20
2.369
 30
0.0
 10
-16.4871
 20
2.2782
 30
0.0
 10
-16.3907
 20
2.21
 30
0.0
 10
-16.3907
 20
2.21
 30
0.0
 10
-16.2679
 20
2.1249
 30
0.0
 10
-16.0402
 20
2.0821
 30
0.0
 10
-15.7086
 20
2.0821
 30
0.0
  0
SPLINE
  5
B0
330
1F
100
AcDbEntity
  8
DEFAULT_1
 62
   250
100
AcDbSpline
210
0.0
220
0.0
230
1.0
 70
    11
 71
     3
 72
    20
 73
    16
 74
     0
 42
0.0000000001
 43
0.0000000001
 40
0.0
 40
0.0
 40
0.0
 40
0.0
 40
0.2
 40
0.2
 40
0.2
 40
0.2
 40
0.4
 40
0.4
 40
0.4
 40
0.4
 40
0.6
 40
0.6
 40
0.6
 40
0.6
 40
1.0
 40
1.0
 40
1.0
 40
1.0
 10
-14.3684
 20
16.9485
 30
0.0
 10
-14.3684
 20
16.9485
 30
0.0
 10
-14.0155
 20
19.4485
 30
0.0
 10
-14.0155
 20
19.4485
 30
0.0
 10
-14.0155
 20
19.4485
 30
0.0
 10
-14.0155
 20
19.4485
 30
0.0
 10
-13.9372
 20
19.4485
 30
0.0
 10
-13.9372
 20
19.4485
 30
0.0
 10
-13.9372
 20
19.4485
 30
0.0
 10
-13.9372
 20
19.4485
 30
0.0
 10
-13.5609
 20
16.9485
 30
0.0
 10
-13.5609
 20
16.9485
 30
0.0
 10
-13.5609
 20
16.9485
 30
0.0
 10
-13.5609
 20
16.9485
 30
0.0
 10
-14.3684
 20
16.9485
 30
0.0
 10
-14.3684
 20
16.9485
 30
0.0
  0
SPLINE
  5
B1
330
1F
100
AcDbEntity
  8
DEFAULT_1
 62
   250
100
AcDbSpline
210
0.0
220
0.0
230
1.0
 70
    11
 71
     3
 72
    20
 73
    16
 74
     0
 42
0.0000000001
 43
0.0000000001
 40
0.0
 40
0.0
 40
0.0
 40
0.0
 40
0.2
 40
0.2
 40
0.2
 40
0.2
 40
0.4
 40
0.4
 40
0.4
 40
0.4
 40
0.6
 40
0.6
 40
0.6
 40
0.6
 40
1.0
 40
1.0
 40
1.0
 40
1.0
 10
-14.3872
 20
32.5814
 30
0.0
 10
-14.3872
 20
32.5814
 30
0.0
 10
-14.0343
 20
35.0814
 30
0.0
 10
-14.0343
 20
35.0814
 30
0.0
 10
-14.0343
 20
35.0814
 30
0.0
 10
-14.0343
 20
35.0814
 30
0.0
 10
-13.956
 20
35.0814
 30
0.0
 10
-13.956
 20
35.0814
 30
0.0
 10
-13.956
 20
35.0814
 30
0.0
 10
-13.956
 20
35.0814
 30
0.0
 10
-13.5797
 20
32.5814
 30
0.0
 10
-13.5797
 20
32.5814
 30
0.0
 10
-13.5797
 20
32.5814
 30
0.0
 10
-13.5797
 20
32.5814
 30
0.0
 10
-14.3872
 20
32.5814
 30
0.0
 10
-14.3872
 20
32.5814
 30
0.0
  0
SPLINE
  5
B2
330
1F
100
AcDbEntity
  8
DEFAULT_1
 62
   250
100
AcDbSpline
210
0.0
220
0.0
230
1.0
 70
    11
 71
     3
 72
    20
 73
    16
 74
     0
 42
0.0000000001
 43
0.0000000001
 40
0.0
 40
0.0
 40
0.0
 40
0.0
 40
0.2
 40
0.2
 40
0.2
 40
0.2
 40
0.4
 40
0.4
 40
0.4
 40
0.4
 40
0.6
 40
0.6
 40
0.6
 40
0.6
 40
1.0
 40
1.0
 40
1.0
 40
1.0
 10
-13.5884
 20
8.6943
 30
0.0
 10
-13.5884
 20
8.6943
 30
0.0
 10
-13.9413
 20
6.1943
 30
0.0
 10
-13.9413
 20
6.1943
 30
0.0
 10
-13.9413
 20
6.1943
 30
0.0
 10
-13.9413
 20
6.1943
 30
0.0
 10
-14.0196
 20
6.1943
 30
0.0
 10
-14.0196
 20
6.1943
 30
0.0
 10
-14.0196
 20
6.1943
 30
0.0
 10
-14.0196
 20
6.1943
 30
0.0
 10
-14.3959
 20
8.6943
 30
0.0
 10
-14.3959
 20
8.6943
 30
0.0
 10
-14.3959
 20
8.6943
 30
0.0
 10
-14.3959
 20
8.6943
 30
0.0
 10
-13.5884
 20
8.6943
 30
0.0
 10
-13.5884
 20
8.6943
 30
0.0
  0
SPLINE
  5
B3
330
1F
100
AcDbEntity
  8
DEFAULT_1
 62
   250
100
AcDbSpline
210
0.0
220
0.0
230
1.0
 70
    11
 71
     3
 72
   116
 73
   112
 74
     0
 42
0.0000000001
 43
0.0000000001
 40
0.0
 40
0.0
 40
0.0
 40
0.0
 40
0.0344827586206897
 40
0.0344827586206897
 40
0.0344827586206897
 40
0.0344827586206897
 40
0.0689655172413793
 40
0.0689655172413793
 40
0.0689655172413793
 40
0.0689655172413793
 40
0.103448275862069
 40
0.103448275862069
 40
0.103448275862069
 40
0.103448275862069
 40
0.1379310344827586
 40
0.1379310344827586
 40
0.1379310344827586
 40
0.1379310344827586
 40
0.1724137931034483
 40
0.1724137931034483
 40
0.1724137931034483
 40
0.1724137931034483
 40
0.2068965517241379
 40
0.2068965517241379
 40
0.2068965517241379
 40
0.2068965517241379
 40
0.2413793103448276
 40
0.2413793103448276
 40
0.2413793103448276
 40
0.2413793103448276
 40
0.2758620689655172
 40
0.2758620689655172
 40
0.2758620689655172
 40
0.2758620689655172
 40
0.3103448275862069
 40
0.3103448275862069
 40
0.3103448275862069
 40
0.3103448275862069
 40
0.3448275862068966
 40
0.3448275862068966
 40
0.3448275862068966
 40
0.3448275862068966
 40
0.3793103448275862
 40
0.3793103448275862
 40
0.3793103448275862
 40
0.3793103448275862
 40
0.4137931034482759
 40
0.4137931034482759
 40
0.4137931034482759
 40
0.4137931034482759
 40
0.4482758620689655
 40
0.4482758620689655
 40
0.4482758620689655
 40
0.4482758620689655
 40
0.4827586206896552
 40
0.4827586206896552
 40
0.4827586206896552
 40
0.4827586206896552
 40
0.5172413793103449
 40
0.5172413793103449
 40
0.5172413793103449
 40
0.5172413793103449
 40
0.5517241379310345
 40
0.5517241379310345
 40
0.5517241379310345
 40
0.5517241379310345
 40
0.5862068965517241
 40
0.5862068965517241
 40
0.5862068965517241
 40
0.5862068965517241
 40
0.6206896551724138
 40
0.6206896551724138
 40
0.6206896551724138
 40
0.6206896551724138
 40
0.6551724137931034
 40
0.6551724137931034
 40
0.6551724137931034
 40
0.6551724137931034
 40
0.6896551724137931
 40
0.6896551724137931
 40
0.6896551724137931
 40
0.6896551724137931
 40
0.7241379310344828
 40
0.7241379310344828
 40
0.7241379310344828
 40
0.7241379310344828
 40
0.7586206896551724
 40
0.7586206896551724
 40
0.7586206896551724
 40
0.7586206896551724
 40
0.7931034482758621
 40
0.7931034482758621
 40
0.7931034482758621
 40
0.7931034482758621
 40
0.8275862068965517
 40
0.8275862068965517
 40
0.8275862068965517
 40
0.8275862068965517
 40
0.8620689655172413
 40
0.8620689655172413
 40
0.8620689655172413
 40
0.8620689655172413
 40
0.896551724137931
 40
0.896551724137931
 40
0.896551724137931
 40
0.896551724137931
 40
0.9310344827586207
 40
0.9310344827586207
 40
0.9310344827586207
 40
0.9310344827586207
 40
1.0
 40
1.0
 40
1.0
 40
1.0
 10
-14.5055
 20
22.8453
 30
0.0
 10
-14.5055
 20
22.8453
 30
0.0
 10
-15.9688
 20
22.8453
 30
0.0
 10
-15.9688
 20
22.8453
 30
0.0
 10
-15.9688
 20
22.8453
 30
0.0
 10
-15.9688
 20
22.8453
 30
0.0
 10
-15.9688
 20
23.0668
 30
0.0
 10
-15.9688
 20
23.0668
 30
0.0
 10
-15.9688
 20
23.0668
 30
0.0
 10
-15.9688
 20
23.0668
 30
0.0
 10
-15.7637
 20
23.0668
 30
0.0
 10
-15.7637
 20
23.0668
 30
0.0
 10
-15.7637
 20
23.0668
 30
0.0
 10
-15.8352
 20
23.1129
 30
0.0
 10
-15.8931
 20
23.1741
 30
0.0
 10
-15.9364
 20
23.2503
 30
0.0
 10
-15.9364
 20
23.2503
 30
0.0
 10
-15.9801
 20
23.3265
 30
0.0
 10
-16.0022
 20
23.4135
 30
0.0
 10
-16.0022
 20
23.5108
 30
0.0
 10
-16.0022
 20
23.5108
 30
0.0
 10
-16.0022
 20
23.619
 30
0.0
 10
-15.9796
 20
23.7079
 30
0.0
 10
-15.9345
 20
23.7771
 30
0.0
 10
-15.9345
 20
23.7771
 30
0.0
 10
-15.8893
 20
23.8467
 30
0.0
 10
-15.8268
 20
23.8956
 30
0.0
 10
-15.7459
 20
23.9238
 30
0.0
 10
-15.7459
 20
23.9238
 30
0.0
 10
-15.9166
 20
24.04
 30
0.0
 10
-16.0022
 20
24.1905
 30
0.0
 10
-16.0022
 20
24.3758
 30
0.0
 10
-16.0022
 20
24.3758
 30
0.0
 10
-16.0022
 20
24.5212
 30
0.0
 10
-15.9618
 20
24.6327
 30
0.0
 10
-15.8813
 20
24.7107
 30
0.0
 10
-15.8813
 20
24.7107
 30
0.0
 10
-15.8009
 20
24.7888
 30
0.0
 10
-15.6772
 20
24.8279
 30
0.0
 10
-15.5102
 20
24.8279
 30
0.0
 10
-15.5102
 20
24.8279
 30
0.0
 10
-15.5102
 20
24.8279
 30
0.0
 10
-14.5055
 20
24.8279
 30
0.0
 10
-14.5055
 20
24.8279
 30
0.0
 10
-14.5055
 20
24.8279
 30
0.0
 10
-14.5055
 20
24.8279
 30
0.0
 10
-14.5055
 20
24.5814
 30
0.0
 10
-14.5055
 20
24.5814
 30
0.0
 10
-14.5055
 20
24.5814
 30
0.0
 10
-14.5055
 20
24.5814
 30
0.0
 10
-15.4274
 20
24.5814
 30
0.0
 10
-15.4274
 20
24.5814
 30
0.0
 10
-15.4274
 20
24.5814
 30
0.0
 10
-15.5267
 20
24.5814
 30
0.0
 10
-15.5982
 20
24.5734
 30
0.0
 10
-15.6419
 20
24.5574
 30
0.0
 10
-15.6419
 20
24.5574
 30
0.0
 10
-15.6852
 20
24.5409
 30
0.0
 10
-15.7205
 20
24.5118
 30
0.0
 10
-15.7473
 20
24.4699
 30
0.0
 10
-15.7473
 20
24.4699
 30
0.0
 10
-15.7736
 20
24.4276
 30
0.0
 10
-15.7872
 20
24.3777
 30
0.0
 10
-15.7872
 20
24.3208
 30
0.0
 10
-15.7872
 20
24.3208
 30
0.0
 10
-15.7872
 20
24.2178
 30
0.0
 10
-15.7529
 20
24.1327
 30
0.0
 10
-15.6842
 20
24.0645
 30
0.0
 10
-15.6842
 20
24.0645
 30
0.0
 10
-15.616
 20
23.9967
 30
0.0
 10
-15.5064
 20
23.9624
 30
0.0
 10
-15.3559
 20
23.9624
 30
0.0
 10
-15.3559
 20
23.9624
 30
0.0
 10
-15.3559
 20
23.9624
 30
0.0
 10
-14.5055
 20
23.9624
 30
0.0
 10
-14.5055
 20
23.9624
 30
0.0
 10
-14.5055
 20
23.9624
 30
0.0
 10
-14.5055
 20
23.9624
 30
0.0
 10
-14.5055
 20
23.7145
 30
0.0
 10
-14.5055
 20
23.7145
 30
0.0
 10
-14.5055
 20
23.7145
 30
0.0
 10
-14.5055
 20
23.7145
 30
0.0
 10
-15.4561
 20
23.7145
 30
0.0
 10
-15.4561
 20
23.7145
 30
0.0
 10
-15.4561
 20
23.7145
 30
0.0
 10
-15.5666
 20
23.7145
 30
0.0
 10
-15.6494
 20
23.6943
 30
0.0
 10
-15.7045
 20
23.6538
 30
0.0
 10
-15.7045
 20
23.6538
 30
0.0
 10
-15.7595
 20
23.6134
 30
0.0
 10
-15.7872
 20
23.5475
 30
0.0
 10
-15.7872
 20
23.4553
 30
0.0
 10
-15.7872
 20
23.4553
 30
0.0
 10
-15.7872
 20
23.3857
 30
0.0
 10
-15.7689
 20
23.3213
 30
0.0
 10
-15.7317
 20
23.262
 30
0.0
 10
-15.7317
 20
23.262
 30
0.0
 10
-15.6951
 20
23.2027
 30
0.0
 10
-15.6414
 20
23.1595
 30
0.0
 10
-15.5709
 20
23.1331
 30
0.0
 10
-15.5709
 20
23.1331
 30
0.0
 10
-15.4999
 20
23.1063
 30
0.0
 10
-15.3978
 20
23.0931
 30
0.0
 10
-15.2647
 20
23.0931
 30
0.0
 10
-15.2647
 20
23.0931
 30
0.0
 10
-15.2647
 20
23.0931
 30
0.0
 10
-14.5055
 20
23.0931
 30
0.0
 10
-14.5055
 20
23.0931
 30
0.0
 10
-14.5055
 20
23.0931
 30
0.0
 10
-14.5055
 20
23.0931
 30
0.0
 10
-14.5055
 20
22.8453
 30
0.0
 10
-14.5055
 20
22.8453
 30
0.0
  0
SPLINE
  5
B4
330
1F
100
AcDbEntity
  8
DEFAULT_1
 62
   250
100
AcDbSpline
210
0.0
220
0.0
230
1.0
 70
    11
 71
     3
 72
   112
 73
   108
 74
     0
 42
0.0000000001
 43
0.0000000001
 40
0.0
 40
0.0
 40
0.0
 40
0.0
 40
0.0357142857142857
 40
0.0357142857142857
 40
0.0357142857142857
 40
0.0357142857142857
 40
0.0714285714285714
 40
0.0714285714285714
 40
0.0714285714285714
 40
0.0714285714285714
 40
0.1071428571428571
 40
0.1071428571428571
 40
0.1071428571428571
 40
0.1071428571428571
 40
0.1428571428571428
 40
0.1428571428571428
 40
0.1428571428571428
 40
0.1428571428571428
 40
0.1785714285714286
 40
0.1785714285714286
 40
0.1785714285714286
 40
0.1785714285714286
 40
0.2142857142857143
 40
0.2142857142857143
 40
0.2142857142857143
 40
0.2142857142857143
 40
0.25
 40
0.25
 40
0.25
 40
0.25
 40
0.2857142857142857
 40
0.2857142857142857
 40
0.2857142857142857
 40
0.2857142857142857
 40
0.3214285714285715
 40
0.3214285714285715
 40
0.3214285714285715
 40
0.3214285714285715
 40
0.3571428571428572
 40
0.3571428571428572
 40
0.3571428571428572
 40
0.3571428571428572
 40
0.3928571428571428
 40
0.3928571428571428
 40
0.3928571428571428
 40
0.3928571428571428
 40
0.4285714285714285
 40
0.4285714285714285
 40
0.4285714285714285
 40
0.4285714285714285
 40
0.4642857142857143
 40
0.4642857142857143
 40
0.4642857142857143
 40
0.4642857142857143
 40
0.5
 40
0.5
 40
0.5
 40
0.5
 40
0.5357142857142857
 40
0.5357142857142857
 40
0.5357142857142857
 40
0.5357142857142857
 40
0.5714285714285714
 40
0.5714285714285714
 40
0.5714285714285714
 40
0.5714285714285714
 40
0.6071428571428571
 40
0.6071428571428571
 40
0.6071428571428571
 40
0.6071428571428571
 40
0.6428571428571429
 40
0.6428571428571429
 40
0.6428571428571429
 40
0.6428571428571429
 40
0.6785714285714286
 40
0.6785714285714286
 40
0.6785714285714286
 40
0.6785714285714286
 40
0.7142857142857143
 40
0.7142857142857143
 40
0.7142857142857143
 40
0.7142857142857143
 40
0.75
 40
0.75
 40
0.75
 40
0.75
 40
0.7857142857142857
 40
0.7857142857142857
 40
0.7857142857142857
 40
0.7857142857142857
 40
0.8214285714285714
 40
0.8214285714285714
 40
0.8214285714285714
 40
0.8214285714285714
 40
0.8571428571428571
 40
0.8571428571428571
 40
0.8571428571428571
 40
0.8571428571428571
 40
0.8928571428571429
 40
0.8928571428571429
 40
0.8928571428571429
 40
0.8928571428571429
 40
0.9285714285714286
 40
0.9285714285714286
 40
0.9285714285714286
 40
0.9285714285714286
 40
1.0
 40
1.0
 40
1.0
 40
1.0
 10
-14.6861
 20
26.151
 30
0.0
 10
-14.608
 20
26.0588
 30
0.0
 10
-14.553
 20
25.9704
 30
0.0
 10
-14.5206
 20
25.8857
 30
0.0
 10
-14.5206
 20
25.8857
 30
0.0
 10
-14.4886
 20
25.8006
 30
0.0
 10
-14.4726
 20
25.7093
 30
0.0
 10
-14.4726
 20
25.612
 30
0.0
 10
-14.4726
 20
25.612
 30
0.0
 10
-14.4726
 20
25.4511
 30
0.0
 10
-14.5116
 20
25.3279
 30
0.0
 10
-14.5902
 20
25.2413
 30
0.0
 10
-14.5902
 20
25.2413
 30
0.0
 10
-14.6687
 20
25.1552
 30
0.0
 10
-14.7694
 20
25.112
 30
0.0
 10
-14.8912
 20
25.112
 30
0.0
 10
-14.8912
 20
25.112
 30
0.0
 10
-14.9632
 20
25.112
 30
0.0
 10
-15.0285
 20
25.128
 30
0.0
 10
-15.0878
 20
25.1609
 30
0.0
 10
-15.0878
 20
25.1609
 30
0.0
 10
-15.1471
 20
25.1933
 30
0.0
 10
-15.1946
 20
25.2361
 30
0.0
 10
-15.2303
 20
25.2888
 30
0.0
 10
-15.2303
 20
25.2888
 30
0.0
 10
-15.2661
 20
25.342
 30
0.0
 10
-15.2934
 20
25.4012
 30
0.0
 10
-15.3117
 20
25.4676
 30
0.0
 10
-15.3117
 20
25.4676
 30
0.0
 10
-15.3244
 20
25.516
 30
0.0
 10
-15.3371
 20
25.5894
 30
0.0
 10
-15.3489
 20
25.6877
 30
0.0
 10
-15.3489
 20
25.6877
 30
0.0
 10
-15.3729
 20
25.8881
 30
0.0
 10
-15.4011
 20
26.0358
 30
0.0
 10
-15.4345
 20
26.1303
 30
0.0
 10
-15.4345
 20
26.1303
 30
0.0
 10
-15.4683
 20
26.1313
 30
0.0
 10
-15.49
 20
26.1317
 30
0.0
 10
-15.4989
 20
26.1317
 30
0.0
 10
-15.4989
 20
26.1317
 30
0.0
 10
-15.6
 20
26.1317
 30
0.0
 10
-15.6715
 20
26.1082
 30
0.0
 10
-15.7125
 20
26.0612
 30
0.0
 10
-15.7125
 20
26.0612
 30
0.0
 10
-15.7689
 20
25.9981
 30
0.0
 10
-15.7967
 20
25.9036
 30
0.0
 10
-15.7967
 20
25.7789
 30
0.0
 10
-15.7967
 20
25.7789
 30
0.0
 10
-15.7967
 20
25.6623
 30
0.0
 10
-15.7764
 20
25.5762
 30
0.0
 10
-15.7355
 20
25.5202
 30
0.0
 10
-15.7355
 20
25.5202
 30
0.0
 10
-15.6946
 20
25.4647
 30
0.0
 10
-15.6222
 20
25.4238
 30
0.0
 10
-15.5182
 20
25.397
 30
0.0
 10
-15.5182
 20
25.397
 30
0.0
 10
-15.5182
 20
25.397
 30
0.0
 10
-15.5516
 20
25.1548
 30
0.0
 10
-15.5516
 20
25.1548
 30
0.0
 10
-15.5516
 20
25.1548
 30
0.0
 10
-15.6551
 20
25.1769
 30
0.0
 10
-15.7393
 20
25.2131
 30
0.0
 10
-15.8028
 20
25.2634
 30
0.0
 10
-15.8028
 20
25.2634
 30
0.0
 10
-15.8667
 20
25.3138
 30
0.0
 10
-15.9161
 20
25.3871
 30
0.0
 10
-15.9505
 20
25.4826
 30
0.0
 10
-15.9505
 20
25.4826
 30
0.0
 10
-15.9848
 20
25.5781
 30
0.0
 10
-16.0022
 20
25.6886
 30
0.0
 10
-16.0022
 20
25.8147
 30
0.0
 10
-16.0022
 20
25.8147
 30
0.0
 10
-16.0022
 20
25.9398
 30
0.0
 10
-15.9872
 20
26.0409
 30
0.0
 10
-15.958
 20
26.119
 30
0.0
 10
-15.958
 20
26.119
 30
0.0
 10
-15.9284
 20
26.1971
 30
0.0
 10
-15.8917
 20
26.2545
 30
0.0
 10
-15.847
 20
26.2916
 30
0.0
 10
-15.847
 20
26.2916
 30
0.0
 10
-15.8023
 20
26.3283
 30
0.0
 10
-15.7463
 20
26.3537
 30
0.0
 10
-15.6781
 20
26.3688
 30
0.0
 10
-15.6781
 20
26.3688
 30
0.0
 10
-15.6358
 20
26.3768
 30
0.0
 10
-15.5596
 20
26.381
 30
0.0
 10
-15.4495
 20
26.381
 30
0.0
 10
-15.4495
 20
26.381
 30
0.0
 10
-15.4495
 20
26.381
 30
0.0
 10
-15.1189
 20
26.381
 30
0.0
 10
-15.1189
 20
26.381
 30
0.0
 10
-15.1189
 20
26.381
 30
0.0
 10
-14.8879
 20
26.381
 30
0.0
 10
-14.7421
 20
26.3862
 30
0.0
 10
-14.6814
 20
26.397
 30
0.0
 10
-14.6814
 20
26.397
 30
0.0
 10
-14.6203
 20
26.4074
 30
0.0
 10
-14.5615
 20
26.4285
 30
0.0
 10
-14.5055
 20
26.4596
 30
0.0
 10
-14.5055
 20
26.4596
 30
0.0
 10
-14.5055
 20
26.4596
 30
0.0
 10
-14.5055
 20
26.2004
 30
0.0
 10
-14.5055
 20
26.2004
 30
0.0
 10
-14.5055
 20
26.2004
 30
0.0
 10
-14.5568
 20
26.175
 30
0.0
 10
-14.617
 20
26.1581
 30
0.0
 10
-14.6861
 20
26.151
 30
0.0
  0
SPLINE
  5
B5
330
1F
100
AcDbEntity
  8
DEFAULT_1
 62
   250
100
AcDbSpline
210
0.0
220
0.0
230
1.0
 70
    11
 71
     3
 72
    44
 73
    40
 74
     0
 42
0.0000000001
 43
0.0000000001
 40
0.0
 40
0.0
 40
0.0
 40
0.0
 40
0.0909090909090909
 40
0.0909090909090909
 40
0.0909090909090909
 40
0.0909090909090909
 40
0.1818181818181818
 40
0.1818181818181818
 40
0.1818181818181818
 40
0.1818181818181818
 40
0.2727272727272727
 40
0.2727272727272727
 40
0.2727272727272727
 40
0.2727272727272727
 40
0.3636363636363636
 40
0.3636363636363636
 40
0.3636363636363636
 40
0.3636363636363636
 40
0.4545454545454545
 40
0.4545454545454545
 40
0.4545454545454545
 40
0.4545454545454545
 40
0.5454545454545454
 40
0.5454545454545454
 40
0.5454545454545454
 40
0.5454545454545454
 40
0.6363636363636364
 40
0.6363636363636364
 40
0.6363636363636364
 40
0.6363636363636364
 40
0.7272727272727273
 40
0.7272727272727273
 40
0.7272727272727273
 40
0.7272727272727273
 40
0.8181818181818182
 40
0.8181818181818182
 40
0.8181818181818182
 40
0.8181818181818182
 40
1.0
 40
1.0
 40
1.0
 40
1.0
 10
-15.2402
 20
26.1303
 30
0.0
 10
-15.2031
 20
26.04
 30
0.0
 10
-15.172
 20
25.905
 30
0.0
 10
-15.1461
 20
25.7253
 30
0.0
 10
-15.1461
 20
25.7253
 30
0.0
 10
-15.1316
 20
25.6233
 30
0.0
 10
-15.1151
 20
25.5508
 30
0.0
 10
-15.0968
 20
25.509
 30
0.0
 10
-15.0968
 20
25.509
 30
0.0
 10
-15.0784
 20
25.4666
 30
0.0
 10
-15.0516
 20
25.4337
 30
0.0
 10
-15.0158
 20
25.4111
 30
0.0
 10
-15.0158
 20
25.4111
 30
0.0
 10
-14.9806
 20
25.3881
 30
0.0
 10
-14.9415
 20
25.3763
 30
0.0
 10
-14.8983
 20
25.3763
 30
0.0
 10
-14.8983
 20
25.3763
 30
0.0
 10
-14.8319
 20
25.3763
 30
0.0
 10
-14.7769
 20
25.4017
 30
0.0
 10
-14.7327
 20
25.4516
 30
0.0
 10
-14.7327
 20
25.4516
 30
0.0
 10
-14.6889
 20
25.5014
 30
0.0
 10
-14.6668
 20
25.5748
 30
0.0
 10
-14.6668
 20
25.6712
 30
0.0
 10
-14.6668
 20
25.6712
 30
0.0
 10
-14.6668
 20
25.7667
 30
0.0
 10
-14.6875
 20
25.8519
 30
0.0
 10
-14.7294
 20
25.9262
 30
0.0
 10
-14.7294
 20
25.9262
 30
0.0
 10
-14.7713
 20
26.0005
 30
0.0
 10
-14.8286
 20
26.0555
 30
0.0
 10
-14.9011
 20
26.0903
 30
0.0
 10
-14.9011
 20
26.0903
 30
0.0
 10
-14.9571
 20
26.1171
 30
0.0
 10
-15.0398
 20
26.1303
 30
0.0
 10
-15.149
 20
26.1303
 30
0.0
 10
-15.149
 20
26.1303
 30
0.0
 10
-15.149
 20
26.1303
 30
0.0
 10
-15.2402
 20
26.1303
 30
0.0
 10
-15.2402
 20
26.1303
 30
0.0
  0
SPLINE
  5
B6
330
1F
100
AcDbEntity
  8
DEFAULT_1
 62
   250
100
AcDbSpline
210
0.0
220
0.0
230
1.0
 70
    11
 71
     3
 72
    64
 73
    60
 74
     0
 42
0.0000000001
 43
0.0000000001
 40
0.0
 40
0.0
 40
0.0
 40
0.0
 40
0.0625
 40
0.0625
 40
0.0625
 40
0.0625
 40
0.125
 40
0.125
 40
0.125
 40
0.125
 40
0.1875
 40
0.1875
 40
0.1875
 40
0.1875
 40
0.25
 40
0.25
 40
0.25
 40
0.25
 40
0.3125
 40
0.3125
 40
0.3125
 40
0.3125
 40
0.375
 40
0.375
 40
0.375
 40
0.375
 40
0.4375
 40
0.4375
 40
0.4375
 40
0.4375
 40
0.5
 40
0.5
 40
0.5
 40
0.5
 40
0.5625
 40
0.5625
 40
0.5625
 40
0.5625
 40
0.625
 40
0.625
 40
0.625
 40
0.625
 40
0.6875
 40
0.6875
 40
0.6875
 40
0.6875
 40
0.75
 40
0.75
 40
0.75
 40
0.75
 40
0.8125
 40
0.8125
 40
0.8125
 40
0.8125
 40
0.875
 40
0.875
 40
0.875
 40
0.875
 40
1.0
 40
1.0
 40
1.0
 40
1.0
 10
-14.5055
 20
26.6002
 30
0.0
 10
-14.5055
 20
26.6002
 30
0.0
 10
-15.2661
 20
27.135
 30
0.0
 10
-15.2661
 20
27.135
 30
0.0
 10
-15.2661
 20
27.135
 30
0.0
 10
-15.2661
 20
27.135
 30
0.0
 10
-15.9688
 20
26.6402
 30
0.0
 10
-15.9688
 20
26.6402
 30
0.0
 10
-15.9688
 20
26.6402
 30
0.0
 10
-15.9688
 20
26.6402
 30
0.0
 10
-15.9688
 20
26.9501
 30
0.0
 10
-15.9688
 20
26.9501
 30
0.0
 10
-15.9688
 20
26.9501
 30
0.0
 10
-15.9688
 20
26.9501
 30
0.0
 10
-15.6259
 20
27.175
 30
0.0
 10
-15.6259
 20
27.175
 30
0.0
 10
-15.6259
 20
27.175
 30
0.0
 10
-15.5605
 20
27.2168
 30
0.0
 10
-15.506
 20
27.2512
 30
0.0
 10
-15.4618
 20
27.2766
 30
0.0
 10
-15.4618
 20
27.2766
 30
0.0
 10
-15.5224
 20
27.317
 30
0.0
 10
-15.5761
 20
27.3542
 30
0.0
 10
-15.6231
 20
27.3885
 30
0.0
 10
-15.6231
 20
27.3885
 30
0.0
 10
-15.6231
 20
27.3885
 30
0.0
 10
-15.9688
 20
27.635
 30
0.0
 10
-15.9688
 20
27.635
 30
0.0
 10
-15.9688
 20
27.635
 30
0.0
 10
-15.9688
 20
27.635
 30
0.0
 10
-15.9688
 20
27.9313
 30
0.0
 10
-15.9688
 20
27.9313
 30
0.0
 10
-15.9688
 20
27.9313
 30
0.0
 10
-15.9688
 20
27.9313
 30
0.0
 10
-15.2797
 20
27.4257
 30
0.0
 10
-15.2797
 20
27.4257
 30
0.0
 10
-15.2797
 20
27.4257
 30
0.0
 10
-15.2797
 20
27.4257
 30
0.0
 10
-14.5055
 20
27.9699
 30
0.0
 10
-14.5055
 20
27.9699
 30
0.0
 10
-14.5055
 20
27.9699
 30
0.0
 10
-14.5055
 20
27.9699
 30
0.0
 10
-14.5055
 20
27.6656
 30
0.0
 10
-14.5055
 20
27.6656
 30
0.0
 10
-14.5055
 20
27.6656
 30
0.0
 10
-14.5055
 20
27.6656
 30
0.0
 10
-14.9603
 20
27.365
 30
0.0
 10
-14.9603
 20
27.365
 30
0.0
 10
-14.9603
 20
27.365
 30
0.0
 10
-14.9603
 20
27.365
 30
0.0
 10
-15.0831
 20
27.2851
 30
0.0
 10
-15.0831
 20
27.2851
 30
0.0
 10
-15.0831
 20
27.2851
 30
0.0
 10
-15.0831
 20
27.2851
 30
0.0
 10
-14.5055
 20
26.9008
 30
0.0
 10
-14.5055
 20
26.9008
 30
0.0
 10
-14.5055
 20
26.9008
 30
0.0
 10
-14.5055
 20
26.9008
 30
0.0
 10
-14.5055
 20
26.6002
 30
0.0
 10
-14.5055
 20
26.6002
 30
0.0
  0
SPLINE
  5
B7
330
1F
100
AcDbEntity
  8
DEFAULT_1
 62
   250
100
AcDbSpline
210
0.0
220
0.0
230
1.0
 70
    11
 71
     3
 72
    92
 73
    88
 74
     0
 42
0.0000000001
 43
0.0000000001
 40
0.0
 40
0.0
 40
0.0
 40
0.0
 40
0.0434782608695652
 40
0.0434782608695652
 40
0.0434782608695652
 40
0.0434782608695652
 40
0.0869565217391304
 40
0.0869565217391304
 40
0.0869565217391304
 40
0.0869565217391304
 40
0.1304347826086956
 40
0.1304347826086956
 40
0.1304347826086956
 40
0.1304347826086956
 40
0.1739130434782609
 40
0.1739130434782609
 40
0.1739130434782609
 40
0.1739130434782609
 40
0.2173913043478261
 40
0.2173913043478261
 40
0.2173913043478261
 40
0.2173913043478261
 40
0.2608695652173913
 40
0.2608695652173913
 40
0.2608695652173913
 40
0.2608695652173913
 40
0.3043478260869565
 40
0.3043478260869565
 40
0.3043478260869565
 40
0.3043478260869565
 40
0.3478260869565217
 40
0.3478260869565217
 40
0.3478260869565217
 40
0.3478260869565217
 40
0.391304347826087
 40
0.391304347826087
 40
0.391304347826087
 40
0.391304347826087
 40
0.4347826086956522
 40
0.4347826086956522
 40
0.4347826086956522
 40
0.4347826086956522
 40
0.4782608695652174
 40
0.4782608695652174
 40
0.4782608695652174
 40
0.4782608695652174
 40
0.5217391304347826
 40
0.5217391304347826
 40
0.5217391304347826
 40
0.5217391304347826
 40
0.5652173913043478
 40
0.5652173913043478
 40
0.5652173913043478
 40
0.5652173913043478
 40
0.6086956521739131
 40
0.6086956521739131
 40
0.6086956521739131
 40
0.6086956521739131
 40
0.6521739130434783
 40
0.6521739130434783
 40
0.6521739130434783
 40
0.6521739130434783
 40
0.6956521739130435
 40
0.6956521739130435
 40
0.6956521739130435
 40
0.6956521739130435
 40
0.7391304347826086
 40
0.7391304347826086
 40
0.7391304347826086
 40
0.7391304347826086
 40
0.782608695652174
 40
0.782608695652174
 40
0.782608695652174
 40
0.782608695652174
 40
0.8260869565217391
 40
0.8260869565217391
 40
0.8260869565217391
 40
0.8260869565217391
 40
0.8695652173913043
 40
0.8695652173913043
 40
0.8695652173913043
 40
0.8695652173913043
 40
0.9130434782608695
 40
0.9130434782608695
 40
0.9130434782608695
 40
0.9130434782608695
 40
1.0
 40
1.0
 40
1.0
 40
1.0
 10
-14.9726
 20
28.929
 30
0.0
 10
-14.9726
 20
28.929
 30
0.0
 10
-14.9947
 20
29.1675
 30
0.0
 10
-14.9947
 20
29.1675
 30
0.0
 10
-14.9947
 20
29.1675
 30
0.0
 10
-14.8827
 20
29.1877
 30
0.0
 10
-14.8014
 20
29.2263
 30
0.0
 10
-14.7506
 20
29.2832
 30
0.0
 10
-14.7506
 20
29.2832
 30
0.0
 10
-14.7002
 20
29.3401
 30
0.0
 10
-14.6748
 20
29.413
 30
0.0
 10
-14.6748
 20
29.5024
 30
0.0
 10
-14.6748
 20
29.5024
 30
0.0
 10
-14.6748
 20
29.5786
 30
0.0
 10
-14.6922
 20
29.6453
 30
0.0
 10
-14.7275
 20
29.7027
 30
0.0
 10
-14.7275
 20
29.7027
 30
0.0
 10
-14.7623
 20
29.7601
 30
0.0
 10
-14.8089
 20
29.8072
 30
0.0
 10
-14.8672
 20
29.8438
 30
0.0
 10
-14.8672
 20
29.8438
 30
0.0
 10
-14.9255
 20
29.881
 30
0.0
 10
-15.0046
 20
29.9116
 30
0.0
 10
-15.1033
 20
29.9365
 30
0.0
 10
-15.1033
 20
29.9365
 30
0.0
 10
-15.2026
 20
29.961
 30
0.0
 10
-15.3037
 20
29.9737
 30
0.0
 10
-15.4067
 20
29.9737
 30
0.0
 10
-15.4067
 20
29.9737
 30
0.0
 10
-15.4175
 20
29.9737
 30
0.0
 10
-15.4345
 20
29.9732
 30
0.0
 10
-15.4561
 20
29.9723
 30
0.0
 10
-15.4561
 20
29.9723
 30
0.0
 10
-15.3776
 20
29.9224
 30
0.0
 10
-15.3131
 20
29.8547
 30
0.0
 10
-15.2642
 20
29.7691
 30
0.0
 10
-15.2642
 20
29.7691
 30
0.0
 10
-15.2148
 20
29.683
 30
0.0
 10
-15.1904
 20
29.5898
 30
0.0
 10
-15.1904
 20
29.4901
 30
0.0
 10
-15.1904
 20
29.4901
 30
0.0
 10
-15.1904
 20
29.3227
 30
0.0
 10
-15.251
 20
29.1811
 30
0.0
 10
-15.3724
 20
29.0654
 30
0.0
 10
-15.3724
 20
29.0654
 30
0.0
 10
-15.4937
 20
28.9497
 30
0.0
 10
-15.6532
 20
28.8918
 30
0.0
 10
-15.8517
 20
28.8918
 30
0.0
 10
-15.8517
 20
28.8918
 30
0.0
 10
-16.0568
 20
28.8918
 30
0.0
 10
-16.2214
 20
28.952
 30
0.0
 10
-16.3465
 20
29.0729
 30
0.0
 10
-16.3465
 20
29.0729
 30
0.0
 10
-16.4716
 20
29.1938
 30
0.0
 10
-16.5342
 20
29.3453
 30
0.0
 10
-16.5342
 20
29.5273
 30
0.0
 10
-16.5342
 20
29.5273
 30
0.0
 10
-16.5342
 20
29.6585
 30
0.0
 10
-16.4984
 20
29.7785
 30
0.0
 10
-16.4279
 20
29.8876
 30
0.0
 10
-16.4279
 20
29.8876
 30
0.0
 10
-16.3573
 20
29.9962
 30
0.0
 10
-16.2562
 20
30.079
 30
0.0
 10
-16.1254
 20
30.1355
 30
0.0
 10
-16.1254
 20
30.1355
 30
0.0
 10
-15.9947
 20
30.1919
 30
0.0
 10
-15.8051
 20
30.2201
 30
0.0
 10
-15.5568
 20
30.2201
 30
0.0
 10
-15.5568
 20
30.2201
 30
0.0
 10
-15.299
 20
30.2201
 30
0.0
 10
-15.0935
 20
30.1924
 30
0.0
 10
-14.9401
 20
30.1364
 30
0.0
 10
-14.9401
 20
30.1364
 30
0.0
 10
-14.7872
 20
30.08
 30
0.0
 10
-14.6711
 20
29.9967
 30
0.0
 10
-14.5911
 20
29.8862
 30
0.0
 10
-14.5911
 20
29.8862
 30
0.0
 10
-14.5111
 20
29.7752
 30
0.0
 10
-14.4712
 20
29.6458
 30
0.0
 10
-14.4712
 20
29.4967
 30
0.0
 10
-14.4712
 20
29.4967
 30
0.0
 10
-14.4712
 20
29.3387
 30
0.0
 10
-14.5149
 20
29.2098
 30
0.0
 10
-14.6029
 20
29.1096
 30
0.0
 10
-14.6029
 20
29.1096
 30
0.0
 10
-14.6904
 20
29.0094
 30
0.0
 10
-14.8136
 20
28.9492
 30
0.0
 10
-14.9726
 20
28.929
 30
0.0
  0
SPLINE
  5
B8
330
1F
100
AcDbEntity
  8
DEFAULT_1
 62
   250
100
AcDbSpline
210
0.0
220
0.0
230
1.0
 70
    11
 71
     3
 72
    36
 73
    32
 74
     0
 42
0.0000000001
 43
0.0000000001
 40
0.0
 40
0.0
 40
0.0
 40
0.0
 40
0.1111111111111111
 40
0.1111111111111111
 40
0.1111111111111111
 40
0.1111111111111111
 40
0.2222222222222222
 40
0.2222222222222222
 40
0.2222222222222222
 40
0.2222222222222222
 40
0.3333333333333333
 40
0.3333333333333333
 40
0.3333333333333333
 40
0.3333333333333333
 40
0.4444444444444444
 40
0.4444444444444444
 40
0.4444444444444444
 40
0.4444444444444444
 40
0.5555555555555556
 40
0.5555555555555556
 40
0.5555555555555556
 40
0.5555555555555556
 40
0.6666666666666666
 40
0.6666666666666666
 40
0.6666666666666666
 40
0.6666666666666666
 40
0.7777777777777778
 40
0.7777777777777778
 40
0.7777777777777778
 40
0.7777777777777778
 40
1.0
 40
1.0
 40
1.0
 40
1.0
 10
-15.8644
 20
29.9445
 30
0.0
 10
-16.0064
 20
29.9445
 30
0.0
 10
-16.1198
 20
29.9069
 30
0.0
 10
-16.2031
 20
29.8311
 30
0.0
 10
-16.2031
 20
29.8311
 30
0.0
 10
-16.2868
 20
29.7549
 30
0.0
 10
-16.3286
 20
29.6642
 30
0.0
 10
-16.3286
 20
29.5574
 30
0.0
 10
-16.3286
 20
29.5574
 30
0.0
 10
-16.3286
 20
29.4473
 30
0.0
 10
-16.2835
 20
29.3514
 30
0.0
 10
-16.1936
 20
29.2695
 30
0.0
 10
-16.1936
 20
29.2695
 30
0.0
 10
-16.1033
 20
29.1877
 30
0.0
 10
-15.9867
 20
29.1468
 30
0.0
 10
-15.8437
 20
29.1468
 30
0.0
 10
-15.8437
 20
29.1468
 30
0.0
 10
-15.7148
 20
29.1468
 30
0.0
 10
-15.6104
 20
29.1858
 30
0.0
 10
-15.53
 20
29.2634
 30
0.0
 10
-15.53
 20
29.2634
 30
0.0
 10
-15.4495
 20
29.341
 30
0.0
 10
-15.4095
 20
29.4365
 30
0.0
 10
-15.4095
 20
29.5503
 30
0.0
 10
-15.4095
 20
29.5503
 30
0.0
 10
-15.4095
 20
29.6656
 30
0.0
 10
-15.4495
 20
29.7596
 30
0.0
 10
-15.53
 20
29.8335
 30
0.0
 10
-15.53
 20
29.8335
 30
0.0
 10
-15.6104
 20
29.9078
 30
0.0
 10
-15.7219
 20
29.9445
 30
0.0
 10
-15.8644
 20
29.9445
 30
0.0
  0
SPLINE
  5
B9
330
1F
100
AcDbEntity
  8
DEFAULT_1
 62
   250
100
AcDbSpline
210
0.0
220
0.0
230
1.0
 70
    11
 71
     3
 72
    92
 73
    88
 74
     0
 42
0.0000000001
 43
0.0000000001
 40
0.0
 40
0.0
 40
0.0
 40
0.0
 40
0.0434782608695652
 40
0.0434782608695652
 40
0.0434782608695652
 40
0.0434782608695652
 40
0.0869565217391304
 40
0.0869565217391304
 40
0.0869565217391304
 40
0.0869565217391304
 40
0.1304347826086956
 40
0.1304347826086956
 40
0.1304347826086956
 40
0.1304347826086956
 40
0.1739130434782609
 40
0.1739130434782609
 40
0.1739130434782609
 40
0.1739130434782609
 40
0.2173913043478261
 40
0.2173913043478261
 40
0.2173913043478261
 40
0.2173913043478261
 40
0.2608695652173913
 40
0.2608695652173913
 40
0.2608695652173913
 40
0.2608695652173913
 40
0.3043478260869565
 40
0.3043478260869565
 40
0.3043478260869565
 40
0.3043478260869565
 40
0.3478260869565217
 40
0.3478260869565217
 40
0.3478260869565217
 40
0.3478260869565217
 40
0.391304347826087
 40
0.391304347826087
 40
0.391304347826087
 40
0.391304347826087
 40
0.4347826086956522
 40
0.4347826086956522
 40
0.4347826086956522
 40
0.4347826086956522
 40
0.4782608695652174
 40
0.4782608695652174
 40
0.4782608695652174
 40
0.4782608695652174
 40
0.5217391304347826
 40
0.5217391304347826
 40
0.5217391304347826
 40
0.5217391304347826
 40
0.5652173913043478
 40
0.5652173913043478
 40
0.5652173913043478
 40
0.5652173913043478
 40
0.6086956521739131
 40
0.6086956521739131
 40
0.6086956521739131
 40
0.6086956521739131
 40
0.6521739130434783
 40
0.6521739130434783
 40
0.6521739130434783
 40
0.6521739130434783
 40
0.6956521739130435
 40
0.6956521739130435
 40
0.6956521739130435
 40
0.6956521739130435
 40
0.7391304347826086
 40
0.7391304347826086
 40
0.7391304347826086
 40
0.7391304347826086
 40
0.782608695652174
 40
0.782608695652174
 40
0.782608695652174
 40
0.782608695652174
 40
0.8260869565217391
 40
0.8260869565217391
 40
0.8260869565217391
 40
0.8260869565217391
 40
0.8695652173913043
 40
0.8695652173913043
 40
0.8695652173913043
 40
0.8695652173913043
 40
0.9130434782608695
 40
0.9130434782608695
 40
0.9130434782608695
 40
0.9130434782608695
 40
1.0
 40
1.0
 40
1.0
 40
1.0
 10
-15.0347
 20
30.4614
 30
0.0
 10
-15.0347
 20
30.4614
 30
0.0
 10
-15.0568
 20
30.722
 30
0.0
 10
-15.0568
 20
30.722
 30
0.0
 10
-15.0568
 20
30.722
 30
0.0
 10
-14.9298
 20
30.7413
 30
0.0
 10
-14.8348
 20
30.786
 30
0.0
 10
-14.7708
 20
30.8561
 30
0.0
 10
-14.7708
 20
30.8561
 30
0.0
 10
-14.7068
 20
30.9266
 30
0.0
 10
-14.6748
 20
31.0113
 30
0.0
 10
-14.6748
 20
31.1105
 30
0.0
 10
-14.6748
 20
31.1105
 30
0.0
 10
-14.6748
 20
31.23
 30
0.0
 10
-14.72
 20
31.3311
 30
0.0
 10
-14.8098
 20
31.4134
 30
0.0
 10
-14.8098
 20
31.4134
 30
0.0
 10
-14.9001
 20
31.4962
 30
0.0
 10
-15.0196
 20
31.5376
 30
0.0
 10
-15.1682
 20
31.5376
 30
0.0
 10
-15.1682
 20
31.5376
 30
0.0
 10
-15.3098
 20
31.5376
 30
0.0
 10
-15.4213
 20
31.4981
 30
0.0
 10
-15.5031
 20
31.4186
 30
0.0
 10
-15.5031
 20
31.4186
 30
0.0
 10
-15.585
 20
31.3391
 30
0.0
 10
-15.6259
 20
31.2352
 30
0.0
 10
-15.6259
 20
31.1063
 30
0.0
 10
-15.6259
 20
31.1063
 30
0.0
 10
-15.6259
 20
31.0263
 30
0.0
 10
-15.6076
 20
30.9544
 30
0.0
 10
-15.5714
 20
30.8899
 30
0.0
 10
-15.5714
 20
30.8899
 30
0.0
 10
-15.5351
 20
30.8255
 30
0.0
 10
-15.4881
 20
30.7752
 30
0.0
 10
-15.4302
 20
30.7385
 30
0.0
 10
-15.4302
 20
30.7385
 30
0.0
 10
-15.4302
 20
30.7385
 30
0.0
 10
-15.4603
 20
30.5056
 30
0.0
 10
-15.4603
 20
30.5056
 30
0.0
 10
-15.4603
 20
30.5056
 30
0.0
 10
-15.4603
 20
30.5056
 30
0.0
 10
-16.498
 20
30.7013
 30
0.0
 10
-16.498
 20
30.7013
 30
0.0
 10
-16.498
 20
30.7013
 30
0.0
 10
-16.498
 20
30.7013
 30
0.0
 10
-16.498
 20
31.706
 30
0.0
 10
-16.498
 20
31.706
 30
0.0
 10
-16.498
 20
31.706
 30
0.0
 10
-16.498
 20
31.706
 30
0.0
 10
-16.2609
 20
31.706
 30
0.0
 10
-16.2609
 20
31.706
 30
0.0
 10
-16.2609
 20
31.706
 30
0.0
 10
-16.2609
 20
31.706
 30
0.0
 10
-16.2609
 20
30.8998
 30
0.0
 10
-16.2609
 20
30.8998
 30
0.0
 10
-16.2609
 20
30.8998
 30
0.0
 10
-16.2609
 20
30.8998
 30
0.0
 10
-15.7181
 20
30.7907
 30
0.0
 10
-15.7181
 20
30.7907
 30
0.0
 10
-15.7181
 20
30.7907
 30
0.0
 10
-15.8028
 20
30.912
 30
0.0
 10
-15.8451
 20
31.0395
 30
0.0
 10
-15.8451
 20
31.1726
 30
0.0
 10
-15.8451
 20
31.1726
 30
0.0
 10
-15.8451
 20
31.349
 30
0.0
 10
-15.784
 20
31.4976
 30
0.0
 10
-15.6617
 20
31.619
 30
0.0
 10
-15.6617
 20
31.619
 30
0.0
 10
-15.5394
 20
31.7403
 30
0.0
 10
-15.3823
 20
31.801
 30
0.0
 10
-15.1904
 20
31.801
 30
0.0
 10
-15.1904
 20
31.801
 30
0.0
 10
-15.0074
 20
31.801
 30
0.0
 10
-14.8493
 20
31.7474
 30
0.0
 10
-14.7162
 20
31.6411
 30
0.0
 10
-14.7162
 20
31.6411
 30
0.0
 10
-14.553
 20
31.5113
 30
0.0
 10
-14.4712
 20
31.3344
 30
0.0
 10
-14.4712
 20
31.1105
 30
0.0
 10
-14.4712
 20
31.1105
 30
0.0
 10
-14.4712
 20
30.9266
 30
0.0
 10
-14.5224
 20
30.7766
 30
0.0
 10
-14.6254
 20
30.6604
 30
0.0
 10
-14.6254
 20
30.6604
 30
0.0
 10
-14.7285
 20
30.5442
 30
0.0
 10
-14.8649
 20
30.4779
 30
0.0
 10
-15.0347
 20
30.4614
 30
0.0
  0
SPLINE
  5
BA
330
1F
100
AcDbEntity
  8
DEFAULT_1
 62
   250
100
AcDbSpline
210
0.0
220
0.0
230
1.0
 70
    11
 71
     3
 72
    20
 73
    16
 74
     0
 42
0.0000000001
 43
0.0000000001
 40
0.0
 40
0.0
 40
0.0
 40
0.0
 40
0.2
 40
0.2
 40
0.2
 40
0.2
 40
0.4
 40
0.4
 40
0.4
 40
0.4
 40
0.6
 40
0.6
 40
0.6
 40
0.6
 40
1.0
 40
1.0
 40
1.0
 40
1.0
 10
-13.5708
 20
22.0569
 30
0.0
 10
-13.5708
 20
22.0569
 30
0.0
 10
-13.9237
 20
19.5569
 30
0.0
 10
-13.9237
 20
19.5569
 30
0.0
 10
-13.9237
 20
19.5569
 30
0.0
 10
-13.9237
 20
19.5569
 30
0.0
 10
-14.002
 20
19.5569
 30
0.0
 10
-14.002
 20
19.5569
 30
0.0
 10
-14.002
 20
19.5569
 30
0.0
 10
-14.002
 20
19.5569
 30
0.0
 10
-14.3783
 20
22.0569
 30
0.0
 10
-14.3783
 20
22.0569
 30
0.0
 10
-14.3783
 20
22.0569
 30
0.0
 10
-14.3783
 20
22.0569
 30
0.0
 10
-13.5708
 20
22.0569
 30
0.0
 10
-13.5708
 20
22.0569
 30
0.0
  0
SPLINE
  5
BB
330
1F
100
AcDbEntity
  8
DEFAULT_1
 62
   250
100
AcDbSpline
210
0.0
220
0.0
230
1.0
 70
    11
 71
     3
 72
    84
 73
    80
 74
     0
 42
0.0000000001
 43
0.0000000001
 40
0.0
 40
0.0
 40
0.0
 40
0.0
 40
0.0476190476190476
 40
0.0476190476190476
 40
0.0476190476190476
 40
0.0476190476190476
 40
0.0952380952380952
 40
0.0952380952380952
 40
0.0952380952380952
 40
0.0952380952380952
 40
0.1428571428571428
 40
0.1428571428571428
 40
0.1428571428571428
 40
0.1428571428571428
 40
0.1904761904761905
 40
0.1904761904761905
 40
0.1904761904761905
 40
0.1904761904761905
 40
0.2380952380952381
 40
0.2380952380952381
 40
0.2380952380952381
 40
0.2380952380952381
 40
0.2857142857142857
 40
0.2857142857142857
 40
0.2857142857142857
 40
0.2857142857142857
 40
0.3333333333333333
 40
0.3333333333333333
 40
0.3333333333333333
 40
0.3333333333333333
 40
0.3809523809523809
 40
0.3809523809523809
 40
0.3809523809523809
 40
0.3809523809523809
 40
0.4285714285714285
 40
0.4285714285714285
 40
0.4285714285714285
 40
0.4285714285714285
 40
0.4761904761904762
 40
0.4761904761904762
 40
0.4761904761904762
 40
0.4761904761904762
 40
0.5238095238095238
 40
0.5238095238095238
 40
0.5238095238095238
 40
0.5238095238095238
 40
0.5714285714285714
 40
0.5714285714285714
 40
0.5714285714285714
 40
0.5714285714285714
 40
0.6190476190476191
 40
0.6190476190476191
 40
0.6190476190476191
 40
0.6190476190476191
 40
0.6666666666666666
 40
0.6666666666666666
 40
0.6666666666666666
 40
0.6666666666666666
 40
0.7142857142857143
 40
0.7142857142857143
 40
0.7142857142857143
 40
0.7142857142857143
 40
0.7619047619047619
 40
0.7619047619047619
 40
0.7619047619047619
 40
0.7619047619047619
 40
0.8095238095238095
 40
0.8095238095238095
 40
0.8095238095238095
 40
0.8095238095238095
 40
0.8571428571428571
 40
0.8571428571428571
 40
0.8571428571428571
 40
0.8571428571428571
 40
0.9047619047619048
 40
0.9047619047619048
 40
0.9047619047619048
 40
0.9047619047619048
 40
1.0
 40
1.0
 40
1.0
 40
1.0
 10
0.4465
 20
40.5321
 30
0.0
 10
0.4465
 20
40.5321
 30
0.0
 10
0.6779
 20
40.7912
 30
0.0
 10
0.6779
 20
40.7912
 30
0.0
 10
0.6779
 20
40.7912
 30
0.0
 10
0.6779
 20
40.7912
 30
0.0
 10
0.8143
 20
40.6755
 30
0.0
 10
0.8143
 20
40.6755
 30
0.0
 10
0.8143
 20
40.6755
 30
0.0
 10
0.8143
 20
40.6755
 30
0.0
 10
0.5721
 20
40.4027
 30
0.0
 10
0.5721
 20
40.4027
 30
0.0
 10
0.5721
 20
40.4027
 30
0.0
 10
0.6511
 20
40.2851
 30
0.0
 10
0.7042
 20
40.1821
 30
0.0
 10
0.732
 20
40.0942
 30
0.0
 10
0.732
 20
40.0942
 30
0.0
 10
0.7687
 20
39.9784
 30
0.0
 10
0.787
 20
39.8486
 30
0.0
 10
0.787
 20
39.7056
 30
0.0
 10
0.787
 20
39.7056
 30
0.0
 10
0.787
 20
39.4987
 30
0.0
 10
0.7452
 20
39.3143
 30
0.0
 10
0.6614
 20
39.153
 30
0.0
 10
0.6614
 20
39.153
 30
0.0
 10
0.5777
 20
38.9911
 30
0.0
 10
0.4606
 20
38.8689
 30
0.0
 10
0.3096
 20
38.7861
 30
0.0
 10
0.3096
 20
38.7861
 30
0.0
 10
0.1581
 20
38.7038
 30
0.0
 10
-0.0022
 20
38.6624
 30
0.0
 10
-0.172
 20
38.6624
 30
0.0
 10
-0.172
 20
38.6624
 30
0.0
 10
-0.299
 20
38.6624
 30
0.0
 10
-0.4138
 20
38.6802
 30
0.0
 10
-0.5168
 20
38.716
 30
0.0
 10
-0.5168
 20
38.716
 30
0.0
 10
-0.5958
 20
38.7437
 30
0.0
 10
-0.688
 20
38.7964
 30
0.0
 10
-0.7939
 20
38.8745
 30
0.0
 10
-0.7939
 20
38.8745
 30
0.0
 10
-0.7939
 20
38.8745
 30
0.0
 10
-1.0253
 20
38.6153
 30
0.0
 10
-1.0253
 20
38.6153
 30
0.0
 10
-1.0253
 20
38.6153
 30
0.0
 10
-1.0253
 20
38.6153
 30
0.0
 10
-1.1617
 20
38.731
 30
0.0
 10
-1.1617
 20
38.731
 30
0.0
 10
-1.1617
 20
38.731
 30
0.0
 10
-1.1617
 20
38.731
 30
0.0
 10
-0.919
 20
39.0024
 30
0.0
 10
-0.919
 20
39.0024
 30
0.0
 10
-0.919
 20
39.0024
 30
0.0
 10
-1.0093
 20
39.1393
 30
0.0
 10
-1.0695
 20
39.2564
 30
0.0
 10
-1.0996
 20
39.3533
 30
0.0
 10
-1.0996
 20
39.3533
 30
0.0
 10
-1.1297
 20
39.4502
 30
0.0
 10
-1.1452
 20
39.5669
 30
0.0
 10
-1.1452
 20
39.7028
 30
0.0
 10
-1.1452
 20
39.7028
 30
0.0
 10
-1.1452
 20
39.9102
 30
0.0
 10
-1.1038
 20
40.0951
 30
0.0
 10
-1.0211
 20
40.2574
 30
0.0
 10
-1.0211
 20
40.2574
 30
0.0
 10
-0.9383
 20
40.4197
 30
0.0
 10
-0.8226
 20
40.5424
 30
0.0
 10
-0.673
 20
40.6261
 30
0.0
 10
-0.673
 20
40.6261
 30
0.0
 10
-0.5239
 20
40.7094
 30
0.0
 10
-0.3578
 20
40.7513
 30
0.0
 10
-0.1749
 20
40.7513
 30
0.0
 10
-0.1749
 20
40.7513
 30
0.0
 10
-0.0516
 20
40.7513
 30
0.0
 10
0.0561
 20
40.7353
 30
0.0
 10
0.1483
 20
40.7023
 30
0.0
 10
0.1483
 20
40.7023
 30
0.0
 10
0.2405
 20
40.6699
 30
0.0
 10
0.3402
 20
40.613
 30
0.0
 10
0.4465
 20
40.5321
 30
0.0
  0
SPLINE
  5
BC
330
1F
100
AcDbEntity
  8
DEFAULT_1
 62
   250
100
AcDbSpline
210
0.0
220
0.0
230
1.0
 70
    11
 71
     3
 72
    32
 73
    28
 74
     0
 42
0.0000000001
 43
0.0000000001
 40
0.0
 40
0.0
 40
0.0
 40
0.0
 40
0.125
 40
0.125
 40
0.125
 40
0.125
 40
0.25
 40
0.25
 40
0.25
 40
0.25
 40
0.375
 40
0.375
 40
0.375
 40
0.375
 40
0.5
 40
0.5
 40
0.5
 40
0.5
 40
0.625
 40
0.625
 40
0.625
 40
0.625
 40
0.75
 40
0.75
 40
0.75
 40
0.75
 40
1.0
 40
1.0
 40
1.0
 40
1.0
 10
0.2814
 20
40.3463
 30
0.0
 10
0.1948
 20
40.414
 30
0.0
 10
0.1191
 20
40.4606
 30
0.0
 10
0.0547
 20
40.4855
 30
0.0
 10
0.0547
 20
40.4855
 30
0.0
 10
-0.0102
 20
40.51
 30
0.0
 10
-0.0864
 20
40.5227
 30
0.0
 10
-0.1735
 20
40.5227
 30
0.0
 10
-0.1735
 20
40.5227
 30
0.0
 10
-0.3748
 20
40.5227
 30
0.0
 10
-0.5408
 20
40.4545
 30
0.0
 10
-0.6725
 20
40.3181
 30
0.0
 10
-0.6725
 20
40.3181
 30
0.0
 10
-0.8038
 20
40.1816
 30
0.0
 10
-0.8696
 20
39.978
 30
0.0
 10
-0.8696
 20
39.7066
 30
0.0
 10
-0.8696
 20
39.7066
 30
0.0
 10
-0.8696
 20
39.6003
 30
0.0
 10
-0.8593
 20
39.5057
 30
0.0
 10
-0.839
 20
39.4229
 30
0.0
 10
-0.839
 20
39.4229
 30
0.0
 10
-0.8244
 20
39.3613
 30
0.0
 10
-0.7939
 20
39.2856
 30
0.0
 10
-0.7468
 20
39.1958
 30
0.0
 10
-0.7468
 20
39.1958
 30
0.0
 10
-0.7468
 20
39.1958
 30
0.0
 10
0.2814
 20
40.3463
 30
0.0
 10
0.2814
 20
40.3463
 30
0.0
  0
SPLINE
  5
BD
330
1F
100
AcDbEntity
  8
DEFAULT_1
 62
   250
100
AcDbSpline
210
0.0
220
0.0
230
1.0
 70
    11
 71
     3
 72
    28
 73
    24
 74
     0
 42
0.0000000001
 43
0.0000000001
 40
0.0
 40
0.0
 40
0.0
 40
0.0
 40
0.1428571428571428
 40
0.1428571428571428
 40
0.1428571428571428
 40
0.1428571428571428
 40
0.2857142857142857
 40
0.2857142857142857
 40
0.2857142857142857
 40
0.2857142857142857
 40
0.4285714285714285
 40
0.4285714285714285
 40
0.4285714285714285
 40
0.4285714285714285
 40
0.5714285714285714
 40
0.5714285714285714
 40
0.5714285714285714
 40
0.5714285714285714
 40
0.7142857142857143
 40
0.7142857142857143
 40
0.7142857142857143
 40
0.7142857142857143
 40
1.0
 40
1.0
 40
1.0
 40
1.0
 10
0.3943
 20
40.2042
 30
0.0
 10
0.3943
 20
40.2042
 30
0.0
 10
-0.6297
 20
39.0579
 30
0.0
 10
-0.6297
 20
39.0579
 30
0.0
 10
-0.6297
 20
39.0579
 30
0.0
 10
-0.5592
 20
39.0001
 30
0.0
 10
-0.4938
 20
38.9596
 30
0.0
 10
-0.434
 20
38.9366
 30
0.0
 10
-0.434
 20
38.9366
 30
0.0
 10
-0.356
 20
38.906
 30
0.0
 10
-0.2713
 20
38.891
 30
0.0
 10
-0.1805
 20
38.891
 30
0.0
 10
-0.1805
 20
38.891
 30
0.0
 10
0.0199
 20
38.891
 30
0.0
 10
0.185
 20
38.9615
 30
0.0
 10
0.3157
 20
39.1031
 30
0.0
 10
0.3157
 20
39.1031
 30
0.0
 10
0.446
 20
39.2447
 30
0.0
 10
0.5114
 20
39.4432
 30
0.0
 10
0.5114
 20
39.6986
 30
0.0
 10
0.5114
 20
39.6986
 30
0.0
 10
0.5114
 20
39.8895
 30
0.0
 10
0.4724
 20
40.0584
 30
0.0
 10
0.3943
 20
40.2042
 30
0.0
  0
SPLINE
  5
BE
330
1F
100
AcDbEntity
  8
DEFAULT_1
 62
   250
100
AcDbSpline
210
0.0
220
0.0
230
1.0
 70
    11
 71
     3
 72
    40
 73
    36
 74
     0
 42
0.0000000001
 43
0.0000000001
 40
0.0
 40
0.0
 40
0.0
 40
0.0
 40
0.1
 40
0.1
 40
0.1
 40
0.1
 40
0.2
 40
0.2
 40
0.2
 40
0.2
 40
0.3
 40
0.3
 40
0.3
 40
0.3
 40
0.4
 40
0.4
 40
0.4
 40
0.4
 40
0.5
 40
0.5
 40
0.5
 40
0.5
 40
0.6
 40
0.6
 40
0.6
 40
0.6
 40
0.7
 40
0.7
 40
0.7
 40
0.7
 40
0.8
 40
0.8
 40
0.8
 40
0.8
 40
1.0
 40
1.0
 40
1.0
 40
1.0
 10
1.9705
 20
38.6967
 30
0.0
 10
1.9705
 20
38.6967
 30
0.0
 10
1.7226
 20
38.6967
 30
0.0
 10
1.7226
 20
38.6967
 30
0.0
 10
1.7226
 20
38.6967
 30
0.0
 10
1.7226
 20
38.6967
 30
0.0
 10
1.7226
 20
40.2771
 30
0.0
 10
1.7226
 20
40.2771
 30
0.0
 10
1.7226
 20
40.2771
 30
0.0
 10
1.6628
 20
40.2202
 30
0.0
 10
1.5848
 20
40.1633
 30
0.0
 10
1.4879
 20
40.1064
 30
0.0
 10
1.4879
 20
40.1064
 30
0.0
 10
1.3905
 20
40.0495
 30
0.0
 10
1.3035
 20
40.0067
 30
0.0
 10
1.2263
 20
39.9784
 30
0.0
 10
1.2263
 20
39.9784
 30
0.0
 10
1.2263
 20
39.9784
 30
0.0
 10
1.2263
 20
40.2179
 30
0.0
 10
1.2263
 20
40.2179
 30
0.0
 10
1.2263
 20
40.2179
 30
0.0
 10
1.3651
 20
40.2832
 30
0.0
 10
1.4865
 20
40.3623
 30
0.0
 10
1.5904
 20
40.4549
 30
0.0
 10
1.5904
 20
40.4549
 30
0.0
 10
1.6939
 20
40.5481
 30
0.0
 10
1.7677
 20
40.6379
 30
0.0
 10
1.811
 20
40.7254
 30
0.0
 10
1.811
 20
40.7254
 30
0.0
 10
1.811
 20
40.7254
 30
0.0
 10
1.9705
 20
40.7254
 30
0.0
 10
1.9705
 20
40.7254
 30
0.0
 10
1.9705
 20
40.7254
 30
0.0
 10
1.9705
 20
40.7254
 30
0.0
 10
1.9705
 20
38.6967
 30
0.0
 10
1.9705
 20
38.6967
 30
0.0
  0
SPLINE
  5
BF
330
1F
100
AcDbEntity
  8
DEFAULT_1
 62
   250
100
AcDbSpline
210
0.0
220
0.0
230
1.0
 70
    11
 71
     3
 72
    80
 73
    76
 74
     0
 42
0.0000000001
 43
0.0000000001
 40
0.0
 40
0.0
 40
0.0
 40
0.0
 40
0.05
 40
0.05
 40
0.05
 40
0.05
 40
0.1
 40
0.1
 40
0.1
 40
0.1
 40
0.15
 40
0.15
 40
0.15
 40
0.15
 40
0.2
 40
0.2
 40
0.2
 40
0.2
 40
0.25
 40
0.25
 40
0.25
 40
0.25
 40
0.3
 40
0.3
 40
0.3
 40
0.3
 40
0.35
 40
0.35
 40
0.35
 40
0.35
 40
0.4
 40
0.4
 40
0.4
 40
0.4
 40
0.45
 40
0.45
 40
0.45
 40
0.45
 40
0.5
 40
0.5
 40
0.5
 40
0.5
 40
0.55
 40
0.55
 40
0.55
 40
0.55
 40
0.6
 40
0.6
 40
0.6
 40
0.6
 40
0.65
 40
0.65
 40
0.65
 40
0.65
 40
0.7
 40
0.7
 40
0.7
 40
0.7
 40
0.75
 40
0.75
 40
0.75
 40
0.75
 40
0.8
 40
0.8
 40
0.8
 40
0.8
 40
0.85
 40
0.85
 40
0.85
 40
0.85
 40
0.9
 40
0.9
 40
0.9
 40
0.9
 40
1.0
 40
1.0
 40
1.0
 40
1.0
 10
3.8928
 20
40.2221
 30
0.0
 10
3.8928
 20
40.2221
 30
0.0
 10
3.6464
 20
40.2028
 30
0.0
 10
3.6464
 20
40.2028
 30
0.0
 10
3.6464
 20
40.2028
 30
0.0
 10
3.6243
 20
40.3002
 30
0.0
 10
3.5932
 20
40.3712
 30
0.0
 10
3.5528
 20
40.4149
 30
0.0
 10
3.5528
 20
40.4149
 30
0.0
 10
3.4855
 20
40.486
 30
0.0
 10
3.4027
 20
40.5213
 30
0.0
 10
3.3044
 20
40.5213
 30
0.0
 10
3.3044
 20
40.5213
 30
0.0
 10
3.2254
 20
40.5213
 30
0.0
 10
3.1563
 20
40.4991
 30
0.0
 10
3.0965
 20
40.4549
 30
0.0
 10
3.0965
 20
40.4549
 30
0.0
 10
3.0184
 20
40.398
 30
0.0
 10
2.9568
 20
40.3148
 30
0.0
 10
2.9117
 20
40.2056
 30
0.0
 10
2.9117
 20
40.2056
 30
0.0
 10
2.867
 20
40.0965
 30
0.0
 10
2.8435
 20
39.9408
 30
0.0
 10
2.8416
 20
39.7386
 30
0.0
 10
2.8416
 20
39.7386
 30
0.0
 10
2.9013
 20
39.8293
 30
0.0
 10
2.9742
 20
39.8971
 30
0.0
 10
3.0608
 20
39.9413
 30
0.0
 10
3.0608
 20
39.9413
 30
0.0
 10
3.1468
 20
39.985
 30
0.0
 10
3.2376
 20
40.0071
 30
0.0
 10
3.3322
 20
40.0071
 30
0.0
 10
3.3322
 20
40.0071
 30
0.0
 10
3.4977
 20
40.0071
 30
0.0
 10
3.6384
 20
39.9465
 30
0.0
 10
3.7546
 20
39.8246
 30
0.0
 10
3.7546
 20
39.8246
 30
0.0
 10
3.8707
 20
39.7028
 30
0.0
 10
3.9291
 20
39.5457
 30
0.0
 10
3.9291
 20
39.3529
 30
0.0
 10
3.9291
 20
39.3529
 30
0.0
 10
3.9291
 20
39.2259
 30
0.0
 10
3.9013
 20
39.1083
 30
0.0
 10
3.8467
 20
38.9991
 30
0.0
 10
3.8467
 20
38.9991
 30
0.0
 10
3.7922
 20
38.8905
 30
0.0
 10
3.7169
 20
38.8068
 30
0.0
 10
3.6214
 20
38.7489
 30
0.0
 10
3.6214
 20
38.7489
 30
0.0
 10
3.526
 20
38.6911
 30
0.0
 10
3.4178
 20
38.6624
 30
0.0
 10
3.2964
 20
38.6624
 30
0.0
 10
3.2964
 20
38.6624
 30
0.0
 10
3.0895
 20
38.6624
 30
0.0
 10
2.9211
 20
38.7381
 30
0.0
 10
2.7908
 20
38.8905
 30
0.0
 10
2.7908
 20
38.8905
 30
0.0
 10
2.66
 20
39.0424
 30
0.0
 10
2.5951
 20
39.2931
 30
0.0
 10
2.5951
 20
39.6421
 30
0.0
 10
2.5951
 20
39.6421
 30
0.0
 10
2.5951
 20
40.0325
 30
0.0
 10
2.6671
 20
40.3162
 30
0.0
 10
2.8115
 20
40.4935
 30
0.0
 10
2.8115
 20
40.4935
 30
0.0
 10
2.9371
 20
40.6478
 30
0.0
 10
3.1064
 20
40.7254
 30
0.0
 10
3.3199
 20
40.7254
 30
0.0
 10
3.3199
 20
40.7254
 30
0.0
 10
3.4785
 20
40.7254
 30
0.0
 10
3.6087
 20
40.6807
 30
0.0
 10
3.7103
 20
40.5913
 30
0.0
 10
3.7103
 20
40.5913
 30
0.0
 10
3.8119
 20
40.5024
 30
0.0
 10
3.8726
 20
40.3792
 30
0.0
 10
3.8928
 20
40.2221
 30
0.0
  0
SPLINE
  5
C0
330
1F
100
AcDbEntity
  8
DEFAULT_1
 62
   250
100
AcDbSpline
210
0.0
220
0.0
230
1.0
 70
    11
 71
     3
 72
    40
 73
    36
 74
     0
 42
0.0000000001
 43
0.0000000001
 40
0.0
 40
0.0
 40
0.0
 40
0.0
 40
0.1
 40
0.1
 40
0.1
 40
0.1
 40
0.2
 40
0.2
 40
0.2
 40
0.2
 40
0.3
 40
0.3
 40
0.3
 40
0.3
 40
0.4
 40
0.4
 40
0.4
 40
0.4
 40
0.5
 40
0.5
 40
0.5
 40
0.5
 40
0.6
 40
0.6
 40
0.6
 40
0.6
 40
0.7
 40
0.7
 40
0.7
 40
0.7
 40
0.8
 40
0.8
 40
0.8
 40
0.8
 40
1.0
 40
1.0
 40
1.0
 40
1.0
 10
2.8801
 20
39.3515
 30
0.0
 10
2.8801
 20
39.2658
 30
0.0
 10
2.8985
 20
39.184
 30
0.0
 10
2.9347
 20
39.1059
 30
0.0
 10
2.9347
 20
39.1059
 30
0.0
 10
2.9709
 20
39.0278
 30
0.0
 10
3.0217
 20
38.9686
 30
0.0
 10
3.0866
 20
38.9277
 30
0.0
 10
3.0866
 20
38.9277
 30
0.0
 10
3.152
 20
38.8867
 30
0.0
 10
3.2207
 20
38.866
 30
0.0
 10
3.2922
 20
38.866
 30
0.0
 10
3.2922
 20
38.866
 30
0.0
 10
3.3971
 20
38.866
 30
0.0
 10
3.4869
 20
38.9084
 30
0.0
 10
3.5622
 20
38.993
 30
0.0
 10
3.5622
 20
38.993
 30
0.0
 10
3.6374
 20
39.0777
 30
0.0
 10
3.6751
 20
39.1925
 30
0.0
 10
3.6751
 20
39.3373
 30
0.0
 10
3.6751
 20
39.3373
 30
0.0
 10
3.6751
 20
39.477
 30
0.0
 10
3.6379
 20
39.5871
 30
0.0
 10
3.5636
 20
39.6675
 30
0.0
 10
3.5636
 20
39.6675
 30
0.0
 10
3.4893
 20
39.748
 30
0.0
 10
3.3957
 20
39.788
 30
0.0
 10
3.2828
 20
39.788
 30
0.0
 10
3.2828
 20
39.788
 30
0.0
 10
3.1704
 20
39.788
 30
0.0
 10
3.0753
 20
39.748
 30
0.0
 10
2.9973
 20
39.6675
 30
0.0
 10
2.9973
 20
39.6675
 30
0.0
 10
2.9192
 20
39.5871
 30
0.0
 10
2.8801
 20
39.4817
 30
0.0
 10
2.8801
 20
39.3515
 30
0.0
  0
SPLINE
  5
C1
330
1F
100
AcDbEntity
  8
DEFAULT_1
 62
   250
100
AcDbSpline
210
0.0
220
0.0
230
1.0
 70
    11
 71
     3
 72
    52
 73
    48
 74
     0
 42
0.0000000001
 43
0.0000000001
 40
0.0
 40
0.0
 40
0.0
 40
0.0
 40
0.0769230769230769
 40
0.0769230769230769
 40
0.0769230769230769
 40
0.0769230769230769
 40
0.1538461538461539
 40
0.1538461538461539
 40
0.1538461538461539
 40
0.1538461538461539
 40
0.2307692307692308
 40
0.2307692307692308
 40
0.2307692307692308
 40
0.2307692307692308
 40
0.3076923076923077
 40
0.3076923076923077
 40
0.3076923076923077
 40
0.3076923076923077
 40
0.3846153846153846
 40
0.3846153846153846
 40
0.3846153846153846
 40
0.3846153846153846
 40
0.4615384615384616
 40
0.4615384615384616
 40
0.4615384615384616
 40
0.4615384615384616
 40
0.5384615384615384
 40
0.5384615384615384
 40
0.5384615384615384
 40
0.5384615384615384
 40
0.6153846153846154
 40
0.6153846153846154
 40
0.6153846153846154
 40
0.6153846153846154
 40
0.6923076923076923
 40
0.6923076923076923
 40
0.6923076923076923
 40
0.6923076923076923
 40
0.7692307692307693
 40
0.7692307692307693
 40
0.7692307692307693
 40
0.7692307692307693
 40
0.8461538461538461
 40
0.8461538461538461
 40
0.8461538461538461
 40
0.8461538461538461
 40
1.0
 40
1.0
 40
1.0
 40
1.0
 10
4.1755
 20
39.6929
 30
0.0
 10
4.1755
 20
39.9319
 30
0.0
 10
4.2
 20
40.1243
 30
0.0
 10
4.2494
 20
40.2696
 30
0.0
 10
4.2494
 20
40.2696
 30
0.0
 10
4.2983
 20
40.4154
 30
0.0
 10
4.3717
 20
40.5278
 30
0.0
 10
4.4686
 20
40.6069
 30
0.0
 10
4.4686
 20
40.6069
 30
0.0
 10
4.5655
 20
40.6859
 30
0.0
 10
4.6873
 20
40.7254
 30
0.0
 10
4.834
 20
40.7254
 30
0.0
 10
4.834
 20
40.7254
 30
0.0
 10
4.9427
 20
40.7254
 30
0.0
 10
5.0377
 20
40.7033
 30
0.0
 10
5.1195
 20
40.6595
 30
0.0
 10
5.1195
 20
40.6595
 30
0.0
 10
5.2014
 20
40.6163
 30
0.0
 10
5.2687
 20
40.5532
 30
0.0
 10
5.3223
 20
40.4709
 30
0.0
 10
5.3223
 20
40.4709
 30
0.0
 10
5.3754
 20
40.3886
 30
0.0
 10
5.4173
 20
40.2884
 30
0.0
 10
5.4474
 20
40.1704
 30
0.0
 10
5.4474
 20
40.1704
 30
0.0
 10
5.478
 20
40.0523
 30
0.0
 10
5.493
 20
39.8933
 30
0.0
 10
5.493
 20
39.6929
 30
0.0
 10
5.493
 20
39.6929
 30
0.0
 10
5.493
 20
39.4559
 30
0.0
 10
5.4686
 20
39.2649
 30
0.0
 10
5.4201
 20
39.1191
 30
0.0
 10
5.4201
 20
39.1191
 30
0.0
 10
5.3712
 20
38.9733
 30
0.0
 10
5.2983
 20
38.8609
 30
0.0
 10
5.2014
 20
38.7814
 30
0.0
 10
5.2014
 20
38.7814
 30
0.0
 10
5.1045
 20
38.7019
 30
0.0
 10
4.9822
 20
38.6624
 30
0.0
 10
4.834
 20
38.6624
 30
0.0
 10
4.834
 20
38.6624
 30
0.0
 10
4.6393
 20
38.6624
 30
0.0
 10
4.4864
 20
38.732
 30
0.0
 10
4.3754
 20
38.8717
 30
0.0
 10
4.3754
 20
38.8717
 30
0.0
 10
4.2423
 20
39.0396
 30
0.0
 10
4.1755
 20
39.3138
 30
0.0
 10
4.1755
 20
39.6929
 30
0.0
  0
SPLINE
  5
C2
330
1F
100
AcDbEntity
  8
DEFAULT_1
 62
   250
100
AcDbSpline
210
0.0
220
0.0
230
1.0
 70
    11
 71
     3
 72
    36
 73
    32
 74
     0
 42
0.0000000001
 43
0.0000000001
 40
0.0
 40
0.0
 40
0.0
 40
0.0
 40
0.1111111111111111
 40
0.1111111111111111
 40
0.1111111111111111
 40
0.1111111111111111
 40
0.2222222222222222
 40
0.2222222222222222
 40
0.2222222222222222
 40
0.2222222222222222
 40
0.3333333333333333
 40
0.3333333333333333
 40
0.3333333333333333
 40
0.3333333333333333
 40
0.4444444444444444
 40
0.4444444444444444
 40
0.4444444444444444
 40
0.4444444444444444
 40
0.5555555555555556
 40
0.5555555555555556
 40
0.5555555555555556
 40
0.5555555555555556
 40
0.6666666666666666
 40
0.6666666666666666
 40
0.6666666666666666
 40
0.6666666666666666
 40
0.7777777777777778
 40
0.7777777777777778
 40
0.7777777777777778
 40
0.7777777777777778
 40
1.0
 40
1.0
 40
1.0
 40
1.0
 10
4.4305
 20
39.6929
 30
0.0
 10
4.4305
 20
39.3613
 30
0.0
 10
4.4695
 20
39.1407
 30
0.0
 10
4.5471
 20
39.0307
 30
0.0
 10
4.5471
 20
39.0307
 30
0.0
 10
4.6247
 20
38.9211
 30
0.0
 10
4.7202
 20
38.866
 30
0.0
 10
4.834
 20
38.866
 30
0.0
 10
4.834
 20
38.866
 30
0.0
 10
4.9483
 20
38.866
 30
0.0
 10
5.0438
 20
38.9215
 30
0.0
 10
5.1214
 20
39.0316
 30
0.0
 10
5.1214
 20
39.0316
 30
0.0
 10
5.199
 20
39.1417
 30
0.0
 10
5.2381
 20
39.3623
 30
0.0
 10
5.2381
 20
39.6929
 30
0.0
 10
5.2381
 20
39.6929
 30
0.0
 10
5.2381
 20
40.0255
 30
0.0
 10
5.199
 20
40.2466
 30
0.0
 10
5.1214
 20
40.3557
 30
0.0
 10
5.1214
 20
40.3557
 30
0.0
 10
5.0438
 20
40.4653
 30
0.0
 10
4.9474
 20
40.5198
 30
0.0
 10
4.8317
 20
40.5198
 30
0.0
 10
4.8317
 20
40.5198
 30
0.0
 10
4.7174
 20
40.5198
 30
0.0
 10
4.6266
 20
40.4714
 30
0.0
 10
4.5584
 20
40.375
 30
0.0
 10
4.5584
 20
40.375
 30
0.0
 10
4.4733
 20
40.2522
 30
0.0
 10
4.4305
 20
40.0245
 30
0.0
 10
4.4305
 20
39.6929
 30
0.0
  0
SPLINE
  5
C3
330
1F
100
AcDbEntity
  8
DEFAULT_1
 62
   250
100
AcDbSpline
210
0.0
220
0.0
230
1.0
 70
    11
 71
     3
 72
    20
 73
    16
 74
     0
 42
0.0000000001
 43
0.0000000001
 40
0.0
 40
0.0
 40
0.0
 40
0.0
 40
0.2
 40
0.2
 40
0.2
 40
0.2
 40
0.4
 40
0.4
 40
0.4
 40
0.4
 40
0.6
 40
0.6
 40
0.6
 40
0.6
 40
1.0
 40
1.0
 40
1.0
 40
1.0
 10
13.1519
 20
38.4653
 30
0.0
 10
13.1519
 20
38.4653
 30
0.0
 10
15.6519
 20
38.1124
 30
0.0
 10
15.6519
 20
38.1124
 30
0.0
 10
15.6519
 20
38.1124
 30
0.0
 10
15.6519
 20
38.1124
 30
0.0
 10
15.6519
 20
38.0341
 30
0.0
 10
15.6519
 20
38.0341
 30
0.0
 10
15.6519
 20
38.0341
 30
0.0
 10
15.6519
 20
38.0341
 30
0.0
 10
13.1519
 20
37.6578
 30
0.0
 10
13.1519
 20
37.6578
 30
0.0
 10
13.1519
 20
37.6578
 30
0.0
 10
13.1519
 20
37.6578
 30
0.0
 10
13.1519
 20
38.4653
 30
0.0
 10
13.1519
 20
38.4653
 30
0.0
  0
SPLINE
  5
C4
330
1F
100
AcDbEntity
  8
DEFAULT_1
 62
   250
100
AcDbSpline
210
0.0
220
0.0
230
1.0
 70
    11
 71
     3
 72
    20
 73
    16
 74
     0
 42
0.0000000001
 43
0.0000000001
 40
0.0
 40
0.0
 40
0.0
 40
0.0
 40
0.2
 40
0.2
 40
0.2
 40
0.2
 40
0.4
 40
0.4
 40
0.4
 40
0.4
 40
0.6
 40
0.6
 40
0.6
 40
0.6
 40
1.0
 40
1.0
 40
1.0
 40
1.0
 10
-8.9316
 20
37.7004
 30
0.0
 10
-8.9316
 20
37.7004
 30
0.0
 10
-11.4316
 20
38.0533
 30
0.0
 10
-11.4316
 20
38.0533
 30
0.0
 10
-11.4316
 20
38.0533
 30
0.0
 10
-11.4316
 20
38.0533
 30
0.0
 10
-11.4316
 20
38.1316
 30
0.0
 10
-11.4316
 20
38.1316
 30
0.0
 10
-11.4316
 20
38.1316
 30
0.0
 10
-11.4316
 20
38.1316
 30
0.0
 10
-8.9316
 20
38.5079
 30
0.0
 10
-8.9316
 20
38.5079
 30
0.0
 10
-8.9316
 20
38.5079
 30
0.0
 10
-8.9316
 20
38.5079
 30
0.0
 10
-8.9316
 20
37.7004
 30
0.0
 10
-8.9316
 20
37.7004
 30
0.0
  0
SPLINE
  5
C5
330
1F
100
AcDbEntity
  8
DEFAULT_1
 62
   250
100
AcDbSpline
210
0.0
220
0.0
230
1.0
 70
     8
 71
     3
 72
    52
 73
    48
 74
     0
 42
0.0000000001
 43
0.0000000001
 40
0.0
 40
0.0
 40
0.0
 40
0.0
 40
0.0769230769230769
 40
0.0769230769230769
 40
0.0769230769230769
 40
0.0769230769230769
 40
0.1538461538461539
 40
0.1538461538461539
 40
0.1538461538461539
 40
0.1538461538461539
 40
0.2307692307692308
 40
0.2307692307692308
 40
0.2307692307692308
 40
0.2307692307692308
 40
0.3076923076923077
 40
0.3076923076923077
 40
0.3076923076923077
 40
0.3076923076923077
 40
0.3846153846153846
 40
0.3846153846153846
 40
0.3846153846153846
 40
0.3846153846153846
 40
0.4615384615384616
 40
0.4615384615384616
 40
0.4615384615384616
 40
0.4615384615384616
 40
0.5384615384615384
 40
0.5384615384615384
 40
0.5384615384615384
 40
0.5384615384615384
 40
0.6153846153846154
 40
0.6153846153846154
 40
0.6153846153846154
 40
0.6153846153846154
 40
0.6923076923076923
 40
0.6923076923076923
 40
0.6923076923076923
 40
0.6923076923076923
 40
0.7692307692307693
 40
0.7692307692307693
 40
0.7692307692307693
 40
0.7692307692307693
 40
0.8461538461538461
 40
0.8461538461538461
 40
0.8461538461538461
 40
0.8461538461538461
 40
1.0
 40
1.0
 40
1.0
 40
1.0
 10
-6.3128
 20
15.7067
 30
0.0
 10
-6.3128
 20
15.7067
 30
0.0
 10
-6.1954
 20
8.5459
 30
0.0
 10
-6.1954
 20
8.5459
 30
0.0
 10
-6.1954
 20
8.5459
 30
0.0
 10
-6.1712
 20
7.1614
 30
0.0
 10
-5.042
 20
6.0518
 30
0.0
 10
-3.6574
 20
6.0518
 30
0.0
 10
-3.6574
 20
6.0518
 30
0.0
 10
-3.6574
 20
6.0518
 30
0.0
 10
7.8092
 20
6.0626
 30
0.0
 10
7.8092
 20
6.0626
 30
0.0
 10
7.8092
 20
6.0626
 30
0.0
 10
7.8092
 20
6.0626
 30
0.0
 10
8.2323
 20
6.1184
 30
0.0
 10
8.2323
 20
6.1184
 30
0.0
 10
8.2323
 20
6.1184
 30
0.0
 10
8.2323
 20
6.1184
 30
0.0
 10
8.6061
 20
6.2291
 30
0.0
 10
8.6061
 20
6.2291
 30
0.0
 10
8.6061
 20
6.2291
 30
0.0
 10
8.6061
 20
6.2291
 30
0.0
 10
8.9798
 20
6.4229
 30
0.0
 10
8.9798
 20
6.4229
 30
0.0
 10
8.9798
 20
6.4229
 30
0.0
 10
8.9798
 20
6.4229
 30
0.0
 10
9.3674
 20
6.6998
 30
0.0
 10
9.3674
 20
6.6998
 30
0.0
 10
9.3674
 20
6.6998
 30
0.0
 10
9.3674
 20
6.6998
 30
0.0
 10
9.7965
 20
7.1843
 30
0.0
 10
9.7965
 20
7.1843
 30
0.0
 10
9.7965
 20
7.1843
 30
0.0
 10
9.7965
 20
7.1843
 30
0.0
 10
9.9903
 20
7.6134
 30
0.0
 10
9.9903
 20
7.6134
 30
0.0
 10
9.9903
 20
7.6134
 30
0.0
 10
9.9903
 20
7.6134
 30
0.0
 10
10.1426
 20
8.0564
 30
0.0
 10
10.1426
 20
8.0564
 30
0.0
 10
10.1426
 20
8.0564
 30
0.0
 10
10.1426
 20
8.0564
 30
0.0
 10
10.2118
 20
8.4855
 30
0.0
 10
10.2118
 20
8.4855
 30
0.0
 10
10.2118
 20
8.4855
 30
0.0
 10
10.2118
 20
8.4855
 30
0.0
 10
10.3364
 20
15.7252
 30
0.0
 10
10.3364
 20
15.7252
 30
0.0
  0
SPLINE
  5
C6
330
1F
100
AcDbEntity
  8
DEFAULT_1
 62
   250
100
AcDbSpline
210
0.0
220
0.0
230
1.0
 70
     8
 71
     3
 72
    24
 73
    20
 74
     0
 42
0.0000000001
 43
0.0000000001
 40
0.0
 40
0.0
 40
0.0
 40
0.0
 40
0.1666666666666667
 40
0.1666666666666667
 40
0.1666666666666667
 40
0.1666666666666667
 40
0.3333333333333333
 40
0.3333333333333333
 40
0.3333333333333333
 40
0.3333333333333333
 40
0.5
 40
0.5
 40
0.5
 40
0.5
 40
0.6666666666666666
 40
0.6666666666666666
 40
0.6666666666666666
 40
0.6666666666666666
 40
1.0
 40
1.0
 40
1.0
 40
1.0
 10
-2.2299
 20
6.0771
 30
0.0
 10
-2.2299
 20
6.0771
 30
0.0
 10
-2.1939
 20
-1.8813
 30
0.0
 10
-2.1939
 20
-1.8813
 30
0.0
 10
-2.1939
 20
-1.8813
 30
0.0
 10
-2.1939
 20
-1.8813
 30
0.0
 10
-2.0477
 20
-2.4095
 30
0.0
 10
-2.0477
 20
-2.4095
 30
0.0
 10
-2.0477
 20
-2.4095
 30
0.0
 10
-2.0477
 20
-2.4095
 30
0.0
 10
6.0523
 20
-2.4095
 30
0.0
 10
6.0523
 20
-2.4095
 30
0.0
 10
6.0523
 20
-2.4095
 30
0.0
 10
6.0523
 20
-2.4095
 30
0.0
 10
6.1967
 20
-1.8813
 30
0.0
 10
6.1967
 20
-1.8813
 30
0.0
 10
6.1967
 20
-1.8813
 30
0.0
 10
6.1967
 20
-1.8813
 30
0.0
 10
6.2147
 20
6.0771
 30
0.0
 10
6.2147
 20
6.0771
 30
0.0
  0
SPLINE
  5
C7
330
1F
100
AcDbEntity
  8
DEFAULT_1
 62
   250
100
AcDbSpline
210
0.0
220
0.0
230
1.0
 70
    24
 71
     3
 72
     8
 73
     4
 74
     0
 42
0.0000000001
 43
0.0000000001
 40
0.0
 40
0.0
 40
0.0
 40
0.0
 40
1.0
 40
1.0
 40
1.0
 40
1.0
 10
-2.2752
 20
-7.1096
 30
0.0
 10
-2.2752
 20
-7.1096
 30
0.0
 10
-2.2752
 20
-2.8565
 30
0.0
 10
-2.2752
 20
-2.8565
 30
0.0
  0
SPLINE
  5
C8
330
1F
100
AcDbEntity
  8
DEFAULT_1
 62
   250
100
AcDbSpline
210
0.0
220
0.0
230
1.0
 70
    24
 71
     3
 72
     8
 73
     4
 74
     0
 42
0.0000000001
 43
0.0000000001
 40
0.0
 40
0.0
 40
0.0
 40
0.0
 40
1.0
 40
1.0
 40
1.0
 40
1.0
 10
6.2122
 20
-7.1382
 30
0.0
 10
6.2122
 20
-7.1382
 30
0.0
 10
6.2122
 20
-2.9382
 30
0.0
 10
6.2122
 20
-2.9382
 30
0.0
  0
SPLINE
  5
C9
330
1F
100
AcDbEntity
  8
DEFAULT_1
 62
   250
100
AcDbSpline
210
0.0
220
0.0
230
1.0
 70
    24
 71
     3
 72
     8
 73
     4
 74
     0
 42
0.0000000001
 43
0.0000000001
 40
0.0
 40
0.0
 40
0.0
 40
0.0
 40
1.0
 40
1.0
 40
1.0
 40
1.0
 10
9.6181
 20
-6.6345
 30
0.0
 10
9.6181
 20
-6.6345
 30
0.0
 10
-5.7615
 20
-6.6345
 30
0.0
 10
-5.7615
 20
-6.6345
 30
0.0
  0
SPLINE
  5
CA
330
1F
100
AcDbEntity
  8
DEFAULT_1
 62
   250
100
AcDbSpline
210
0.0
220
0.0
230
1.0
 70
    11
 71
     3
 72
    84
 73
    80
 74
     0
 42
0.0000000001
 43
0.0000000001
 40
0.0
 40
0.0
 40
0.0
 40
0.0
 40
0.0476190476190476
 40
0.0476190476190476
 40
0.0476190476190476
 40
0.0476190476190476
 40
0.0952380952380952
 40
0.0952380952380952
 40
0.0952380952380952
 40
0.0952380952380952
 40
0.1428571428571428
 40
0.1428571428571428
 40
0.1428571428571428
 40
0.1428571428571428
 40
0.1904761904761905
 40
0.1904761904761905
 40
0.1904761904761905
 40
0.1904761904761905
 40
0.2380952380952381
 40
0.2380952380952381
 40
0.2380952380952381
 40
0.2380952380952381
 40
0.2857142857142857
 40
0.2857142857142857
 40
0.2857142857142857
 40
0.2857142857142857
 40
0.3333333333333333
 40
0.3333333333333333
 40
0.3333333333333333
 40
0.3333333333333333
 40
0.3809523809523809
 40
0.3809523809523809
 40
0.3809523809523809
 40
0.3809523809523809
 40
0.4285714285714285
 40
0.4285714285714285
 40
0.4285714285714285
 40
0.4285714285714285
 40
0.4761904761904762
 40
0.4761904761904762
 40
0.4761904761904762
 40
0.4761904761904762
 40
0.5238095238095238
 40
0.5238095238095238
 40
0.5238095238095238
 40
0.5238095238095238
 40
0.5714285714285714
 40
0.5714285714285714
 40
0.5714285714285714
 40
0.5714285714285714
 40
0.6190476190476191
 40
0.6190476190476191
 40
0.6190476190476191
 40
0.6190476190476191
 40
0.6666666666666666
 40
0.6666666666666666
 40
0.6666666666666666
 40
0.6666666666666666
 40
0.7142857142857143
 40
0.7142857142857143
 40
0.7142857142857143
 40
0.7142857142857143
 40
0.7619047619047619
 40
0.7619047619047619
 40
0.7619047619047619
 40
0.7619047619047619
 40
0.8095238095238095
 40
0.8095238095238095
 40
0.8095238095238095
 40
0.8095238095238095
 40
0.8571428571428571
 40
0.8571428571428571
 40
0.8571428571428571
 40
0.8571428571428571
 40
0.9047619047619048
 40
0.9047619047619048
 40
0.9047619047619048
 40
0.9047619047619048
 40
1.0
 40
1.0
 40
1.0
 40
1.0
 10
1.3207
 20
-4.1277
 30
0.0
 10
1.3207
 20
-4.1277
 30
0.0
 10
1.5521
 20
-3.8686
 30
0.0
 10
1.5521
 20
-3.8686
 30
0.0
 10
1.5521
 20
-3.8686
 30
0.0
 10
1.5521
 20
-3.8686
 30
0.0
 10
1.6885
 20
-3.9843
 30
0.0
 10
1.6885
 20
-3.9843
 30
0.0
 10
1.6885
 20
-3.9843
 30
0.0
 10
1.6885
 20
-3.9843
 30
0.0
 10
1.4463
 20
-4.2571
 30
0.0
 10
1.4463
 20
-4.2571
 30
0.0
 10
1.4463
 20
-4.2571
 30
0.0
 10
1.5253
 20
-4.3747
 30
0.0
 10
1.5784
 20
-4.4777
 30
0.0
 10
1.6062
 20
-4.5656
 30
0.0
 10
1.6062
 20
-4.5656
 30
0.0
 10
1.6429
 20
-4.6814
 30
0.0
 10
1.6612
 20
-4.8112
 30
0.0
 10
1.6612
 20
-4.9542
 30
0.0
 10
1.6612
 20
-4.9542
 30
0.0
 10
1.6612
 20
-5.1611
 30
0.0
 10
1.6194
 20
-5.3455
 30
0.0
 10
1.5356
 20
-5.5068
 30
0.0
 10
1.5356
 20
-5.5068
 30
0.0
 10
1.4519
 20
-5.6687
 30
0.0
 10
1.3348
 20
-5.7909
 30
0.0
 10
1.1838
 20
-5.8737
 30
0.0
 10
1.1838
 20
-5.8737
 30
0.0
 10
1.0323
 20
-5.956
 30
0.0
 10
0.872
 20
-5.9974
 30
0.0
 10
0.7022
 20
-5.9974
 30
0.0
 10
0.7022
 20
-5.9974
 30
0.0
 10
0.5752
 20
-5.9974
 30
0.0
 10
0.4604
 20
-5.9796
 30
0.0
 10
0.3574
 20
-5.9438
 30
0.0
 10
0.3574
 20
-5.9438
 30
0.0
 10
0.2784
 20
-5.9161
 30
0.0
 10
0.1862
 20
-5.8634
 30
0.0
 10
0.0803
 20
-5.7853
 30
0.0
 10
0.0803
 20
-5.7853
 30
0.0
 10
0.0803
 20
-5.7853
 30
0.0
 10
-0.1511
 20
-6.0445
 30
0.0
 10
-0.1511
 20
-6.0445
 30
0.0
 10
-0.1511
 20
-6.0445
 30
0.0
 10
-0.1511
 20
-6.0445
 30
0.0
 10
-0.2875
 20
-5.9288
 30
0.0
 10
-0.2875
 20
-5.9288
 30
0.0
 10
-0.2875
 20
-5.9288
 30
0.0
 10
-0.2875
 20
-5.9288
 30
0.0
 10
-0.0448
 20
-5.6574
 30
0.0
 10
-0.0448
 20
-5.6574
 30
0.0
 10
-0.0448
 20
-5.6574
 30
0.0
 10
-0.1351
 20
-5.5205
 30
0.0
 10
-0.1953
 20
-5.4034
 30
0.0
 10
-0.2254
 20
-5.3065
 30
0.0
 10
-0.2254
 20
-5.3065
 30
0.0
 10
-0.2555
 20
-5.2096
 30
0.0
 10
-0.271
 20
-5.0929
 30
0.0
 10
-0.271
 20
-4.957
 30
0.0
 10
-0.271
 20
-4.957
 30
0.0
 10
-0.271
 20
-4.7496
 30
0.0
 10
-0.2296
 20
-4.5647
 30
0.0
 10
-0.1469
 20
-4.4024
 30
0.0
 10
-0.1469
 20
-4.4024
 30
0.0
 10
-0.0641
 20
-4.2401
 30
0.0
 10
0.0516
 20
-4.1174
 30
0.0
 10
0.2012
 20
-4.0337
 30
0.0
 10
0.2012
 20
-4.0337
 30
0.0
 10
0.3503
 20
-3.9504
 30
0.0
 10
0.5164
 20
-3.9085
 30
0.0
 10
0.6993
 20
-3.9085
 30
0.0
 10
0.6993
 20
-3.9085
 30
0.0
 10
0.8226
 20
-3.9085
 30
0.0
 10
0.9303
 20
-3.9245
 30
0.0
 10
1.0225
 20
-3.9575
 30
0.0
 10
1.0225
 20
-3.9575
 30
0.0
 10
1.1147
 20
-3.9899
 30
0.0
 10
1.2144
 20
-4.0468
 30
0.0
 10
1.3207
 20
-4.1277
 30
0.0
  0
SPLINE
  5
CB
330
1F
100
AcDbEntity
  8
DEFAULT_1
 62
   250
100
AcDbSpline
210
0.0
220
0.0
230
1.0
 70
    11
 71
     3
 72
    32
 73
    28
 74
     0
 42
0.0000000001
 43
0.0000000001
 40
0.0
 40
0.0
 40
0.0
 40
0.0
 40
0.125
 40
0.125
 40
0.125
 40
0.125
 40
0.25
 40
0.25
 40
0.25
 40
0.25
 40
0.375
 40
0.375
 40
0.375
 40
0.375
 40
0.5
 40
0.5
 40
0.5
 40
0.5
 40
0.625
 40
0.625
 40
0.625
 40
0.625
 40
0.75
 40
0.75
 40
0.75
 40
0.75
 40
1.0
 40
1.0
 40
1.0
 40
1.0
 10
1.1556
 20
-4.3135
 30
0.0
 10
1.069
 20
-4.2458
 30
0.0
 10
0.9933
 20
-4.1992
 30
0.0
 10
0.9289
 20
-4.1743
 30
0.0
 10
0.9289
 20
-4.1743
 30
0.0
 10
0.864
 20
-4.1498
 30
0.0
 10
0.7878
 20
-4.1371
 30
0.0
 10
0.7007
 20
-4.1371
 30
0.0
 10
0.7007
 20
-4.1371
 30
0.0
 10
0.4994
 20
-4.1371
 30
0.0
 10
0.3334
 20
-4.2053
 30
0.0
 10
0.2017
 20
-4.3417
 30
0.0
 10
0.2017
 20
-4.3417
 30
0.0
 10
0.0704
 20
-4.4782
 30
0.0
 10
0.0046
 20
-4.6818
 30
0.0
 10
0.0046
 20
-4.9532
 30
0.0
 10
0.0046
 20
-4.9532
 30
0.0
 10
0.0046
 20
-5.0595
 30
0.0
 10
0.0149
 20
-5.1541
 30
0.0
 10
0.0352
 20
-5.2369
 30
0.0
 10
0.0352
 20
-5.2369
 30
0.0
 10
0.0498
 20
-5.2985
 30
0.0
 10
0.0803
 20
-5.3742
 30
0.0
 10
0.1274
 20
-5.464
 30
0.0
 10
0.1274
 20
-5.464
 30
0.0
 10
0.1274
 20
-5.464
 30
0.0
 10
1.1556
 20
-4.3135
 30
0.0
 10
1.1556
 20
-4.3135
 30
0.0
  0
SPLINE
  5
CC
330
1F
100
AcDbEntity
  8
DEFAULT_1
 62
   250
100
AcDbSpline
210
0.0
220
0.0
230
1.0
 70
    11
 71
     3
 72
    28
 73
    24
 74
     0
 42
0.0000000001
 43
0.0000000001
 40
0.0
 40
0.0
 40
0.0
 40
0.0
 40
0.1428571428571428
 40
0.1428571428571428
 40
0.1428571428571428
 40
0.1428571428571428
 40
0.2857142857142857
 40
0.2857142857142857
 40
0.2857142857142857
 40
0.2857142857142857
 40
0.4285714285714285
 40
0.4285714285714285
 40
0.4285714285714285
 40
0.4285714285714285
 40
0.5714285714285714
 40
0.5714285714285714
 40
0.5714285714285714
 40
0.5714285714285714
 40
0.7142857142857143
 40
0.7142857142857143
 40
0.7142857142857143
 40
0.7142857142857143
 40
1.0
 40
1.0
 40
1.0
 40
1.0
 10
1.2685
 20
-4.4556
 30
0.0
 10
1.2685
 20
-4.4556
 30
0.0
 10
0.2445
 20
-5.6019
 30
0.0
 10
0.2445
 20
-5.6019
 30
0.0
 10
0.2445
 20
-5.6019
 30
0.0
 10
0.315
 20
-5.6597
 30
0.0
 10
0.3804
 20
-5.7002
 30
0.0
 10
0.4402
 20
-5.7232
 30
0.0
 10
0.4402
 20
-5.7232
 30
0.0
 10
0.5182
 20
-5.7538
 30
0.0
 10
0.6029
 20
-5.7688
 30
0.0
 10
0.6937
 20
-5.7688
 30
0.0
 10
0.6937
 20
-5.7688
 30
0.0
 10
0.8941
 20
-5.7688
 30
0.0
 10
1.0592
 20
-5.6983
 30
0.0
 10
1.1899
 20
-5.5567
 30
0.0
 10
1.1899
 20
-5.5567
 30
0.0
 10
1.3202
 20
-5.4151
 30
0.0
 10
1.3856
 20
-5.2166
 30
0.0
 10
1.3856
 20
-4.9612
 30
0.0
 10
1.3856
 20
-4.9612
 30
0.0
 10
1.3856
 20
-4.7703
 30
0.0
 10
1.3466
 20
-4.6014
 30
0.0
 10
1.2685
 20
-4.4556
 30
0.0
  0
SPLINE
  5
CD
330
1F
100
AcDbEntity
  8
DEFAULT_1
 62
   250
100
AcDbSpline
210
0.0
220
0.0
230
1.0
 70
    11
 71
     3
 72
    92
 73
    88
 74
     0
 42
0.0000000001
 43
0.0000000001
 40
0.0
 40
0.0
 40
0.0
 40
0.0
 40
0.0434782608695652
 40
0.0434782608695652
 40
0.0434782608695652
 40
0.0434782608695652
 40
0.0869565217391304
 40
0.0869565217391304
 40
0.0869565217391304
 40
0.0869565217391304
 40
0.1304347826086956
 40
0.1304347826086956
 40
0.1304347826086956
 40
0.1304347826086956
 40
0.1739130434782609
 40
0.1739130434782609
 40
0.1739130434782609
 40
0.1739130434782609
 40
0.2173913043478261
 40
0.2173913043478261
 40
0.2173913043478261
 40
0.2173913043478261
 40
0.2608695652173913
 40
0.2608695652173913
 40
0.2608695652173913
 40
0.2608695652173913
 40
0.3043478260869565
 40
0.3043478260869565
 40
0.3043478260869565
 40
0.3043478260869565
 40
0.3478260869565217
 40
0.3478260869565217
 40
0.3478260869565217
 40
0.3478260869565217
 40
0.391304347826087
 40
0.391304347826087
 40
0.391304347826087
 40
0.391304347826087
 40
0.4347826086956522
 40
0.4347826086956522
 40
0.4347826086956522
 40
0.4347826086956522
 40
0.4782608695652174
 40
0.4782608695652174
 40
0.4782608695652174
 40
0.4782608695652174
 40
0.5217391304347826
 40
0.5217391304347826
 40
0.5217391304347826
 40
0.5217391304347826
 40
0.5652173913043478
 40
0.5652173913043478
 40
0.5652173913043478
 40
0.5652173913043478
 40
0.6086956521739131
 40
0.6086956521739131
 40
0.6086956521739131
 40
0.6086956521739131
 40
0.6521739130434783
 40
0.6521739130434783
 40
0.6521739130434783
 40
0.6521739130434783
 40
0.6956521739130435
 40
0.6956521739130435
 40
0.6956521739130435
 40
0.6956521739130435
 40
0.7391304347826086
 40
0.7391304347826086
 40
0.7391304347826086
 40
0.7391304347826086
 40
0.782608695652174
 40
0.782608695652174
 40
0.782608695652174
 40
0.782608695652174
 40
0.8260869565217391
 40
0.8260869565217391
 40
0.8260869565217391
 40
0.8260869565217391
 40
0.8695652173913043
 40
0.8695652173913043
 40
0.8695652173913043
 40
0.8695652173913043
 40
0.9130434782608695
 40
0.9130434782608695
 40
0.9130434782608695
 40
0.9130434782608695
 40
1.0
 40
1.0
 40
1.0
 40
1.0
 10
1.9105
 20
-5.4339
 30
0.0
 10
1.9105
 20
-5.4339
 30
0.0
 10
2.1711
 20
-5.4118
 30
0.0
 10
2.1711
 20
-5.4118
 30
0.0
 10
2.1711
 20
-5.4118
 30
0.0
 10
2.1904
 20
-5.5388
 30
0.0
 10
2.2351
 20
-5.6338
 30
0.0
 10
2.3052
 20
-5.6978
 30
0.0
 10
2.3052
 20
-5.6978
 30
0.0
 10
2.3757
 20
-5.7618
 30
0.0
 10
2.4604
 20
-5.7938
 30
0.0
 10
2.5596
 20
-5.7938
 30
0.0
 10
2.5596
 20
-5.7938
 30
0.0
 10
2.6791
 20
-5.7938
 30
0.0
 10
2.7802
 20
-5.7486
 30
0.0
 10
2.8625
 20
-5.6588
 30
0.0
 10
2.8625
 20
-5.6588
 30
0.0
 10
2.9453
 20
-5.5685
 30
0.0
 10
2.9867
 20
-5.449
 30
0.0
 10
2.9867
 20
-5.3004
 30
0.0
 10
2.9867
 20
-5.3004
 30
0.0
 10
2.9867
 20
-5.1588
 30
0.0
 10
2.9472
 20
-5.0473
 30
0.0
 10
2.8677
 20
-4.9655
 30
0.0
 10
2.8677
 20
-4.9655
 30
0.0
 10
2.7882
 20
-4.8836
 30
0.0
 10
2.6843
 20
-4.8427
 30
0.0
 10
2.5554
 20
-4.8427
 30
0.0
 10
2.5554
 20
-4.8427
 30
0.0
 10
2.4754
 20
-4.8427
 30
0.0
 10
2.4035
 20
-4.861
 30
0.0
 10
2.339
 20
-4.8972
 30
0.0
 10
2.339
 20
-4.8972
 30
0.0
 10
2.2746
 20
-4.9335
 30
0.0
 10
2.2243
 20
-4.9805
 30
0.0
 10
2.1876
 20
-5.0384
 30
0.0
 10
2.1876
 20
-5.0384
 30
0.0
 10
2.1876
 20
-5.0384
 30
0.0
 10
1.9547
 20
-5.0083
 30
0.0
 10
1.9547
 20
-5.0083
 30
0.0
 10
1.9547
 20
-5.0083
 30
0.0
 10
1.9547
 20
-5.0083
 30
0.0
 10
2.1504
 20
-3.9706
 30
0.0
 10
2.1504
 20
-3.9706
 30
0.0
 10
2.1504
 20
-3.9706
 30
0.0
 10
2.1504
 20
-3.9706
 30
0.0
 10
3.1551
 20
-3.9706
 30
0.0
 10
3.1551
 20
-3.9706
 30
0.0
 10
3.1551
 20
-3.9706
 30
0.0
 10
3.1551
 20
-3.9706
 30
0.0
 10
3.1551
 20
-4.2077
 30
0.0
 10
3.1551
 20
-4.2077
 30
0.0
 10
3.1551
 20
-4.2077
 30
0.0
 10
3.1551
 20
-4.2077
 30
0.0
 10
2.3489
 20
-4.2077
 30
0.0
 10
2.3489
 20
-4.2077
 30
0.0
 10
2.3489
 20
-4.2077
 30
0.0
 10
2.3489
 20
-4.2077
 30
0.0
 10
2.2398
 20
-4.7505
 30
0.0
 10
2.2398
 20
-4.7505
 30
0.0
 10
2.2398
 20
-4.7505
 30
0.0
 10
2.3611
 20
-4.6658
 30
0.0
 10
2.4886
 20
-4.6235
 30
0.0
 10
2.6217
 20
-4.6235
 30
0.0
 10
2.6217
 20
-4.6235
 30
0.0
 10
2.7981
 20
-4.6235
 30
0.0
 10
2.9467
 20
-4.6846
 30
0.0
 10
3.0681
 20
-4.8069
 30
0.0
 10
3.0681
 20
-4.8069
 30
0.0
 10
3.1894
 20
-4.9292
 30
0.0
 10
3.2501
 20
-5.0863
 30
0.0
 10
3.2501
 20
-5.2782
 30
0.0
 10
3.2501
 20
-5.2782
 30
0.0
 10
3.2501
 20
-5.4612
 30
0.0
 10
3.1965
 20
-5.6193
 30
0.0
 10
3.0902
 20
-5.7524
 30
0.0
 10
3.0902
 20
-5.7524
 30
0.0
 10
2.9604
 20
-5.9156
 30
0.0
 10
2.7835
 20
-5.9974
 30
0.0
 10
2.5596
 20
-5.9974
 30
0.0
 10
2.5596
 20
-5.9974
 30
0.0
 10
2.3757
 20
-5.9974
 30
0.0
 10
2.2257
 20
-5.9462
 30
0.0
 10
2.1095
 20
-5.8432
 30
0.0
 10
2.1095
 20
-5.8432
 30
0.0
 10
1.9933
 20
-5.7401
 30
0.0
 10
1.927
 20
-5.6037
 30
0.0
 10
1.9105
 20
-5.4339
 30
0.0
  0
SPLINE
  5
CE
330
1F
100
AcDbEntity
  8
DEFAULT_1
 62
   250
100
AcDbSpline
210
0.0
220
0.0
230
1.0
 70
    11
 71
     3
 72
    52
 73
    48
 74
     0
 42
0.0000000001
 43
0.0000000001
 40
0.0
 40
0.0
 40
0.0
 40
0.0
 40
0.0769230769230769
 40
0.0769230769230769
 40
0.0769230769230769
 40
0.0769230769230769
 40
0.1538461538461539
 40
0.1538461538461539
 40
0.1538461538461539
 40
0.1538461538461539
 40
0.2307692307692308
 40
0.2307692307692308
 40
0.2307692307692308
 40
0.2307692307692308
 40
0.3076923076923077
 40
0.3076923076923077
 40
0.3076923076923077
 40
0.3076923076923077
 40
0.3846153846153846
 40
0.3846153846153846
 40
0.3846153846153846
 40
0.3846153846153846
 40
0.4615384615384616
 40
0.4615384615384616
 40
0.4615384615384616
 40
0.4615384615384616
 40
0.5384615384615384
 40
0.5384615384615384
 40
0.5384615384615384
 40
0.5384615384615384
 40
0.6153846153846154
 40
0.6153846153846154
 40
0.6153846153846154
 40
0.6153846153846154
 40
0.6923076923076923
 40
0.6923076923076923
 40
0.6923076923076923
 40
0.6923076923076923
 40
0.7692307692307693
 40
0.7692307692307693
 40
0.7692307692307693
 40
0.7692307692307693
 40
0.8461538461538461
 40
0.8461538461538461
 40
0.8461538461538461
 40
0.8461538461538461
 40
1.0
 40
1.0
 40
1.0
 40
1.0
 10
3.4801
 20
-4.9669
 30
0.0
 10
3.4801
 20
-4.7279
 30
0.0
 10
3.5046
 20
-4.5355
 30
0.0
 10
3.554
 20
-4.3902
 30
0.0
 10
3.554
 20
-4.3902
 30
0.0
 10
3.6029
 20
-4.2444
 30
0.0
 10
3.6763
 20
-4.132
 30
0.0
 10
3.7732
 20
-4.0529
 30
0.0
 10
3.7732
 20
-4.0529
 30
0.0
 10
3.8701
 20
-3.9739
 30
0.0
 10
3.9919
 20
-3.9344
 30
0.0
 10
4.1386
 20
-3.9344
 30
0.0
 10
4.1386
 20
-3.9344
 30
0.0
 10
4.2473
 20
-3.9344
 30
0.0
 10
4.3423
 20
-3.9565
 30
0.0
 10
4.4241
 20
-4.0003
 30
0.0
 10
4.4241
 20
-4.0003
 30
0.0
 10
4.506
 20
-4.0435
 30
0.0
 10
4.5733
 20
-4.1066
 30
0.0
 10
4.6269
 20
-4.1889
 30
0.0
 10
4.6269
 20
-4.1889
 30
0.0
 10
4.68
 20
-4.2712
 30
0.0
 10
4.7219
 20
-4.3714
 30
0.0
 10
4.752
 20
-4.4894
 30
0.0
 10
4.752
 20
-4.4894
 30
0.0
 10
4.7826
 20
-4.6075
 30
0.0
 10
4.7976
 20
-4.7665
 30
0.0
 10
4.7976
 20
-4.9669
 30
0.0
 10
4.7976
 20
-4.9669
 30
0.0
 10
4.7976
 20
-5.2039
 30
0.0
 10
4.7732
 20
-5.3949
 30
0.0
 10
4.7247
 20
-5.5407
 30
0.0
 10
4.7247
 20
-5.5407
 30
0.0
 10
4.6758
 20
-5.6865
 30
0.0
 10
4.6029
 20
-5.7989
 30
0.0
 10
4.506
 20
-5.8784
 30
0.0
 10
4.506
 20
-5.8784
 30
0.0
 10
4.4091
 20
-5.9579
 30
0.0
 10
4.2868
 20
-5.9974
 30
0.0
 10
4.1386
 20
-5.9974
 30
0.0
 10
4.1386
 20
-5.9974
 30
0.0
 10
3.9439
 20
-5.9974
 30
0.0
 10
3.791
 20
-5.9278
 30
0.0
 10
3.68
 20
-5.7881
 30
0.0
 10
3.68
 20
-5.7881
 30
0.0
 10
3.5469
 20
-5.6202
 30
0.0
 10
3.4801
 20
-5.346
 30
0.0
 10
3.4801
 20
-4.9669
 30
0.0
  0
SPLINE
  5
CF
330
1F
100
AcDbEntity
  8
DEFAULT_1
 62
   250
100
AcDbSpline
210
0.0
220
0.0
230
1.0
 70
    11
 71
     3
 72
    36
 73
    32
 74
     0
 42
0.0000000001
 43
0.0000000001
 40
0.0
 40
0.0
 40
0.0
 40
0.0
 40
0.1111111111111111
 40
0.1111111111111111
 40
0.1111111111111111
 40
0.1111111111111111
 40
0.2222222222222222
 40
0.2222222222222222
 40
0.2222222222222222
 40
0.2222222222222222
 40
0.3333333333333333
 40
0.3333333333333333
 40
0.3333333333333333
 40
0.3333333333333333
 40
0.4444444444444444
 40
0.4444444444444444
 40
0.4444444444444444
 40
0.4444444444444444
 40
0.5555555555555556
 40
0.5555555555555556
 40
0.5555555555555556
 40
0.5555555555555556
 40
0.6666666666666666
 40
0.6666666666666666
 40
0.6666666666666666
 40
0.6666666666666666
 40
0.7777777777777778
 40
0.7777777777777778
 40
0.7777777777777778
 40
0.7777777777777778
 40
1.0
 40
1.0
 40
1.0
 40
1.0
 10
3.7351
 20
-4.9669
 30
0.0
 10
3.7351
 20
-5.2985
 30
0.0
 10
3.7741
 20
-5.5191
 30
0.0
 10
3.8517
 20
-5.6291
 30
0.0
 10
3.8517
 20
-5.6291
 30
0.0
 10
3.9293
 20
-5.7387
 30
0.0
 10
4.0248
 20
-5.7938
 30
0.0
 10
4.1386
 20
-5.7938
 30
0.0
 10
4.1386
 20
-5.7938
 30
0.0
 10
4.2529
 20
-5.7938
 30
0.0
 10
4.3484
 20
-5.7383
 30
0.0
 10
4.426
 20
-5.6282
 30
0.0
 10
4.426
 20
-5.6282
 30
0.0
 10
4.5036
 20
-5.5181
 30
0.0
 10
4.5427
 20
-5.2975
 30
0.0
 10
4.5427
 20
-4.9669
 30
0.0
 10
4.5427
 20
-4.9669
 30
0.0
 10
4.5427
 20
-4.6343
 30
0.0
 10
4.5036
 20
-4.4132
 30
0.0
 10
4.426
 20
-4.3041
 30
0.0
 10
4.426
 20
-4.3041
 30
0.0
 10
4.3484
 20
-4.1945
 30
0.0
 10
4.252
 20
-4.14
 30
0.0
 10
4.1363
 20
-4.14
 30
0.0
 10
4.1363
 20
-4.14
 30
0.0
 10
4.022
 20
-4.14
 30
0.0
 10
3.9312
 20
-4.1884
 30
0.0
 10
3.863
 20
-4.2848
 30
0.0
 10
3.863
 20
-4.2848
 30
0.0
 10
3.7779
 20
-4.4076
 30
0.0
 10
3.7351
 20
-4.6353
 30
0.0
 10
3.7351
 20
-4.9669
 30
0.0
  0
SPLINE
  5
D0
330
1F
100
AcDbEntity
  8
DEFAULT_1
 62
   250
100
AcDbSpline
210
0.0
220
0.0
230
1.0
 70
    11
 71
     3
 72
    20
 73
    16
 74
     0
 42
0.0000000001
 43
0.0000000001
 40
0.0
 40
0.0
 40
0.0
 40
0.0
 40
0.2
 40
0.2
 40
0.2
 40
0.2
 40
0.4
 40
0.4
 40
0.4
 40
0.4
 40
0.6
 40
0.6
 40
0.6
 40
0.6
 40
1.0
 40
1.0
 40
1.0
 40
1.0
 10
-4.8088
 20
-6.2656
 30
0.0
 10
-4.8088
 20
-6.2656
 30
0.0
 10
-2.3088
 20
-6.6185
 30
0.0
 10
-2.3088
 20
-6.6185
 30
0.0
 10
-2.3088
 20
-6.6185
 30
0.0
 10
-2.3088
 20
-6.6185
 30
0.0
 10
-2.3088
 20
-6.6968
 30
0.0
 10
-2.3088
 20
-6.6968
 30
0.0
 10
-2.3088
 20
-6.6968
 30
0.0
 10
-2.3088
 20
-6.6968
 30
0.0
 10
-4.8088
 20
-7.0731
 30
0.0
 10
-4.8088
 20
-7.0731
 30
0.0
 10
-4.8088
 20
-7.0731
 30
0.0
 10
-4.8088
 20
-7.0731
 30
0.0
 10
-4.8088
 20
-6.2656
 30
0.0
 10
-4.8088
 20
-6.2656
 30
0.0
  0
SPLINE
  5
D1
330
1F
100
AcDbEntity
  8
DEFAULT_1
 62
   250
100
AcDbSpline
210
0.0
220
0.0
230
1.0
 70
    11
 71
     3
 72
    20
 73
    16
 74
     0
 42
0.0000000001
 43
0.0000000001
 40
0.0
 40
0.0
 40
0.0
 40
0.0
 40
0.2
 40
0.2
 40
0.2
 40
0.2
 40
0.4
 40
0.4
 40
0.4
 40
0.4
 40
0.6
 40
0.6
 40
0.6
 40
0.6
 40
1.0
 40
1.0
 40
1.0
 40
1.0
 10
8.8367
 20
-7.0204
 30
0.0
 10
8.8367
 20
-7.0204
 30
0.0
 10
6.3367
 20
-6.6675
 30
0.0
 10
6.3367
 20
-6.6675
 30
0.0
 10
6.3367
 20
-6.6675
 30
0.0
 10
6.3367
 20
-6.6675
 30
0.0
 10
6.3367
 20
-6.5892
 30
0.0
 10
6.3367
 20
-6.5892
 30
0.0
 10
6.3367
 20
-6.5892
 30
0.0
 10
6.3367
 20
-6.5892
 30
0.0
 10
8.8367
 20
-6.2129
 30
0.0
 10
8.8367
 20
-6.2129
 30
0.0
 10
8.8367
 20
-6.2129
 30
0.0
 10
8.8367
 20
-6.2129
 30
0.0
 10
8.8367
 20
-7.0204
 30
0.0
 10
8.8367
 20
-7.0204
 30
0.0
  0
SPLINE
  5
D2
330
1F
100
AcDbEntity
  8
DEFAULT_1
 62
   250
100
AcDbSpline
210
0.0
220
0.0
230
1.0
 70
    24
 71
     3
 72
     8
 73
     4
 74
     0
 42
0.0000000001
 43
0.0000000001
 40
0.0
 40
0.0
 40
0.0
 40
0.0
 40
1.0
 40
1.0
 40
1.0
 40
1.0
 10
-2.8705
 20
-2.408
 30
0.0
 10
-2.8705
 20
-2.408
 30
0.0
 10
-14.5544
 20
-2.408
 30
0.0
 10
-14.5544
 20
-2.408
 30
0.0
  0
SPLINE
  5
D3
330
1F
100
AcDbEntity
  8
DEFAULT_1
 62
   250
100
AcDbSpline
210
0.0
220
0.0
230
1.0
 70
    11
 71
     3
 72
    20
 73
    16
 74
     0
 42
0.0000000001
 43
0.0000000001
 40
0.0
 40
0.0
 40
0.0
 40
0.0
 40
0.2
 40
0.2
 40
0.2
 40
0.2
 40
0.4
 40
0.4
 40
0.4
 40
0.4
 40
0.6
 40
0.6
 40
0.6
 40
0.6
 40
1.0
 40
1.0
 40
1.0
 40
1.0
 10
-14.3985
 20
-5.0693
 30
0.0
 10
-14.3985
 20
-5.0693
 30
0.0
 10
-14.0456
 20
-2.5693
 30
0.0
 10
-14.0456
 20
-2.5693
 30
0.0
 10
-14.0456
 20
-2.5693
 30
0.0
 10
-14.0456
 20
-2.5693
 30
0.0
 10
-13.9673
 20
-2.5693
 30
0.0
 10
-13.9673
 20
-2.5693
 30
0.0
 10
-13.9673
 20
-2.5693
 30
0.0
 10
-13.9673
 20
-2.5693
 30
0.0
 10
-13.591
 20
-5.0693
 30
0.0
 10
-13.591
 20
-5.0693
 30
0.0
 10
-13.591
 20
-5.0693
 30
0.0
 10
-13.591
 20
-5.0693
 30
0.0
 10
-14.3985
 20
-5.0693
 30
0.0
 10
-14.3985
 20
-5.0693
 30
0.0
  0
SPLINE
  5
D4
330
1F
100
AcDbEntity
  8
DEFAULT_1
 62
   250
100
AcDbSpline
210
0.0
220
0.0
230
1.0
 70
    11
 71
     3
 72
    48
 73
    44
 74
     0
 42
0.0000000001
 43
0.0000000001
 40
0.0
 40
0.0
 40
0.0
 40
0.0
 40
0.0833333333333333
 40
0.0833333333333333
 40
0.0833333333333333
 40
0.0833333333333333
 40
0.1666666666666667
 40
0.1666666666666667
 40
0.1666666666666667
 40
0.1666666666666667
 40
0.25
 40
0.25
 40
0.25
 40
0.25
 40
0.3333333333333333
 40
0.3333333333333333
 40
0.3333333333333333
 40
0.3333333333333333
 40
0.4166666666666667
 40
0.4166666666666667
 40
0.4166666666666667
 40
0.4166666666666667
 40
0.5
 40
0.5
 40
0.5
 40
0.5
 40
0.5833333333333334
 40
0.5833333333333334
 40
0.5833333333333334
 40
0.5833333333333334
 40
0.6666666666666666
 40
0.6666666666666666
 40
0.6666666666666666
 40
0.6666666666666666
 40
0.75
 40
0.75
 40
0.75
 40
0.75
 40
0.8333333333333334
 40
0.8333333333333334
 40
0.8333333333333334
 40
0.8333333333333334
 40
1.0
 40
1.0
 40
1.0
 40
1.0
 10
-16.2283
 20
12.147
 30
0.0
 10
-16.2283
 20
12.147
 30
0.0
 10
-16.4668
 20
12.147
 30
0.0
 10
-16.4668
 20
12.147
 30
0.0
 10
-16.4668
 20
12.147
 30
0.0
 10
-16.4668
 20
12.147
 30
0.0
 10
-16.4668
 20
13.4546
 30
0.0
 10
-16.4668
 20
13.4546
 30
0.0
 10
-16.4668
 20
13.4546
 30
0.0
 10
-16.4668
 20
13.4546
 30
0.0
 10
-16.2739
 20
13.4546
 30
0.0
 10
-16.2739
 20
13.4546
 30
0.0
 10
-16.2739
 20
13.4546
 30
0.0
 10
-16.1371
 20
13.3262
 30
0.0
 10
-15.955
 20
13.1987
 30
0.0
 10
-15.7283
 20
13.0722
 30
0.0
 10
-15.7283
 20
13.0722
 30
0.0
 10
-15.5016
 20
12.9461
 30
0.0
 10
-15.2678
 20
12.8483
 30
0.0
 10
-15.0284
 20
12.7796
 30
0.0
 10
-15.0284
 20
12.7796
 30
0.0
 10
-14.8591
 20
12.7298
 30
0.0
 10
-14.6742
 20
12.6983
 30
0.0
 10
-14.4729
 20
12.6846
 30
0.0
 10
-14.4729
 20
12.6846
 30
0.0
 10
-14.4729
 20
12.6846
 30
0.0
 10
-14.4729
 20
12.4297
 30
0.0
 10
-14.4729
 20
12.4297
 30
0.0
 10
-14.4729
 20
12.4297
 30
0.0
 10
-14.6319
 20
12.4325
 30
0.0
 10
-14.8238
 20
12.4635
 30
0.0
 10
-15.0491
 20
12.5233
 30
0.0
 10
-15.0491
 20
12.5233
 30
0.0
 10
-15.2739
 20
12.583
 30
0.0
 10
-15.4912
 20
12.6686
 30
0.0
 10
-15.7001
 20
12.7801
 30
0.0
 10
-15.7001
 20
12.7801
 30
0.0
 10
-15.9089
 20
12.892
 30
0.0
 10
-16.0853
 20
13.0106
 30
0.0
 10
-16.2283
 20
13.1366
 30
0.0
 10
-16.2283
 20
13.1366
 30
0.0
 10
-16.2283
 20
13.1366
 30
0.0
 10
-16.2283
 20
12.147
 30
0.0
 10
-16.2283
 20
12.147
 30
0.0
  0
SPLINE
  5
D5
330
1F
100
AcDbEntity
  8
DEFAULT_1
 62
   250
100
AcDbSpline
210
0.0
220
0.0
230
1.0
 70
    11
 71
     3
 72
    92
 73
    88
 74
     0
 42
0.0000000001
 43
0.0000000001
 40
0.0
 40
0.0
 40
0.0
 40
0.0
 40
0.0434782608695652
 40
0.0434782608695652
 40
0.0434782608695652
 40
0.0434782608695652
 40
0.0869565217391304
 40
0.0869565217391304
 40
0.0869565217391304
 40
0.0869565217391304
 40
0.1304347826086956
 40
0.1304347826086956
 40
0.1304347826086956
 40
0.1304347826086956
 40
0.1739130434782609
 40
0.1739130434782609
 40
0.1739130434782609
 40
0.1739130434782609
 40
0.2173913043478261
 40
0.2173913043478261
 40
0.2173913043478261
 40
0.2173913043478261
 40
0.2608695652173913
 40
0.2608695652173913
 40
0.2608695652173913
 40
0.2608695652173913
 40
0.3043478260869565
 40
0.3043478260869565
 40
0.3043478260869565
 40
0.3043478260869565
 40
0.3478260869565217
 40
0.3478260869565217
 40
0.3478260869565217
 40
0.3478260869565217
 40
0.391304347826087
 40
0.391304347826087
 40
0.391304347826087
 40
0.391304347826087
 40
0.4347826086956522
 40
0.4347826086956522
 40
0.4347826086956522
 40
0.4347826086956522
 40
0.4782608695652174
 40
0.4782608695652174
 40
0.4782608695652174
 40
0.4782608695652174
 40
0.5217391304347826
 40
0.5217391304347826
 40
0.5217391304347826
 40
0.5217391304347826
 40
0.5652173913043478
 40
0.5652173913043478
 40
0.5652173913043478
 40
0.5652173913043478
 40
0.6086956521739131
 40
0.6086956521739131
 40
0.6086956521739131
 40
0.6086956521739131
 40
0.6521739130434783
 40
0.6521739130434783
 40
0.6521739130434783
 40
0.6521739130434783
 40
0.6956521739130435
 40
0.6956521739130435
 40
0.6956521739130435
 40
0.6956521739130435
 40
0.7391304347826086
 40
0.7391304347826086
 40
0.7391304347826086
 40
0.7391304347826086
 40
0.782608695652174
 40
0.782608695652174
 40
0.782608695652174
 40
0.782608695652174
 40
0.8260869565217391
 40
0.8260869565217391
 40
0.8260869565217391
 40
0.8260869565217391
 40
0.8695652173913043
 40
0.8695652173913043
 40
0.8695652173913043
 40
0.8695652173913043
 40
0.9130434782608695
 40
0.9130434782608695
 40
0.9130434782608695
 40
0.9130434782608695
 40
1.0
 40
1.0
 40
1.0
 40
1.0
 10
-14.94
 20
13.7373
 30
0.0
 10
-14.94
 20
13.7373
 30
0.0
 10
-14.9621
 20
13.9758
 30
0.0
 10
-14.9621
 20
13.9758
 30
0.0
 10
-14.9621
 20
13.9758
 30
0.0
 10
-14.8501
 20
13.996
 30
0.0
 10
-14.7688
 20
14.0346
 30
0.0
 10
-14.718
 20
14.0915
 30
0.0
 10
-14.718
 20
14.0915
 30
0.0
 10
-14.6676
 20
14.1484
 30
0.0
 10
-14.6422
 20
14.2213
 30
0.0
 10
-14.6422
 20
14.3107
 30
0.0
 10
-14.6422
 20
14.3107
 30
0.0
 10
-14.6422
 20
14.3869
 30
0.0
 10
-14.6596
 20
14.4536
 30
0.0
 10
-14.6949
 20
14.511
 30
0.0
 10
-14.6949
 20
14.511
 30
0.0
 10
-14.7297
 20
14.5684
 30
0.0
 10
-14.7763
 20
14.6155
 30
0.0
 10
-14.8346
 20
14.6521
 30
0.0
 10
-14.8346
 20
14.6521
 30
0.0
 10
-14.8929
 20
14.6893
 30
0.0
 10
-14.972
 20
14.7199
 30
0.0
 10
-15.0707
 20
14.7448
 30
0.0
 10
-15.0707
 20
14.7448
 30
0.0
 10
-15.17
 20
14.7693
 30
0.0
 10
-15.2711
 20
14.782
 30
0.0
 10
-15.3741
 20
14.782
 30
0.0
 10
-15.3741
 20
14.782
 30
0.0
 10
-15.3849
 20
14.782
 30
0.0
 10
-15.4019
 20
14.7815
 30
0.0
 10
-15.4235
 20
14.7806
 30
0.0
 10
-15.4235
 20
14.7806
 30
0.0
 10
-15.345
 20
14.7307
 30
0.0
 10
-15.2805
 20
14.663
 30
0.0
 10
-15.2316
 20
14.5774
 30
0.0
 10
-15.2316
 20
14.5774
 30
0.0
 10
-15.1822
 20
14.4913
 30
0.0
 10
-15.1578
 20
14.3981
 30
0.0
 10
-15.1578
 20
14.2984
 30
0.0
 10
-15.1578
 20
14.2984
 30
0.0
 10
-15.1578
 20
14.131
 30
0.0
 10
-15.2184
 20
13.9894
 30
0.0
 10
-15.3398
 20
13.8737
 30
0.0
 10
-15.3398
 20
13.8737
 30
0.0
 10
-15.4611
 20
13.758
 30
0.0
 10
-15.6206
 20
13.7001
 30
0.0
 10
-15.8191
 20
13.7001
 30
0.0
 10
-15.8191
 20
13.7001
 30
0.0
 10
-16.0242
 20
13.7001
 30
0.0
 10
-16.1888
 20
13.7603
 30
0.0
 10
-16.3139
 20
13.8812
 30
0.0
 10
-16.3139
 20
13.8812
 30
0.0
 10
-16.439
 20
14.0021
 30
0.0
 10
-16.5016
 20
14.1536
 30
0.0
 10
-16.5016
 20
14.3356
 30
0.0
 10
-16.5016
 20
14.3356
 30
0.0
 10
-16.5016
 20
14.4668
 30
0.0
 10
-16.4658
 20
14.5868
 30
0.0
 10
-16.3953
 20
14.6959
 30
0.0
 10
-16.3953
 20
14.6959
 30
0.0
 10
-16.3247
 20
14.8045
 30
0.0
 10
-16.2236
 20
14.8873
 30
0.0
 10
-16.0928
 20
14.9438
 30
0.0
 10
-16.0928
 20
14.9438
 30
0.0
 10
-15.9621
 20
15.0002
 30
0.0
 10
-15.7725
 20
15.0284
 30
0.0
 10
-15.5242
 20
15.0284
 30
0.0
 10
-15.5242
 20
15.0284
 30
0.0
 10
-15.2664
 20
15.0284
 30
0.0
 10
-15.0609
 20
15.0007
 30
0.0
 10
-14.9075
 20
14.9447
 30
0.0
 10
-14.9075
 20
14.9447
 30
0.0
 10
-14.7546
 20
14.8883
 30
0.0
 10
-14.6385
 20
14.805
 30
0.0
 10
-14.5585
 20
14.6945
 30
0.0
 10
-14.5585
 20
14.6945
 30
0.0
 10
-14.4785
 20
14.5835
 30
0.0
 10
-14.4386
 20
14.4541
 30
0.0
 10
-14.4386
 20
14.305
 30
0.0
 10
-14.4386
 20
14.305
 30
0.0
 10
-14.4386
 20
14.147
 30
0.0
 10
-14.4823
 20
14.0181
 30
0.0
 10
-14.5703
 20
13.9179
 30
0.0
 10
-14.5703
 20
13.9179
 30
0.0
 10
-14.6578
 20
13.8177
 30
0.0
 10
-14.781
 20
13.7575
 30
0.0
 10
-14.94
 20
13.7373
 30
0.0
  0
SPLINE
  5
D6
330
1F
100
AcDbEntity
  8
DEFAULT_1
 62
   250
100
AcDbSpline
210
0.0
220
0.0
230
1.0
 70
    11
 71
     3
 72
    36
 73
    32
 74
     0
 42
0.0000000001
 43
0.0000000001
 40
0.0
 40
0.0
 40
0.0
 40
0.0
 40
0.1111111111111111
 40
0.1111111111111111
 40
0.1111111111111111
 40
0.1111111111111111
 40
0.2222222222222222
 40
0.2222222222222222
 40
0.2222222222222222
 40
0.2222222222222222
 40
0.3333333333333333
 40
0.3333333333333333
 40
0.3333333333333333
 40
0.3333333333333333
 40
0.4444444444444444
 40
0.4444444444444444
 40
0.4444444444444444
 40
0.4444444444444444
 40
0.5555555555555556
 40
0.5555555555555556
 40
0.5555555555555556
 40
0.5555555555555556
 40
0.6666666666666666
 40
0.6666666666666666
 40
0.6666666666666666
 40
0.6666666666666666
 40
0.7777777777777778
 40
0.7777777777777778
 40
0.7777777777777778
 40
0.7777777777777778
 40
1.0
 40
1.0
 40
1.0
 40
1.0
 10
-15.8318
 20
14.7528
 30
0.0
 10
-15.9738
 20
14.7528
 30
0.0
 10
-16.0872
 20
14.7152
 30
0.0
 10
-16.1705
 20
14.6394
 30
0.0
 10
-16.1705
 20
14.6394
 30
0.0
 10
-16.2542
 20
14.5632
 30
0.0
 10
-16.296
 20
14.4725
 30
0.0
 10
-16.296
 20
14.3657
 30
0.0
 10
-16.296
 20
14.3657
 30
0.0
 10
-16.296
 20
14.2556
 30
0.0
 10
-16.2509
 20
14.1597
 30
0.0
 10
-16.161
 20
14.0778
 30
0.0
 10
-16.161
 20
14.0778
 30
0.0
 10
-16.0707
 20
13.996
 30
0.0
 10
-15.9541
 20
13.9551
 30
0.0
 10
-15.8111
 20
13.9551
 30
0.0
 10
-15.8111
 20
13.9551
 30
0.0
 10
-15.6822
 20
13.9551
 30
0.0
 10
-15.5778
 20
13.9941
 30
0.0
 10
-15.4974
 20
14.0717
 30
0.0
 10
-15.4974
 20
14.0717
 30
0.0
 10
-15.4169
 20
14.1493
 30
0.0
 10
-15.3769
 20
14.2448
 30
0.0
 10
-15.3769
 20
14.3586
 30
0.0
 10
-15.3769
 20
14.3586
 30
0.0
 10
-15.3769
 20
14.4739
 30
0.0
 10
-15.4169
 20
14.5679
 30
0.0
 10
-15.4974
 20
14.6418
 30
0.0
 10
-15.4974
 20
14.6418
 30
0.0
 10
-15.5778
 20
14.7161
 30
0.0
 10
-15.6893
 20
14.7528
 30
0.0
 10
-15.8318
 20
14.7528
 30
0.0
  0
SPLINE
  5
D7
330
1F
100
AcDbEntity
  8
DEFAULT_1
 62
   250
100
AcDbSpline
210
0.0
220
0.0
230
1.0
 70
    24
 71
     3
 72
     8
 73
     4
 74
     0
 42
0.0000000001
 43
0.0000000001
 40
0.0
 40
0.0
 40
0.0
 40
0.0
 40
1.0
 40
1.0
 40
1.0
 40
1.0
 10
-6.6839
 20
31.9013
 30
0.0
 10
-6.6839
 20
31.9013
 30
0.0
 10
-6.6839
 20
33.967
 30
0.0
 10
-6.6839
 20
33.967
 30
0.0
  0
SPLINE
  5
D8
330
1F
100
AcDbEntity
  8
DEFAULT_1
 62
   250
100
AcDbSpline
210
0.0
220
0.0
230
1.0
 70
    24
 71
     3
 72
     8
 73
     4
 74
     0
 42
0.0000000001
 43
0.0000000001
 40
0.0
 40
0.0
 40
0.0
 40
0.0
 40
1.0
 40
1.0
 40
1.0
 40
1.0
 10
10.963
 20
33.967
 30
0.0
 10
10.963
 20
33.967
 30
0.0
 10
10.963
 20
31.9013
 30
0.0
 10
10.963
 20
31.9013
 30
0.0
  0
SPLINE
  5
D9
330
1F
100
AcDbEntity
  8
DEFAULT_1
 62
   250
100
AcDbSpline
210
0.0
220
0.0
230
1.0
 70
    24
 71
     3
 72
     8
 73
     4
 74
     0
 42
0.0000000001
 43
0.0000000001
 40
0.0
 40
0.0
 40
0.0
 40
0.0
 40
1.0
 40
1.0
 40
1.0
 40
1.0
 10
10.7333
 20
31.8398
 30
0.0
 10
10.7333
 20
31.8398
 30
0.0
 10
10.963
 20
31.9013
 30
0.0
 10
10.963
 20
31.9013
 30
0.0
  0
SPLINE
  5
DA
330
1F
100
AcDbEntity
  8
DEFAULT_1
 62
   250
100
AcDbSpline
210
0.0
220
0.0
230
1.0
 70
    24
 71
     3
 72
     8
 73
     4
 74
     0
 42
0.0000000001
 43
0.0000000001
 40
0.0
 40
0.0
 40
0.0
 40
0.0
 40
1.0
 40
1.0
 40
1.0
 40
1.0
 10
10.963
 20
31.3528
 30
0.0
 10
10.963
 20
31.3528
 30
0.0
 10
10.963
 20
31.2206
 30
0.0
 10
10.963
 20
31.2206
 30
0.0
  0
SPLINE
  5
DB
330
1F
100
AcDbEntity
  8
DEFAULT_1
 62
   250
100
AcDbSpline
210
0.0
220
0.0
230
1.0
 70
    24
 71
     3
 72
     8
 73
     4
 74
     0
 42
0.0000000001
 43
0.0000000001
 40
0.0
 40
0.0
 40
0.0
 40
0.0
 40
1.0
 40
1.0
 40
1.0
 40
1.0
 10
10.963
 20
30.6721
 30
0.0
 10
10.963
 20
30.6721
 30
0.0
 10
10.963
 20
30.54
 30
0.0
 10
10.963
 20
30.54
 30
0.0
  0
SPLINE
  5
DC
330
1F
100
AcDbEntity
  8
DEFAULT_1
 62
   250
100
AcDbSpline
210
0.0
220
0.0
230
1.0
 70
    24
 71
     3
 72
     8
 73
     4
 74
     0
 42
0.0000000001
 43
0.0000000001
 40
0.0
 40
0.0
 40
0.0
 40
0.0
 40
1.0
 40
1.0
 40
1.0
 40
1.0
 10
10.963
 20
29.9914
 30
0.0
 10
10.963
 20
29.9914
 30
0.0
 10
10.963
 20
29.8593
 30
0.0
 10
10.963
 20
29.8593
 30
0.0
  0
SPLINE
  5
DD
330
1F
100
AcDbEntity
  8
DEFAULT_1
 62
   250
100
AcDbSpline
210
0.0
220
0.0
230
1.0
 70
    24
 71
     3
 72
     8
 73
     4
 74
     0
 42
0.0000000001
 43
0.0000000001
 40
0.0
 40
0.0
 40
0.0
 40
0.0
 40
1.0
 40
1.0
 40
1.0
 40
1.0
 10
10.963
 20
29.3107
 30
0.0
 10
10.963
 20
29.3107
 30
0.0
 10
10.963
 20
29.1786
 30
0.0
 10
10.963
 20
29.1786
 30
0.0
  0
SPLINE
  5
DE
330
1F
100
AcDbEntity
  8
DEFAULT_1
 62
   250
100
AcDbSpline
210
0.0
220
0.0
230
1.0
 70
    24
 71
     3
 72
     8
 73
     4
 74
     0
 42
0.0000000001
 43
0.0000000001
 40
0.0
 40
0.0
 40
0.0
 40
0.0
 40
1.0
 40
1.0
 40
1.0
 40
1.0
 10
10.963
 20
28.63
 30
0.0
 10
10.963
 20
28.63
 30
0.0
 10
10.963
 20
28.4978
 30
0.0
 10
10.963
 20
28.4978
 30
0.0
  0
SPLINE
  5
DF
330
1F
100
AcDbEntity
  8
DEFAULT_1
 62
   250
100
AcDbSpline
210
0.0
220
0.0
230
1.0
 70
    24
 71
     3
 72
     8
 73
     4
 74
     0
 42
0.0000000001
 43
0.0000000001
 40
0.0
 40
0.0
 40
0.0
 40
0.0
 40
1.0
 40
1.0
 40
1.0
 40
1.0
 10
10.963
 20
27.8172
 30
0.0
 10
10.963
 20
27.8172
 30
0.0
 10
10.963
 20
27.9494
 30
0.0
 10
10.963
 20
27.9494
 30
0.0
  0
SPLINE
  5
E0
330
1F
100
AcDbEntity
  8
DEFAULT_1
 62
   250
100
AcDbSpline
210
0.0
220
0.0
230
1.0
 70
    24
 71
     3
 72
     8
 73
     4
 74
     0
 42
0.0000000001
 43
0.0000000001
 40
0.0
 40
0.0
 40
0.0
 40
0.0
 40
1.0
 40
1.0
 40
1.0
 40
1.0
 10
10.7333
 20
28.0108
 30
0.0
 10
10.7333
 20
28.0108
 30
0.0
 10
10.963
 20
27.9494
 30
0.0
 10
10.963
 20
27.9494
 30
0.0
  0
SPLINE
  5
E1
330
1F
100
AcDbEntity
  8
DEFAULT_1
 62
   250
100
AcDbSpline
210
0.0
220
0.0
230
1.0
 70
    24
 71
     3
 72
     8
 73
     4
 74
     0
 42
0.0000000001
 43
0.0000000001
 40
0.0
 40
0.0
 40
0.0
 40
0.0
 40
1.0
 40
1.0
 40
1.0
 40
1.0
 10
10.7333
 20
27.3302
 30
0.0
 10
10.7333
 20
27.3302
 30
0.0
 10
10.963
 20
27.2686
 30
0.0
 10
10.963
 20
27.2686
 30
0.0
  0
SPLINE
  5
E2
330
1F
100
AcDbEntity
  8
DEFAULT_1
 62
   250
100
AcDbSpline
210
0.0
220
0.0
230
1.0
 70
    24
 71
     3
 72
     8
 73
     4
 74
     0
 42
0.0000000001
 43
0.0000000001
 40
0.0
 40
0.0
 40
0.0
 40
0.0
 40
1.0
 40
1.0
 40
1.0
 40
1.0
 10
10.7333
 20
26.6495
 30
0.0
 10
10.7333
 20
26.6495
 30
0.0
 10
10.963
 20
26.5879
 30
0.0
 10
10.963
 20
26.5879
 30
0.0
  0
SPLINE
  5
E3
330
1F
100
AcDbEntity
  8
DEFAULT_1
 62
   250
100
AcDbSpline
210
0.0
220
0.0
230
1.0
 70
    24
 71
     3
 72
     8
 73
     4
 74
     0
 42
0.0000000001
 43
0.0000000001
 40
0.0
 40
0.0
 40
0.0
 40
0.0
 40
1.0
 40
1.0
 40
1.0
 40
1.0
 10
10.7333
 20
25.9688
 30
0.0
 10
10.7333
 20
25.9688
 30
0.0
 10
10.963
 20
25.9073
 30
0.0
 10
10.963
 20
25.9073
 30
0.0
  0
SPLINE
  5
E4
330
1F
100
AcDbEntity
  8
DEFAULT_1
 62
   250
100
AcDbSpline
210
0.0
220
0.0
230
1.0
 70
    24
 71
     3
 72
     8
 73
     4
 74
     0
 42
0.0000000001
 43
0.0000000001
 40
0.0
 40
0.0
 40
0.0
 40
0.0
 40
1.0
 40
1.0
 40
1.0
 40
1.0
 10
10.7333
 20
25.2881
 30
0.0
 10
10.7333
 20
25.2881
 30
0.0
 10
10.963
 20
25.2265
 30
0.0
 10
10.963
 20
25.2265
 30
0.0
  0
SPLINE
  5
E5
330
1F
100
AcDbEntity
  8
DEFAULT_1
 62
   250
100
AcDbSpline
210
0.0
220
0.0
230
1.0
 70
    24
 71
     3
 72
     8
 73
     4
 74
     0
 42
0.0000000001
 43
0.0000000001
 40
0.0
 40
0.0
 40
0.0
 40
0.0
 40
1.0
 40
1.0
 40
1.0
 40
1.0
 10
10.7333
 20
24.6074
 30
0.0
 10
10.7333
 20
24.6074
 30
0.0
 10
10.963
 20
24.5459
 30
0.0
 10
10.963
 20
24.5459
 30
0.0
  0
SPLINE
  5
E6
330
1F
100
AcDbEntity
  8
DEFAULT_1
 62
   250
100
AcDbSpline
210
0.0
220
0.0
230
1.0
 70
    24
 71
     3
 72
     8
 73
     4
 74
     0
 42
0.0000000001
 43
0.0000000001
 40
0.0
 40
0.0
 40
0.0
 40
0.0
 40
1.0
 40
1.0
 40
1.0
 40
1.0
 10
10.7333
 20
23.9268
 30
0.0
 10
10.7333
 20
23.9268
 30
0.0
 10
10.963
 20
23.8651
 30
0.0
 10
10.963
 20
23.8651
 30
0.0
  0
SPLINE
  5
E7
330
1F
100
AcDbEntity
  8
DEFAULT_1
 62
   250
100
AcDbSpline
210
0.0
220
0.0
230
1.0
 70
    24
 71
     3
 72
     8
 73
     4
 74
     0
 42
0.0000000001
 43
0.0000000001
 40
0.0
 40
0.0
 40
0.0
 40
0.0
 40
1.0
 40
1.0
 40
1.0
 40
1.0
 10
10.7333
 20
23.246
 30
0.0
 10
10.7333
 20
23.246
 30
0.0
 10
10.963
 20
23.1845
 30
0.0
 10
10.963
 20
23.1845
 30
0.0
  0
SPLINE
  5
E8
330
1F
100
AcDbEntity
  8
DEFAULT_1
 62
   250
100
AcDbSpline
210
0.0
220
0.0
230
1.0
 70
    24
 71
     3
 72
     8
 73
     4
 74
     0
 42
0.0000000001
 43
0.0000000001
 40
0.0
 40
0.0
 40
0.0
 40
0.0
 40
1.0
 40
1.0
 40
1.0
 40
1.0
 10
10.7333
 20
22.5653
 30
0.0
 10
10.7333
 20
22.5653
 30
0.0
 10
10.963
 20
22.5037
 30
0.0
 10
10.963
 20
22.5037
 30
0.0
  0
SPLINE
  5
E9
330
1F
100
AcDbEntity
  8
DEFAULT_1
 62
   250
100
AcDbSpline
210
0.0
220
0.0
230
1.0
 70
    24
 71
     3
 72
     8
 73
     4
 74
     0
 42
0.0000000001
 43
0.0000000001
 40
0.0
 40
0.0
 40
0.0
 40
0.0
 40
1.0
 40
1.0
 40
1.0
 40
1.0
 10
10.7333
 20
21.8846
 30
0.0
 10
10.7333
 20
21.8846
 30
0.0
 10
10.963
 20
21.8231
 30
0.0
 10
10.963
 20
21.8231
 30
0.0
  0
SPLINE
  5
EA
330
1F
100
AcDbEntity
  8
DEFAULT_1
 62
   250
100
AcDbSpline
210
0.0
220
0.0
230
1.0
 70
    24
 71
     3
 72
     8
 73
     4
 74
     0
 42
0.0000000001
 43
0.0000000001
 40
0.0
 40
0.0
 40
0.0
 40
0.0
 40
1.0
 40
1.0
 40
1.0
 40
1.0
 10
10.7333
 20
21.2039
 30
0.0
 10
10.7333
 20
21.2039
 30
0.0
 10
10.963
 20
21.1424
 30
0.0
 10
10.963
 20
21.1424
 30
0.0
  0
SPLINE
  5
EB
330
1F
100
AcDbEntity
  8
DEFAULT_1
 62
   250
100
AcDbSpline
210
0.0
220
0.0
230
1.0
 70
    24
 71
     3
 72
     8
 73
     4
 74
     0
 42
0.0000000001
 43
0.0000000001
 40
0.0
 40
0.0
 40
0.0
 40
0.0
 40
1.0
 40
1.0
 40
1.0
 40
1.0
 10
10.7333
 20
20.5232
 30
0.0
 10
10.7333
 20
20.5232
 30
0.0
 10
10.963
 20
20.4616
 30
0.0
 10
10.963
 20
20.4616
 30
0.0
  0
SPLINE
  5
EC
330
1F
100
AcDbEntity
  8
DEFAULT_1
 62
   250
100
AcDbSpline
210
0.0
220
0.0
230
1.0
 70
    24
 71
     3
 72
     8
 73
     4
 74
     0
 42
0.0000000001
 43
0.0000000001
 40
0.0
 40
0.0
 40
0.0
 40
0.0
 40
1.0
 40
1.0
 40
1.0
 40
1.0
 10
10.7333
 20
19.8425
 30
0.0
 10
10.7333
 20
19.8425
 30
0.0
 10
10.963
 20
19.781
 30
0.0
 10
10.963
 20
19.781
 30
0.0
  0
SPLINE
  5
ED
330
1F
100
AcDbEntity
  8
DEFAULT_1
 62
   250
100
AcDbSpline
210
0.0
220
0.0
230
1.0
 70
    24
 71
     3
 72
     8
 73
     4
 74
     0
 42
0.0000000001
 43
0.0000000001
 40
0.0
 40
0.0
 40
0.0
 40
0.0
 40
1.0
 40
1.0
 40
1.0
 40
1.0
 10
10.963
 20
20.3295
 30
0.0
 10
10.963
 20
20.3295
 30
0.0
 10
10.7333
 20
20.2679
 30
0.0
 10
10.7333
 20
20.2679
 30
0.0
  0
SPLINE
  5
EE
330
1F
100
AcDbEntity
  8
DEFAULT_1
 62
   250
100
AcDbSpline
210
0.0
220
0.0
230
1.0
 70
    24
 71
     3
 72
     8
 73
     4
 74
     0
 42
0.0000000001
 43
0.0000000001
 40
0.0
 40
0.0
 40
0.0
 40
0.0
 40
1.0
 40
1.0
 40
1.0
 40
1.0
 10
10.7333
 20
19.5873
 30
0.0
 10
10.7333
 20
19.5873
 30
0.0
 10
10.963
 20
19.6488
 30
0.0
 10
10.963
 20
19.6488
 30
0.0
  0
SPLINE
  5
EF
330
1F
100
AcDbEntity
  8
DEFAULT_1
 62
   250
100
AcDbSpline
210
0.0
220
0.0
230
1.0
 70
    24
 71
     3
 72
     8
 73
     4
 74
     0
 42
0.0000000001
 43
0.0000000001
 40
0.0
 40
0.0
 40
0.0
 40
0.0
 40
1.0
 40
1.0
 40
1.0
 40
1.0
 10
10.7333
 20
19.8425
 30
0.0
 10
10.7333
 20
19.8425
 30
0.0
 10
10.7333
 20
20.2679
 30
0.0
 10
10.7333
 20
20.2679
 30
0.0
  0
SPLINE
  5
F0
330
1F
100
AcDbEntity
  8
DEFAULT_1
 62
   250
100
AcDbSpline
210
0.0
220
0.0
230
1.0
 70
    24
 71
     3
 72
     8
 73
     4
 74
     0
 42
0.0000000001
 43
0.0000000001
 40
0.0
 40
0.0
 40
0.0
 40
0.0
 40
1.0
 40
1.0
 40
1.0
 40
1.0
 10
10.7333
 20
20.9486
 30
0.0
 10
10.7333
 20
20.9486
 30
0.0
 10
10.7333
 20
20.5232
 30
0.0
 10
10.7333
 20
20.5232
 30
0.0
  0
SPLINE
  5
F1
330
1F
100
AcDbEntity
  8
DEFAULT_1
 62
   250
100
AcDbSpline
210
0.0
220
0.0
230
1.0
 70
    24
 71
     3
 72
     8
 73
     4
 74
     0
 42
0.0000000001
 43
0.0000000001
 40
0.0
 40
0.0
 40
0.0
 40
0.0
 40
1.0
 40
1.0
 40
1.0
 40
1.0
 10
10.963
 20
20.3295
 30
0.0
 10
10.963
 20
20.3295
 30
0.0
 10
10.963
 20
20.4616
 30
0.0
 10
10.963
 20
20.4616
 30
0.0
  0
SPLINE
  5
F2
330
1F
100
AcDbEntity
  8
DEFAULT_1
 62
   250
100
AcDbSpline
210
0.0
220
0.0
230
1.0
 70
    24
 71
     3
 72
     8
 73
     4
 74
     0
 42
0.0000000001
 43
0.0000000001
 40
0.0
 40
0.0
 40
0.0
 40
0.0
 40
1.0
 40
1.0
 40
1.0
 40
1.0
 10
10.963
 20
21.1424
 30
0.0
 10
10.963
 20
21.1424
 30
0.0
 10
10.963
 20
21.0103
 30
0.0
 10
10.963
 20
21.0103
 30
0.0
  0
SPLINE
  5
F3
330
1F
100
AcDbEntity
  8
DEFAULT_1
 62
   250
100
AcDbSpline
210
0.0
220
0.0
230
1.0
 70
    24
 71
     3
 72
     8
 73
     4
 74
     0
 42
0.0000000001
 43
0.0000000001
 40
0.0
 40
0.0
 40
0.0
 40
0.0
 40
1.0
 40
1.0
 40
1.0
 40
1.0
 10
10.7333
 20
20.9486
 30
0.0
 10
10.7333
 20
20.9486
 30
0.0
 10
10.963
 20
21.0103
 30
0.0
 10
10.963
 20
21.0103
 30
0.0
  0
SPLINE
  5
F4
330
1F
100
AcDbEntity
  8
DEFAULT_1
 62
   250
100
AcDbSpline
210
0.0
220
0.0
230
1.0
 70
    24
 71
     3
 72
     8
 73
     4
 74
     0
 42
0.0000000001
 43
0.0000000001
 40
0.0
 40
0.0
 40
0.0
 40
0.0
 40
1.0
 40
1.0
 40
1.0
 40
1.0
 10
10.7333
 20
21.6294
 30
0.0
 10
10.7333
 20
21.6294
 30
0.0
 10
10.963
 20
21.6909
 30
0.0
 10
10.963
 20
21.6909
 30
0.0
  0
SPLINE
  5
F5
330
1F
100
AcDbEntity
  8
DEFAULT_1
 62
   250
100
AcDbSpline
210
0.0
220
0.0
230
1.0
 70
    24
 71
     3
 72
     8
 73
     4
 74
     0
 42
0.0000000001
 43
0.0000000001
 40
0.0
 40
0.0
 40
0.0
 40
0.0
 40
1.0
 40
1.0
 40
1.0
 40
1.0
 10
10.7333
 20
22.31
 30
0.0
 10
10.7333
 20
22.31
 30
0.0
 10
10.963
 20
22.3716
 30
0.0
 10
10.963
 20
22.3716
 30
0.0
  0
SPLINE
  5
F6
330
1F
100
AcDbEntity
  8
DEFAULT_1
 62
   250
100
AcDbSpline
210
0.0
220
0.0
230
1.0
 70
    24
 71
     3
 72
     8
 73
     4
 74
     0
 42
0.0000000001
 43
0.0000000001
 40
0.0
 40
0.0
 40
0.0
 40
0.0
 40
1.0
 40
1.0
 40
1.0
 40
1.0
 10
10.7333
 20
22.9908
 30
0.0
 10
10.7333
 20
22.9908
 30
0.0
 10
10.963
 20
23.0523
 30
0.0
 10
10.963
 20
23.0523
 30
0.0
  0
SPLINE
  5
F7
330
1F
100
AcDbEntity
  8
DEFAULT_1
 62
   250
100
AcDbSpline
210
0.0
220
0.0
230
1.0
 70
    24
 71
     3
 72
     8
 73
     4
 74
     0
 42
0.0000000001
 43
0.0000000001
 40
0.0
 40
0.0
 40
0.0
 40
0.0
 40
1.0
 40
1.0
 40
1.0
 40
1.0
 10
10.7333
 20
23.6714
 30
0.0
 10
10.7333
 20
23.6714
 30
0.0
 10
10.963
 20
23.733
 30
0.0
 10
10.963
 20
23.733
 30
0.0
  0
SPLINE
  5
F8
330
1F
100
AcDbEntity
  8
DEFAULT_1
 62
   250
100
AcDbSpline
210
0.0
220
0.0
230
1.0
 70
    24
 71
     3
 72
     8
 73
     4
 74
     0
 42
0.0000000001
 43
0.0000000001
 40
0.0
 40
0.0
 40
0.0
 40
0.0
 40
1.0
 40
1.0
 40
1.0
 40
1.0
 10
10.7333
 20
24.3522
 30
0.0
 10
10.7333
 20
24.3522
 30
0.0
 10
10.963
 20
24.4137
 30
0.0
 10
10.963
 20
24.4137
 30
0.0
  0
SPLINE
  5
F9
330
1F
100
AcDbEntity
  8
DEFAULT_1
 62
   250
100
AcDbSpline
210
0.0
220
0.0
230
1.0
 70
    24
 71
     3
 72
     8
 73
     4
 74
     0
 42
0.0000000001
 43
0.0000000001
 40
0.0
 40
0.0
 40
0.0
 40
0.0
 40
1.0
 40
1.0
 40
1.0
 40
1.0
 10
10.7333
 20
25.0328
 30
0.0
 10
10.7333
 20
25.0328
 30
0.0
 10
10.963
 20
25.0944
 30
0.0
 10
10.963
 20
25.0944
 30
0.0
  0
SPLINE
  5
FA
330
1F
100
AcDbEntity
  8
DEFAULT_1
 62
   250
100
AcDbSpline
210
0.0
220
0.0
230
1.0
 70
    24
 71
     3
 72
     8
 73
     4
 74
     0
 42
0.0000000001
 43
0.0000000001
 40
0.0
 40
0.0
 40
0.0
 40
0.0
 40
1.0
 40
1.0
 40
1.0
 40
1.0
 10
10.7333
 20
25.7135
 30
0.0
 10
10.7333
 20
25.7135
 30
0.0
 10
10.963
 20
25.7751
 30
0.0
 10
10.963
 20
25.7751
 30
0.0
  0
SPLINE
  5
FB
330
1F
100
AcDbEntity
  8
DEFAULT_1
 62
   250
100
AcDbSpline
210
0.0
220
0.0
230
1.0
 70
    24
 71
     3
 72
     8
 73
     4
 74
     0
 42
0.0000000001
 43
0.0000000001
 40
0.0
 40
0.0
 40
0.0
 40
0.0
 40
1.0
 40
1.0
 40
1.0
 40
1.0
 10
10.7333
 20
26.3942
 30
0.0
 10
10.7333
 20
26.3942
 30
0.0
 10
10.963
 20
26.4557
 30
0.0
 10
10.963
 20
26.4557
 30
0.0
  0
SPLINE
  5
FC
330
1F
100
AcDbEntity
  8
DEFAULT_1
 62
   250
100
AcDbSpline
210
0.0
220
0.0
230
1.0
 70
    24
 71
     3
 72
     8
 73
     4
 74
     0
 42
0.0000000001
 43
0.0000000001
 40
0.0
 40
0.0
 40
0.0
 40
0.0
 40
1.0
 40
1.0
 40
1.0
 40
1.0
 10
10.7333
 20
27.0749
 30
0.0
 10
10.7333
 20
27.0749
 30
0.0
 10
10.963
 20
27.1365
 30
0.0
 10
10.963
 20
27.1365
 30
0.0
  0
SPLINE
  5
FD
330
1F
100
AcDbEntity
  8
DEFAULT_1
 62
   250
100
AcDbSpline
210
0.0
220
0.0
230
1.0
 70
    24
 71
     3
 72
     8
 73
     4
 74
     0
 42
0.0000000001
 43
0.0000000001
 40
0.0
 40
0.0
 40
0.0
 40
0.0
 40
1.0
 40
1.0
 40
1.0
 40
1.0
 10
10.7333
 20
27.7556
 30
0.0
 10
10.7333
 20
27.7556
 30
0.0
 10
10.963
 20
27.8172
 30
0.0
 10
10.963
 20
27.8172
 30
0.0
  0
SPLINE
  5
FE
330
1F
100
AcDbEntity
  8
DEFAULT_1
 62
   250
100
AcDbSpline
210
0.0
220
0.0
230
1.0
 70
    24
 71
     3
 72
     8
 73
     4
 74
     0
 42
0.0000000001
 43
0.0000000001
 40
0.0
 40
0.0
 40
0.0
 40
0.0
 40
1.0
 40
1.0
 40
1.0
 40
1.0
 10
10.963
 20
28.4978
 30
0.0
 10
10.963
 20
28.4978
 30
0.0
 10
10.7333
 20
28.4363
 30
0.0
 10
10.7333
 20
28.4363
 30
0.0
  0
SPLINE
  5
FF
330
1F
100
AcDbEntity
  8
DEFAULT_1
 62
   250
100
AcDbSpline
210
0.0
220
0.0
230
1.0
 70
    24
 71
     3
 72
     8
 73
     4
 74
     0
 42
0.0000000001
 43
0.0000000001
 40
0.0
 40
0.0
 40
0.0
 40
0.0
 40
1.0
 40
1.0
 40
1.0
 40
1.0
 10
10.7333
 20
28.0108
 30
0.0
 10
10.7333
 20
28.0108
 30
0.0
 10
10.7333
 20
28.4363
 30
0.0
 10
10.7333
 20
28.4363
 30
0.0
  0
SPLINE
  5
100
330
1F
100
AcDbEntity
  8
DEFAULT_1
 62
   250
100
AcDbSpline
210
0.0
220
0.0
230
1.0
 70
    24
 71
     3
 72
     8
 73
     4
 74
     0
 42
0.0000000001
 43
0.0000000001
 40
0.0
 40
0.0
 40
0.0
 40
0.0
 40
1.0
 40
1.0
 40
1.0
 40
1.0
 10
10.7333
 20
29.117
 30
0.0
 10
10.7333
 20
29.117
 30
0.0
 10
10.7333
 20
28.6916
 30
0.0
 10
10.7333
 20
28.6916
 30
0.0
  0
SPLINE
  5
101
330
1F
100
AcDbEntity
  8
DEFAULT_1
 62
   250
100
AcDbSpline
210
0.0
220
0.0
230
1.0
 70
    24
 71
     3
 72
     8
 73
     4
 74
     0
 42
0.0000000001
 43
0.0000000001
 40
0.0
 40
0.0
 40
0.0
 40
0.0
 40
1.0
 40
1.0
 40
1.0
 40
1.0
 10
10.963
 20
28.63
 30
0.0
 10
10.963
 20
28.63
 30
0.0
 10
10.7333
 20
28.6916
 30
0.0
 10
10.7333
 20
28.6916
 30
0.0
  0
SPLINE
  5
102
330
1F
100
AcDbEntity
  8
DEFAULT_1
 62
   250
100
AcDbSpline
210
0.0
220
0.0
230
1.0
 70
    24
 71
     3
 72
     8
 73
     4
 74
     0
 42
0.0000000001
 43
0.0000000001
 40
0.0
 40
0.0
 40
0.0
 40
0.0
 40
1.0
 40
1.0
 40
1.0
 40
1.0
 10
10.7333
 20
29.3723
 30
0.0
 10
10.7333
 20
29.3723
 30
0.0
 10
10.963
 20
29.3107
 30
0.0
 10
10.963
 20
29.3107
 30
0.0
  0
SPLINE
  5
103
330
1F
100
AcDbEntity
  8
DEFAULT_1
 62
   250
100
AcDbSpline
210
0.0
220
0.0
230
1.0
 70
    24
 71
     3
 72
     8
 73
     4
 74
     0
 42
0.0000000001
 43
0.0000000001
 40
0.0
 40
0.0
 40
0.0
 40
0.0
 40
1.0
 40
1.0
 40
1.0
 40
1.0
 10
10.7333
 20
29.117
 30
0.0
 10
10.7333
 20
29.117
 30
0.0
 10
10.963
 20
29.1786
 30
0.0
 10
10.963
 20
29.1786
 30
0.0
  0
SPLINE
  5
104
330
1F
100
AcDbEntity
  8
DEFAULT_1
 62
   250
100
AcDbSpline
210
0.0
220
0.0
230
1.0
 70
    24
 71
     3
 72
     8
 73
     4
 74
     0
 42
0.0000000001
 43
0.0000000001
 40
0.0
 40
0.0
 40
0.0
 40
0.0
 40
1.0
 40
1.0
 40
1.0
 40
1.0
 10
10.963
 20
29.8593
 30
0.0
 10
10.963
 20
29.8593
 30
0.0
 10
10.7333
 20
29.7977
 30
0.0
 10
10.7333
 20
29.7977
 30
0.0
  0
SPLINE
  5
105
330
1F
100
AcDbEntity
  8
DEFAULT_1
 62
   250
100
AcDbSpline
210
0.0
220
0.0
230
1.0
 70
    24
 71
     3
 72
     8
 73
     4
 74
     0
 42
0.0000000001
 43
0.0000000001
 40
0.0
 40
0.0
 40
0.0
 40
0.0
 40
1.0
 40
1.0
 40
1.0
 40
1.0
 10
10.7333
 20
29.3723
 30
0.0
 10
10.7333
 20
29.3723
 30
0.0
 10
10.7333
 20
29.7977
 30
0.0
 10
10.7333
 20
29.7977
 30
0.0
  0
SPLINE
  5
106
330
1F
100
AcDbEntity
  8
DEFAULT_1
 62
   250
100
AcDbSpline
210
0.0
220
0.0
230
1.0
 70
    24
 71
     3
 72
     8
 73
     4
 74
     0
 42
0.0000000001
 43
0.0000000001
 40
0.0
 40
0.0
 40
0.0
 40
0.0
 40
1.0
 40
1.0
 40
1.0
 40
1.0
 10
10.7333
 20
30.4783
 30
0.0
 10
10.7333
 20
30.4783
 30
0.0
 10
10.7333
 20
30.0529
 30
0.0
 10
10.7333
 20
30.0529
 30
0.0
  0
SPLINE
  5
107
330
1F
100
AcDbEntity
  8
DEFAULT_1
 62
   250
100
AcDbSpline
210
0.0
220
0.0
230
1.0
 70
    24
 71
     3
 72
     8
 73
     4
 74
     0
 42
0.0000000001
 43
0.0000000001
 40
0.0
 40
0.0
 40
0.0
 40
0.0
 40
1.0
 40
1.0
 40
1.0
 40
1.0
 10
10.963
 20
29.9914
 30
0.0
 10
10.963
 20
29.9914
 30
0.0
 10
10.7333
 20
30.0529
 30
0.0
 10
10.7333
 20
30.0529
 30
0.0
  0
SPLINE
  5
108
330
1F
100
AcDbEntity
  8
DEFAULT_1
 62
   250
100
AcDbSpline
210
0.0
220
0.0
230
1.0
 70
    24
 71
     3
 72
     8
 73
     4
 74
     0
 42
0.0000000001
 43
0.0000000001
 40
0.0
 40
0.0
 40
0.0
 40
0.0
 40
1.0
 40
1.0
 40
1.0
 40
1.0
 10
10.7333
 20
30.7336
 30
0.0
 10
10.7333
 20
30.7336
 30
0.0
 10
10.963
 20
30.6721
 30
0.0
 10
10.963
 20
30.6721
 30
0.0
  0
SPLINE
  5
109
330
1F
100
AcDbEntity
  8
DEFAULT_1
 62
   250
100
AcDbSpline
210
0.0
220
0.0
230
1.0
 70
    24
 71
     3
 72
     8
 73
     4
 74
     0
 42
0.0000000001
 43
0.0000000001
 40
0.0
 40
0.0
 40
0.0
 40
0.0
 40
1.0
 40
1.0
 40
1.0
 40
1.0
 10
10.7333
 20
30.4783
 30
0.0
 10
10.7333
 20
30.4783
 30
0.0
 10
10.963
 20
30.54
 30
0.0
 10
10.963
 20
30.54
 30
0.0
  0
SPLINE
  5
10A
330
1F
100
AcDbEntity
  8
DEFAULT_1
 62
   250
100
AcDbSpline
210
0.0
220
0.0
230
1.0
 70
    24
 71
     3
 72
     8
 73
     4
 74
     0
 42
0.0000000001
 43
0.0000000001
 40
0.0
 40
0.0
 40
0.0
 40
0.0
 40
1.0
 40
1.0
 40
1.0
 40
1.0
 10
10.963
 20
31.2206
 30
0.0
 10
10.963
 20
31.2206
 30
0.0
 10
10.7333
 20
31.1591
 30
0.0
 10
10.7333
 20
31.1591
 30
0.0
  0
SPLINE
  5
10B
330
1F
100
AcDbEntity
  8
DEFAULT_1
 62
   250
100
AcDbSpline
210
0.0
220
0.0
230
1.0
 70
    24
 71
     3
 72
     8
 73
     4
 74
     0
 42
0.0000000001
 43
0.0000000001
 40
0.0
 40
0.0
 40
0.0
 40
0.0
 40
1.0
 40
1.0
 40
1.0
 40
1.0
 10
10.7333
 20
30.7336
 30
0.0
 10
10.7333
 20
30.7336
 30
0.0
 10
10.7333
 20
31.1591
 30
0.0
 10
10.7333
 20
31.1591
 30
0.0
  0
SPLINE
  5
10C
330
1F
100
AcDbEntity
  8
DEFAULT_1
 62
   250
100
AcDbSpline
210
0.0
220
0.0
230
1.0
 70
    24
 71
     3
 72
     8
 73
     4
 74
     0
 42
0.0000000001
 43
0.0000000001
 40
0.0
 40
0.0
 40
0.0
 40
0.0
 40
1.0
 40
1.0
 40
1.0
 40
1.0
 10
10.7333
 20
31.4144
 30
0.0
 10
10.7333
 20
31.4144
 30
0.0
 10
10.7333
 20
31.8398
 30
0.0
 10
10.7333
 20
31.8398
 30
0.0
  0
SPLINE
  5
10D
330
1F
100
AcDbEntity
  8
DEFAULT_1
 62
   250
100
AcDbSpline
210
0.0
220
0.0
230
1.0
 70
    24
 71
     3
 72
     8
 73
     4
 74
     0
 42
0.0000000001
 43
0.0000000001
 40
0.0
 40
0.0
 40
0.0
 40
0.0
 40
1.0
 40
1.0
 40
1.0
 40
1.0
 10
10.7333
 20
31.4144
 30
0.0
 10
10.7333
 20
31.4144
 30
0.0
 10
10.963
 20
31.3528
 30
0.0
 10
10.963
 20
31.3528
 30
0.0
  0
SPLINE
  5
10E
330
1F
100
AcDbEntity
  8
DEFAULT_1
 62
   250
100
AcDbSpline
210
0.0
220
0.0
230
1.0
 70
    24
 71
     3
 72
     8
 73
     4
 74
     0
 42
0.0000000001
 43
0.0000000001
 40
0.0
 40
0.0
 40
0.0
 40
0.0
 40
1.0
 40
1.0
 40
1.0
 40
1.0
 10
10.7333
 20
27.3302
 30
0.0
 10
10.7333
 20
27.3302
 30
0.0
 10
10.7333
 20
27.7556
 30
0.0
 10
10.7333
 20
27.7556
 30
0.0
  0
SPLINE
  5
10F
330
1F
100
AcDbEntity
  8
DEFAULT_1
 62
   250
100
AcDbSpline
210
0.0
220
0.0
230
1.0
 70
    24
 71
     3
 72
     8
 73
     4
 74
     0
 42
0.0000000001
 43
0.0000000001
 40
0.0
 40
0.0
 40
0.0
 40
0.0
 40
1.0
 40
1.0
 40
1.0
 40
1.0
 10
10.963
 20
27.2686
 30
0.0
 10
10.963
 20
27.2686
 30
0.0
 10
10.963
 20
27.1365
 30
0.0
 10
10.963
 20
27.1365
 30
0.0
  0
SPLINE
  5
110
330
1F
100
AcDbEntity
  8
DEFAULT_1
 62
   250
100
AcDbSpline
210
0.0
220
0.0
230
1.0
 70
    24
 71
     3
 72
     8
 73
     4
 74
     0
 42
0.0000000001
 43
0.0000000001
 40
0.0
 40
0.0
 40
0.0
 40
0.0
 40
1.0
 40
1.0
 40
1.0
 40
1.0
 10
10.963
 20
26.4557
 30
0.0
 10
10.963
 20
26.4557
 30
0.0
 10
10.963
 20
26.5879
 30
0.0
 10
10.963
 20
26.5879
 30
0.0
  0
SPLINE
  5
111
330
1F
100
AcDbEntity
  8
DEFAULT_1
 62
   250
100
AcDbSpline
210
0.0
220
0.0
230
1.0
 70
    24
 71
     3
 72
     8
 73
     4
 74
     0
 42
0.0000000001
 43
0.0000000001
 40
0.0
 40
0.0
 40
0.0
 40
0.0
 40
1.0
 40
1.0
 40
1.0
 40
1.0
 10
10.7333
 20
26.6495
 30
0.0
 10
10.7333
 20
26.6495
 30
0.0
 10
10.7333
 20
27.0749
 30
0.0
 10
10.7333
 20
27.0749
 30
0.0
  0
SPLINE
  5
112
330
1F
100
AcDbEntity
  8
DEFAULT_1
 62
   250
100
AcDbSpline
210
0.0
220
0.0
230
1.0
 70
    24
 71
     3
 72
     8
 73
     4
 74
     0
 42
0.0000000001
 43
0.0000000001
 40
0.0
 40
0.0
 40
0.0
 40
0.0
 40
1.0
 40
1.0
 40
1.0
 40
1.0
 10
10.7333
 20
25.9688
 30
0.0
 10
10.7333
 20
25.9688
 30
0.0
 10
10.7333
 20
26.3942
 30
0.0
 10
10.7333
 20
26.3942
 30
0.0
  0
SPLINE
  5
113
330
1F
100
AcDbEntity
  8
DEFAULT_1
 62
   250
100
AcDbSpline
210
0.0
220
0.0
230
1.0
 70
    24
 71
     3
 72
     8
 73
     4
 74
     0
 42
0.0000000001
 43
0.0000000001
 40
0.0
 40
0.0
 40
0.0
 40
0.0
 40
1.0
 40
1.0
 40
1.0
 40
1.0
 10
10.963
 20
25.7751
 30
0.0
 10
10.963
 20
25.7751
 30
0.0
 10
10.963
 20
25.9073
 30
0.0
 10
10.963
 20
25.9073
 30
0.0
  0
SPLINE
  5
114
330
1F
100
AcDbEntity
  8
DEFAULT_1
 62
   250
100
AcDbSpline
210
0.0
220
0.0
230
1.0
 70
    24
 71
     3
 72
     8
 73
     4
 74
     0
 42
0.0000000001
 43
0.0000000001
 40
0.0
 40
0.0
 40
0.0
 40
0.0
 40
1.0
 40
1.0
 40
1.0
 40
1.0
 10
10.7333
 20
25.2881
 30
0.0
 10
10.7333
 20
25.2881
 30
0.0
 10
10.7333
 20
25.7135
 30
0.0
 10
10.7333
 20
25.7135
 30
0.0
  0
SPLINE
  5
115
330
1F
100
AcDbEntity
  8
DEFAULT_1
 62
   250
100
AcDbSpline
210
0.0
220
0.0
230
1.0
 70
    24
 71
     3
 72
     8
 73
     4
 74
     0
 42
0.0000000001
 43
0.0000000001
 40
0.0
 40
0.0
 40
0.0
 40
0.0
 40
1.0
 40
1.0
 40
1.0
 40
1.0
 10
10.963
 20
25.0944
 30
0.0
 10
10.963
 20
25.0944
 30
0.0
 10
10.963
 20
25.2265
 30
0.0
 10
10.963
 20
25.2265
 30
0.0
  0
SPLINE
  5
116
330
1F
100
AcDbEntity
  8
DEFAULT_1
 62
   250
100
AcDbSpline
210
0.0
220
0.0
230
1.0
 70
    24
 71
     3
 72
     8
 73
     4
 74
     0
 42
0.0000000001
 43
0.0000000001
 40
0.0
 40
0.0
 40
0.0
 40
0.0
 40
1.0
 40
1.0
 40
1.0
 40
1.0
 10
10.7333
 20
24.6074
 30
0.0
 10
10.7333
 20
24.6074
 30
0.0
 10
10.7333
 20
25.0328
 30
0.0
 10
10.7333
 20
25.0328
 30
0.0
  0
SPLINE
  5
117
330
1F
100
AcDbEntity
  8
DEFAULT_1
 62
   250
100
AcDbSpline
210
0.0
220
0.0
230
1.0
 70
    24
 71
     3
 72
     8
 73
     4
 74
     0
 42
0.0000000001
 43
0.0000000001
 40
0.0
 40
0.0
 40
0.0
 40
0.0
 40
1.0
 40
1.0
 40
1.0
 40
1.0
 10
10.963
 20
24.4137
 30
0.0
 10
10.963
 20
24.4137
 30
0.0
 10
10.963
 20
24.5459
 30
0.0
 10
10.963
 20
24.5459
 30
0.0
  0
SPLINE
  5
118
330
1F
100
AcDbEntity
  8
DEFAULT_1
 62
   250
100
AcDbSpline
210
0.0
220
0.0
230
1.0
 70
    24
 71
     3
 72
     8
 73
     4
 74
     0
 42
0.0000000001
 43
0.0000000001
 40
0.0
 40
0.0
 40
0.0
 40
0.0
 40
1.0
 40
1.0
 40
1.0
 40
1.0
 10
10.7333
 20
23.9268
 30
0.0
 10
10.7333
 20
23.9268
 30
0.0
 10
10.7333
 20
24.3522
 30
0.0
 10
10.7333
 20
24.3522
 30
0.0
  0
SPLINE
  5
119
330
1F
100
AcDbEntity
  8
DEFAULT_1
 62
   250
100
AcDbSpline
210
0.0
220
0.0
230
1.0
 70
    24
 71
     3
 72
     8
 73
     4
 74
     0
 42
0.0000000001
 43
0.0000000001
 40
0.0
 40
0.0
 40
0.0
 40
0.0
 40
1.0
 40
1.0
 40
1.0
 40
1.0
 10
10.963
 20
23.733
 30
0.0
 10
10.963
 20
23.733
 30
0.0
 10
10.963
 20
23.8651
 30
0.0
 10
10.963
 20
23.8651
 30
0.0
  0
SPLINE
  5
11A
330
1F
100
AcDbEntity
  8
DEFAULT_1
 62
   250
100
AcDbSpline
210
0.0
220
0.0
230
1.0
 70
    24
 71
     3
 72
     8
 73
     4
 74
     0
 42
0.0000000001
 43
0.0000000001
 40
0.0
 40
0.0
 40
0.0
 40
0.0
 40
1.0
 40
1.0
 40
1.0
 40
1.0
 10
10.7333
 20
23.246
 30
0.0
 10
10.7333
 20
23.246
 30
0.0
 10
10.7333
 20
23.6714
 30
0.0
 10
10.7333
 20
23.6714
 30
0.0
  0
SPLINE
  5
11B
330
1F
100
AcDbEntity
  8
DEFAULT_1
 62
   250
100
AcDbSpline
210
0.0
220
0.0
230
1.0
 70
    24
 71
     3
 72
     8
 73
     4
 74
     0
 42
0.0000000001
 43
0.0000000001
 40
0.0
 40
0.0
 40
0.0
 40
0.0
 40
1.0
 40
1.0
 40
1.0
 40
1.0
 10
10.963
 20
23.0523
 30
0.0
 10
10.963
 20
23.0523
 30
0.0
 10
10.963
 20
23.1845
 30
0.0
 10
10.963
 20
23.1845
 30
0.0
  0
SPLINE
  5
11C
330
1F
100
AcDbEntity
  8
DEFAULT_1
 62
   250
100
AcDbSpline
210
0.0
220
0.0
230
1.0
 70
    24
 71
     3
 72
     8
 73
     4
 74
     0
 42
0.0000000001
 43
0.0000000001
 40
0.0
 40
0.0
 40
0.0
 40
0.0
 40
1.0
 40
1.0
 40
1.0
 40
1.0
 10
10.7333
 20
22.5653
 30
0.0
 10
10.7333
 20
22.5653
 30
0.0
 10
10.7333
 20
22.9908
 30
0.0
 10
10.7333
 20
22.9908
 30
0.0
  0
SPLINE
  5
11D
330
1F
100
AcDbEntity
  8
DEFAULT_1
 62
   250
100
AcDbSpline
210
0.0
220
0.0
230
1.0
 70
    24
 71
     3
 72
     8
 73
     4
 74
     0
 42
0.0000000001
 43
0.0000000001
 40
0.0
 40
0.0
 40
0.0
 40
0.0
 40
1.0
 40
1.0
 40
1.0
 40
1.0
 10
10.963
 20
22.3716
 30
0.0
 10
10.963
 20
22.3716
 30
0.0
 10
10.963
 20
22.5037
 30
0.0
 10
10.963
 20
22.5037
 30
0.0
  0
SPLINE
  5
11E
330
1F
100
AcDbEntity
  8
DEFAULT_1
 62
   250
100
AcDbSpline
210
0.0
220
0.0
230
1.0
 70
    24
 71
     3
 72
     8
 73
     4
 74
     0
 42
0.0000000001
 43
0.0000000001
 40
0.0
 40
0.0
 40
0.0
 40
0.0
 40
1.0
 40
1.0
 40
1.0
 40
1.0
 10
10.7333
 20
21.8846
 30
0.0
 10
10.7333
 20
21.8846
 30
0.0
 10
10.7333
 20
22.31
 30
0.0
 10
10.7333
 20
22.31
 30
0.0
  0
SPLINE
  5
11F
330
1F
100
AcDbEntity
  8
DEFAULT_1
 62
   250
100
AcDbSpline
210
0.0
220
0.0
230
1.0
 70
    24
 71
     3
 72
     8
 73
     4
 74
     0
 42
0.0000000001
 43
0.0000000001
 40
0.0
 40
0.0
 40
0.0
 40
0.0
 40
1.0
 40
1.0
 40
1.0
 40
1.0
 10
10.963
 20
21.6909
 30
0.0
 10
10.963
 20
21.6909
 30
0.0
 10
10.963
 20
21.8231
 30
0.0
 10
10.963
 20
21.8231
 30
0.0
  0
SPLINE
  5
120
330
1F
100
AcDbEntity
  8
DEFAULT_1
 62
   250
100
AcDbSpline
210
0.0
220
0.0
230
1.0
 70
    24
 71
     3
 72
     8
 73
     4
 74
     0
 42
0.0000000001
 43
0.0000000001
 40
0.0
 40
0.0
 40
0.0
 40
0.0
 40
1.0
 40
1.0
 40
1.0
 40
1.0
 10
10.7333
 20
21.2039
 30
0.0
 10
10.7333
 20
21.2039
 30
0.0
 10
10.7333
 20
21.6294
 30
0.0
 10
10.7333
 20
21.6294
 30
0.0
  0
SPLINE
  5
121
330
1F
100
AcDbEntity
  8
DEFAULT_1
 62
   250
100
AcDbSpline
210
0.0
220
0.0
230
1.0
 70
    24
 71
     3
 72
     8
 73
     4
 74
     0
 42
0.0000000001
 43
0.0000000001
 40
0.0
 40
0.0
 40
0.0
 40
0.0
 40
1.0
 40
1.0
 40
1.0
 40
1.0
 10
10.963
 20
19.6488
 30
0.0
 10
10.963
 20
19.6488
 30
0.0
 10
10.963
 20
19.781
 30
0.0
 10
10.963
 20
19.781
 30
0.0
  0
SPLINE
  5
122
330
1F
100
AcDbEntity
  8
DEFAULT_1
 62
   250
100
AcDbSpline
210
0.0
220
0.0
230
1.0
 70
    24
 71
     3
 72
     8
 73
     4
 74
     0
 42
0.0000000001
 43
0.0000000001
 40
0.0
 40
0.0
 40
0.0
 40
0.0
 40
1.0
 40
1.0
 40
1.0
 40
1.0
 10
-6.4542
 20
31.8398
 30
0.0
 10
-6.4542
 20
31.8398
 30
0.0
 10
-6.6839
 20
31.9013
 30
0.0
 10
-6.6839
 20
31.9013
 30
0.0
  0
SPLINE
  5
123
330
1F
100
AcDbEntity
  8
DEFAULT_1
 62
   250
100
AcDbSpline
210
0.0
220
0.0
230
1.0
 70
    24
 71
     3
 72
     8
 73
     4
 74
     0
 42
0.0000000001
 43
0.0000000001
 40
0.0
 40
0.0
 40
0.0
 40
0.0
 40
1.0
 40
1.0
 40
1.0
 40
1.0
 10
-6.6839
 20
31.2206
 30
0.0
 10
-6.6839
 20
31.2206
 30
0.0
 10
-6.6839
 20
31.3528
 30
0.0
 10
-6.6839
 20
31.3528
 30
0.0
  0
SPLINE
  5
124
330
1F
100
AcDbEntity
  8
DEFAULT_1
 62
   250
100
AcDbSpline
210
0.0
220
0.0
230
1.0
 70
    24
 71
     3
 72
     8
 73
     4
 74
     0
 42
0.0000000001
 43
0.0000000001
 40
0.0
 40
0.0
 40
0.0
 40
0.0
 40
1.0
 40
1.0
 40
1.0
 40
1.0
 10
-6.4542
 20
31.8398
 30
0.0
 10
-6.4542
 20
31.8398
 30
0.0
 10
-6.4542
 20
31.4144
 30
0.0
 10
-6.4542
 20
31.4144
 30
0.0
  0
SPLINE
  5
125
330
1F
100
AcDbEntity
  8
DEFAULT_1
 62
   250
100
AcDbSpline
210
0.0
220
0.0
230
1.0
 70
    24
 71
     3
 72
     8
 73
     4
 74
     0
 42
0.0000000001
 43
0.0000000001
 40
0.0
 40
0.0
 40
0.0
 40
0.0
 40
1.0
 40
1.0
 40
1.0
 40
1.0
 10
-6.4542
 20
30.7336
 30
0.0
 10
-6.4542
 20
30.7336
 30
0.0
 10
-6.4542
 20
31.1591
 30
0.0
 10
-6.4542
 20
31.1591
 30
0.0
  0
SPLINE
  5
126
330
1F
100
AcDbEntity
  8
DEFAULT_1
 62
   250
100
AcDbSpline
210
0.0
220
0.0
230
1.0
 70
    24
 71
     3
 72
     8
 73
     4
 74
     0
 42
0.0000000001
 43
0.0000000001
 40
0.0
 40
0.0
 40
0.0
 40
0.0
 40
1.0
 40
1.0
 40
1.0
 40
1.0
 10
-6.6839
 20
31.3528
 30
0.0
 10
-6.6839
 20
31.3528
 30
0.0
 10
-6.4542
 20
31.4144
 30
0.0
 10
-6.4542
 20
31.4144
 30
0.0
  0
SPLINE
  5
127
330
1F
100
AcDbEntity
  8
DEFAULT_1
 62
   250
100
AcDbSpline
210
0.0
220
0.0
230
1.0
 70
    24
 71
     3
 72
     8
 73
     4
 74
     0
 42
0.0000000001
 43
0.0000000001
 40
0.0
 40
0.0
 40
0.0
 40
0.0
 40
1.0
 40
1.0
 40
1.0
 40
1.0
 10
-6.6839
 20
31.2206
 30
0.0
 10
-6.6839
 20
31.2206
 30
0.0
 10
-6.4542
 20
31.1591
 30
0.0
 10
-6.4542
 20
31.1591
 30
0.0
  0
SPLINE
  5
128
330
1F
100
AcDbEntity
  8
DEFAULT_1
 62
   250
100
AcDbSpline
210
0.0
220
0.0
230
1.0
 70
    24
 71
     3
 72
     8
 73
     4
 74
     0
 42
0.0000000001
 43
0.0000000001
 40
0.0
 40
0.0
 40
0.0
 40
0.0
 40
1.0
 40
1.0
 40
1.0
 40
1.0
 10
-6.6839
 20
30.54
 30
0.0
 10
-6.6839
 20
30.54
 30
0.0
 10
-6.4542
 20
30.4783
 30
0.0
 10
-6.4542
 20
30.4783
 30
0.0
  0
SPLINE
  5
129
330
1F
100
AcDbEntity
  8
DEFAULT_1
 62
   250
100
AcDbSpline
210
0.0
220
0.0
230
1.0
 70
    24
 71
     3
 72
     8
 73
     4
 74
     0
 42
0.0000000001
 43
0.0000000001
 40
0.0
 40
0.0
 40
0.0
 40
0.0
 40
1.0
 40
1.0
 40
1.0
 40
1.0
 10
-6.6839
 20
29.8593
 30
0.0
 10
-6.6839
 20
29.8593
 30
0.0
 10
-6.4542
 20
29.7977
 30
0.0
 10
-6.4542
 20
29.7977
 30
0.0
  0
SPLINE
  5
12A
330
1F
100
AcDbEntity
  8
DEFAULT_1
 62
   250
100
AcDbSpline
210
0.0
220
0.0
230
1.0
 70
    24
 71
     3
 72
     8
 73
     4
 74
     0
 42
0.0000000001
 43
0.0000000001
 40
0.0
 40
0.0
 40
0.0
 40
0.0
 40
1.0
 40
1.0
 40
1.0
 40
1.0
 10
-6.6839
 20
29.1786
 30
0.0
 10
-6.6839
 20
29.1786
 30
0.0
 10
-6.4542
 20
29.117
 30
0.0
 10
-6.4542
 20
29.117
 30
0.0
  0
SPLINE
  5
12B
330
1F
100
AcDbEntity
  8
DEFAULT_1
 62
   250
100
AcDbSpline
210
0.0
220
0.0
230
1.0
 70
    24
 71
     3
 72
     8
 73
     4
 74
     0
 42
0.0000000001
 43
0.0000000001
 40
0.0
 40
0.0
 40
0.0
 40
0.0
 40
1.0
 40
1.0
 40
1.0
 40
1.0
 10
-6.6839
 20
28.4978
 30
0.0
 10
-6.6839
 20
28.4978
 30
0.0
 10
-6.4542
 20
28.4363
 30
0.0
 10
-6.4542
 20
28.4363
 30
0.0
  0
SPLINE
  5
12C
330
1F
100
AcDbEntity
  8
DEFAULT_1
 62
   250
100
AcDbSpline
210
0.0
220
0.0
230
1.0
 70
    24
 71
     3
 72
     8
 73
     4
 74
     0
 42
0.0000000001
 43
0.0000000001
 40
0.0
 40
0.0
 40
0.0
 40
0.0
 40
1.0
 40
1.0
 40
1.0
 40
1.0
 10
-6.6839
 20
27.8172
 30
0.0
 10
-6.6839
 20
27.8172
 30
0.0
 10
-6.4542
 20
27.7556
 30
0.0
 10
-6.4542
 20
27.7556
 30
0.0
  0
SPLINE
  5
12D
330
1F
100
AcDbEntity
  8
DEFAULT_1
 62
   250
100
AcDbSpline
210
0.0
220
0.0
230
1.0
 70
    24
 71
     3
 72
     8
 73
     4
 74
     0
 42
0.0000000001
 43
0.0000000001
 40
0.0
 40
0.0
 40
0.0
 40
0.0
 40
1.0
 40
1.0
 40
1.0
 40
1.0
 10
-6.6839
 20
27.1365
 30
0.0
 10
-6.6839
 20
27.1365
 30
0.0
 10
-6.4542
 20
27.0749
 30
0.0
 10
-6.4542
 20
27.0749
 30
0.0
  0
SPLINE
  5
12E
330
1F
100
AcDbEntity
  8
DEFAULT_1
 62
   250
100
AcDbSpline
210
0.0
220
0.0
230
1.0
 70
    24
 71
     3
 72
     8
 73
     4
 74
     0
 42
0.0000000001
 43
0.0000000001
 40
0.0
 40
0.0
 40
0.0
 40
0.0
 40
1.0
 40
1.0
 40
1.0
 40
1.0
 10
-6.6839
 20
26.4557
 30
0.0
 10
-6.6839
 20
26.4557
 30
0.0
 10
-6.4542
 20
26.3942
 30
0.0
 10
-6.4542
 20
26.3942
 30
0.0
  0
SPLINE
  5
12F
330
1F
100
AcDbEntity
  8
DEFAULT_1
 62
   250
100
AcDbSpline
210
0.0
220
0.0
230
1.0
 70
    24
 71
     3
 72
     8
 73
     4
 74
     0
 42
0.0000000001
 43
0.0000000001
 40
0.0
 40
0.0
 40
0.0
 40
0.0
 40
1.0
 40
1.0
 40
1.0
 40
1.0
 10
-6.6839
 20
25.7751
 30
0.0
 10
-6.6839
 20
25.7751
 30
0.0
 10
-6.4542
 20
25.7135
 30
0.0
 10
-6.4542
 20
25.7135
 30
0.0
  0
SPLINE
  5
130
330
1F
100
AcDbEntity
  8
DEFAULT_1
 62
   250
100
AcDbSpline
210
0.0
220
0.0
230
1.0
 70
    24
 71
     3
 72
     8
 73
     4
 74
     0
 42
0.0000000001
 43
0.0000000001
 40
0.0
 40
0.0
 40
0.0
 40
0.0
 40
1.0
 40
1.0
 40
1.0
 40
1.0
 10
-6.6839
 20
25.0944
 30
0.0
 10
-6.6839
 20
25.0944
 30
0.0
 10
-6.4542
 20
25.0328
 30
0.0
 10
-6.4542
 20
25.0328
 30
0.0
  0
SPLINE
  5
131
330
1F
100
AcDbEntity
  8
DEFAULT_1
 62
   250
100
AcDbSpline
210
0.0
220
0.0
230
1.0
 70
    24
 71
     3
 72
     8
 73
     4
 74
     0
 42
0.0000000001
 43
0.0000000001
 40
0.0
 40
0.0
 40
0.0
 40
0.0
 40
1.0
 40
1.0
 40
1.0
 40
1.0
 10
-6.6839
 20
24.4137
 30
0.0
 10
-6.6839
 20
24.4137
 30
0.0
 10
-6.4542
 20
24.3522
 30
0.0
 10
-6.4542
 20
24.3522
 30
0.0
  0
SPLINE
  5
132
330
1F
100
AcDbEntity
  8
DEFAULT_1
 62
   250
100
AcDbSpline
210
0.0
220
0.0
230
1.0
 70
    24
 71
     3
 72
     8
 73
     4
 74
     0
 42
0.0000000001
 43
0.0000000001
 40
0.0
 40
0.0
 40
0.0
 40
0.0
 40
1.0
 40
1.0
 40
1.0
 40
1.0
 10
-6.6839
 20
23.733
 30
0.0
 10
-6.6839
 20
23.733
 30
0.0
 10
-6.4542
 20
23.6714
 30
0.0
 10
-6.4542
 20
23.6714
 30
0.0
  0
SPLINE
  5
133
330
1F
100
AcDbEntity
  8
DEFAULT_1
 62
   250
100
AcDbSpline
210
0.0
220
0.0
230
1.0
 70
    24
 71
     3
 72
     8
 73
     4
 74
     0
 42
0.0000000001
 43
0.0000000001
 40
0.0
 40
0.0
 40
0.0
 40
0.0
 40
1.0
 40
1.0
 40
1.0
 40
1.0
 10
-6.6839
 20
23.0523
 30
0.0
 10
-6.6839
 20
23.0523
 30
0.0
 10
-6.4542
 20
22.9908
 30
0.0
 10
-6.4542
 20
22.9908
 30
0.0
  0
SPLINE
  5
134
330
1F
100
AcDbEntity
  8
DEFAULT_1
 62
   250
100
AcDbSpline
210
0.0
220
0.0
230
1.0
 70
    24
 71
     3
 72
     8
 73
     4
 74
     0
 42
0.0000000001
 43
0.0000000001
 40
0.0
 40
0.0
 40
0.0
 40
0.0
 40
1.0
 40
1.0
 40
1.0
 40
1.0
 10
-6.6839
 20
22.3716
 30
0.0
 10
-6.6839
 20
22.3716
 30
0.0
 10
-6.4542
 20
22.31
 30
0.0
 10
-6.4542
 20
22.31
 30
0.0
  0
SPLINE
  5
135
330
1F
100
AcDbEntity
  8
DEFAULT_1
 62
   250
100
AcDbSpline
210
0.0
220
0.0
230
1.0
 70
    24
 71
     3
 72
     8
 73
     4
 74
     0
 42
0.0000000001
 43
0.0000000001
 40
0.0
 40
0.0
 40
0.0
 40
0.0
 40
1.0
 40
1.0
 40
1.0
 40
1.0
 10
-6.6839
 20
21.6909
 30
0.0
 10
-6.6839
 20
21.6909
 30
0.0
 10
-6.4542
 20
21.6294
 30
0.0
 10
-6.4542
 20
21.6294
 30
0.0
  0
SPLINE
  5
136
330
1F
100
AcDbEntity
  8
DEFAULT_1
 62
   250
100
AcDbSpline
210
0.0
220
0.0
230
1.0
 70
    24
 71
     3
 72
     8
 73
     4
 74
     0
 42
0.0000000001
 43
0.0000000001
 40
0.0
 40
0.0
 40
0.0
 40
0.0
 40
1.0
 40
1.0
 40
1.0
 40
1.0
 10
-6.6839
 20
21.0103
 30
0.0
 10
-6.6839
 20
21.0103
 30
0.0
 10
-6.4542
 20
20.9486
 30
0.0
 10
-6.4542
 20
20.9486
 30
0.0
  0
SPLINE
  5
137
330
1F
100
AcDbEntity
  8
DEFAULT_1
 62
   250
100
AcDbSpline
210
0.0
220
0.0
230
1.0
 70
    24
 71
     3
 72
     8
 73
     4
 74
     0
 42
0.0000000001
 43
0.0000000001
 40
0.0
 40
0.0
 40
0.0
 40
0.0
 40
1.0
 40
1.0
 40
1.0
 40
1.0
 10
-6.6839
 20
20.3295
 30
0.0
 10
-6.6839
 20
20.3295
 30
0.0
 10
-6.4542
 20
20.2679
 30
0.0
 10
-6.4542
 20
20.2679
 30
0.0
  0
SPLINE
  5
138
330
1F
100
AcDbEntity
  8
DEFAULT_1
 62
   250
100
AcDbSpline
210
0.0
220
0.0
230
1.0
 70
    24
 71
     3
 72
     8
 73
     4
 74
     0
 42
0.0000000001
 43
0.0000000001
 40
0.0
 40
0.0
 40
0.0
 40
0.0
 40
1.0
 40
1.0
 40
1.0
 40
1.0
 10
-6.6839
 20
19.6488
 30
0.0
 10
-6.6839
 20
19.6488
 30
0.0
 10
-6.4542
 20
19.5873
 30
0.0
 10
-6.4542
 20
19.5873
 30
0.0
  0
SPLINE
  5
139
330
1F
100
AcDbEntity
  8
DEFAULT_1
 62
   250
100
AcDbSpline
210
0.0
220
0.0
230
1.0
 70
    24
 71
     3
 72
     8
 73
     4
 74
     0
 42
0.0000000001
 43
0.0000000001
 40
0.0
 40
0.0
 40
0.0
 40
0.0
 40
1.0
 40
1.0
 40
1.0
 40
1.0
 10
-6.4542
 20
19.8425
 30
0.0
 10
-6.4542
 20
19.8425
 30
0.0
 10
-6.6839
 20
19.781
 30
0.0
 10
-6.6839
 20
19.781
 30
0.0
  0
SPLINE
  5
13A
330
1F
100
AcDbEntity
  8
DEFAULT_1
 62
   250
100
AcDbSpline
210
0.0
220
0.0
230
1.0
 70
    24
 71
     3
 72
     8
 73
     4
 74
     0
 42
0.0000000001
 43
0.0000000001
 40
0.0
 40
0.0
 40
0.0
 40
0.0
 40
1.0
 40
1.0
 40
1.0
 40
1.0
 10
-6.4542
 20
19.8425
 30
0.0
 10
-6.4542
 20
19.8425
 30
0.0
 10
-6.4542
 20
20.2679
 30
0.0
 10
-6.4542
 20
20.2679
 30
0.0
  0
SPLINE
  5
13B
330
1F
100
AcDbEntity
  8
DEFAULT_1
 62
   250
100
AcDbSpline
210
0.0
220
0.0
230
1.0
 70
    24
 71
     3
 72
     8
 73
     4
 74
     0
 42
0.0000000001
 43
0.0000000001
 40
0.0
 40
0.0
 40
0.0
 40
0.0
 40
1.0
 40
1.0
 40
1.0
 40
1.0
 10
-6.4542
 20
20.9486
 30
0.0
 10
-6.4542
 20
20.9486
 30
0.0
 10
-6.4542
 20
20.5232
 30
0.0
 10
-6.4542
 20
20.5232
 30
0.0
  0
SPLINE
  5
13C
330
1F
100
AcDbEntity
  8
DEFAULT_1
 62
   250
100
AcDbSpline
210
0.0
220
0.0
230
1.0
 70
    24
 71
     3
 72
     8
 73
     4
 74
     0
 42
0.0000000001
 43
0.0000000001
 40
0.0
 40
0.0
 40
0.0
 40
0.0
 40
1.0
 40
1.0
 40
1.0
 40
1.0
 10
-6.6839
 20
20.3295
 30
0.0
 10
-6.6839
 20
20.3295
 30
0.0
 10
-6.6839
 20
20.4616
 30
0.0
 10
-6.6839
 20
20.4616
 30
0.0
  0
SPLINE
  5
13D
330
1F
100
AcDbEntity
  8
DEFAULT_1
 62
   250
100
AcDbSpline
210
0.0
220
0.0
230
1.0
 70
    24
 71
     3
 72
     8
 73
     4
 74
     0
 42
0.0000000001
 43
0.0000000001
 40
0.0
 40
0.0
 40
0.0
 40
0.0
 40
1.0
 40
1.0
 40
1.0
 40
1.0
 10
-6.6839
 20
21.1424
 30
0.0
 10
-6.6839
 20
21.1424
 30
0.0
 10
-6.6839
 20
21.0103
 30
0.0
 10
-6.6839
 20
21.0103
 30
0.0
  0
SPLINE
  5
13E
330
1F
100
AcDbEntity
  8
DEFAULT_1
 62
   250
100
AcDbSpline
210
0.0
220
0.0
230
1.0
 70
    24
 71
     3
 72
     8
 73
     4
 74
     0
 42
0.0000000001
 43
0.0000000001
 40
0.0
 40
0.0
 40
0.0
 40
0.0
 40
1.0
 40
1.0
 40
1.0
 40
1.0
 10
-6.4542
 20
20.5232
 30
0.0
 10
-6.4542
 20
20.5232
 30
0.0
 10
-6.6839
 20
20.4616
 30
0.0
 10
-6.6839
 20
20.4616
 30
0.0
  0
SPLINE
  5
13F
330
1F
100
AcDbEntity
  8
DEFAULT_1
 62
   250
100
AcDbSpline
210
0.0
220
0.0
230
1.0
 70
    24
 71
     3
 72
     8
 73
     4
 74
     0
 42
0.0000000001
 43
0.0000000001
 40
0.0
 40
0.0
 40
0.0
 40
0.0
 40
1.0
 40
1.0
 40
1.0
 40
1.0
 10
-6.4542
 20
21.2039
 30
0.0
 10
-6.4542
 20
21.2039
 30
0.0
 10
-6.6839
 20
21.1424
 30
0.0
 10
-6.6839
 20
21.1424
 30
0.0
  0
SPLINE
  5
140
330
1F
100
AcDbEntity
  8
DEFAULT_1
 62
   250
100
AcDbSpline
210
0.0
220
0.0
230
1.0
 70
    24
 71
     3
 72
     8
 73
     4
 74
     0
 42
0.0000000001
 43
0.0000000001
 40
0.0
 40
0.0
 40
0.0
 40
0.0
 40
1.0
 40
1.0
 40
1.0
 40
1.0
 10
-6.4542
 20
21.2039
 30
0.0
 10
-6.4542
 20
21.2039
 30
0.0
 10
-6.4542
 20
21.6294
 30
0.0
 10
-6.4542
 20
21.6294
 30
0.0
  0
SPLINE
  5
141
330
1F
100
AcDbEntity
  8
DEFAULT_1
 62
   250
100
AcDbSpline
210
0.0
220
0.0
230
1.0
 70
    24
 71
     3
 72
     8
 73
     4
 74
     0
 42
0.0000000001
 43
0.0000000001
 40
0.0
 40
0.0
 40
0.0
 40
0.0
 40
1.0
 40
1.0
 40
1.0
 40
1.0
 10
-6.4542
 20
22.31
 30
0.0
 10
-6.4542
 20
22.31
 30
0.0
 10
-6.4542
 20
21.8846
 30
0.0
 10
-6.4542
 20
21.8846
 30
0.0
  0
SPLINE
  5
142
330
1F
100
AcDbEntity
  8
DEFAULT_1
 62
   250
100
AcDbSpline
210
0.0
220
0.0
230
1.0
 70
    24
 71
     3
 72
     8
 73
     4
 74
     0
 42
0.0000000001
 43
0.0000000001
 40
0.0
 40
0.0
 40
0.0
 40
0.0
 40
1.0
 40
1.0
 40
1.0
 40
1.0
 10
-6.6839
 20
21.8231
 30
0.0
 10
-6.6839
 20
21.8231
 30
0.0
 10
-6.6839
 20
21.6909
 30
0.0
 10
-6.6839
 20
21.6909
 30
0.0
  0
SPLINE
  5
143
330
1F
100
AcDbEntity
  8
DEFAULT_1
 62
   250
100
AcDbSpline
210
0.0
220
0.0
230
1.0
 70
    24
 71
     3
 72
     8
 73
     4
 74
     0
 42
0.0000000001
 43
0.0000000001
 40
0.0
 40
0.0
 40
0.0
 40
0.0
 40
1.0
 40
1.0
 40
1.0
 40
1.0
 10
-6.6839
 20
21.8231
 30
0.0
 10
-6.6839
 20
21.8231
 30
0.0
 10
-6.4542
 20
21.8846
 30
0.0
 10
-6.4542
 20
21.8846
 30
0.0
  0
SPLINE
  5
144
330
1F
100
AcDbEntity
  8
DEFAULT_1
 62
   250
100
AcDbSpline
210
0.0
220
0.0
230
1.0
 70
    24
 71
     3
 72
     8
 73
     4
 74
     0
 42
0.0000000001
 43
0.0000000001
 40
0.0
 40
0.0
 40
0.0
 40
0.0
 40
1.0
 40
1.0
 40
1.0
 40
1.0
 10
-6.6839
 20
22.5037
 30
0.0
 10
-6.6839
 20
22.5037
 30
0.0
 10
-6.4542
 20
22.5653
 30
0.0
 10
-6.4542
 20
22.5653
 30
0.0
  0
SPLINE
  5
145
330
1F
100
AcDbEntity
  8
DEFAULT_1
 62
   250
100
AcDbSpline
210
0.0
220
0.0
230
1.0
 70
    24
 71
     3
 72
     8
 73
     4
 74
     0
 42
0.0000000001
 43
0.0000000001
 40
0.0
 40
0.0
 40
0.0
 40
0.0
 40
1.0
 40
1.0
 40
1.0
 40
1.0
 10
-6.6839
 20
23.1845
 30
0.0
 10
-6.6839
 20
23.1845
 30
0.0
 10
-6.4542
 20
23.246
 30
0.0
 10
-6.4542
 20
23.246
 30
0.0
  0
SPLINE
  5
146
330
1F
100
AcDbEntity
  8
DEFAULT_1
 62
   250
100
AcDbSpline
210
0.0
220
0.0
230
1.0
 70
    24
 71
     3
 72
     8
 73
     4
 74
     0
 42
0.0000000001
 43
0.0000000001
 40
0.0
 40
0.0
 40
0.0
 40
0.0
 40
1.0
 40
1.0
 40
1.0
 40
1.0
 10
-6.6839
 20
23.8651
 30
0.0
 10
-6.6839
 20
23.8651
 30
0.0
 10
-6.4542
 20
23.9268
 30
0.0
 10
-6.4542
 20
23.9268
 30
0.0
  0
SPLINE
  5
147
330
1F
100
AcDbEntity
  8
DEFAULT_1
 62
   250
100
AcDbSpline
210
0.0
220
0.0
230
1.0
 70
    24
 71
     3
 72
     8
 73
     4
 74
     0
 42
0.0000000001
 43
0.0000000001
 40
0.0
 40
0.0
 40
0.0
 40
0.0
 40
1.0
 40
1.0
 40
1.0
 40
1.0
 10
-6.6839
 20
24.5459
 30
0.0
 10
-6.6839
 20
24.5459
 30
0.0
 10
-6.4542
 20
24.6074
 30
0.0
 10
-6.4542
 20
24.6074
 30
0.0
  0
SPLINE
  5
148
330
1F
100
AcDbEntity
  8
DEFAULT_1
 62
   250
100
AcDbSpline
210
0.0
220
0.0
230
1.0
 70
    24
 71
     3
 72
     8
 73
     4
 74
     0
 42
0.0000000001
 43
0.0000000001
 40
0.0
 40
0.0
 40
0.0
 40
0.0
 40
1.0
 40
1.0
 40
1.0
 40
1.0
 10
-6.6839
 20
25.2265
 30
0.0
 10
-6.6839
 20
25.2265
 30
0.0
 10
-6.4542
 20
25.2881
 30
0.0
 10
-6.4542
 20
25.2881
 30
0.0
  0
SPLINE
  5
149
330
1F
100
AcDbEntity
  8
DEFAULT_1
 62
   250
100
AcDbSpline
210
0.0
220
0.0
230
1.0
 70
    24
 71
     3
 72
     8
 73
     4
 74
     0
 42
0.0000000001
 43
0.0000000001
 40
0.0
 40
0.0
 40
0.0
 40
0.0
 40
1.0
 40
1.0
 40
1.0
 40
1.0
 10
-6.6839
 20
25.9073
 30
0.0
 10
-6.6839
 20
25.9073
 30
0.0
 10
-6.4542
 20
25.9688
 30
0.0
 10
-6.4542
 20
25.9688
 30
0.0
  0
SPLINE
  5
14A
330
1F
100
AcDbEntity
  8
DEFAULT_1
 62
   250
100
AcDbSpline
210
0.0
220
0.0
230
1.0
 70
    24
 71
     3
 72
     8
 73
     4
 74
     0
 42
0.0000000001
 43
0.0000000001
 40
0.0
 40
0.0
 40
0.0
 40
0.0
 40
1.0
 40
1.0
 40
1.0
 40
1.0
 10
-6.6839
 20
26.5879
 30
0.0
 10
-6.6839
 20
26.5879
 30
0.0
 10
-6.4542
 20
26.6495
 30
0.0
 10
-6.4542
 20
26.6495
 30
0.0
  0
SPLINE
  5
14B
330
1F
100
AcDbEntity
  8
DEFAULT_1
 62
   250
100
AcDbSpline
210
0.0
220
0.0
230
1.0
 70
    24
 71
     3
 72
     8
 73
     4
 74
     0
 42
0.0000000001
 43
0.0000000001
 40
0.0
 40
0.0
 40
0.0
 40
0.0
 40
1.0
 40
1.0
 40
1.0
 40
1.0
 10
-6.6839
 20
27.2686
 30
0.0
 10
-6.6839
 20
27.2686
 30
0.0
 10
-6.4542
 20
27.3302
 30
0.0
 10
-6.4542
 20
27.3302
 30
0.0
  0
SPLINE
  5
14C
330
1F
100
AcDbEntity
  8
DEFAULT_1
 62
   250
100
AcDbSpline
210
0.0
220
0.0
230
1.0
 70
    24
 71
     3
 72
     8
 73
     4
 74
     0
 42
0.0000000001
 43
0.0000000001
 40
0.0
 40
0.0
 40
0.0
 40
0.0
 40
1.0
 40
1.0
 40
1.0
 40
1.0
 10
-6.6839
 20
27.9494
 30
0.0
 10
-6.6839
 20
27.9494
 30
0.0
 10
-6.4542
 20
28.0108
 30
0.0
 10
-6.4542
 20
28.0108
 30
0.0
  0
SPLINE
  5
14D
330
1F
100
AcDbEntity
  8
DEFAULT_1
 62
   250
100
AcDbSpline
210
0.0
220
0.0
230
1.0
 70
    24
 71
     3
 72
     8
 73
     4
 74
     0
 42
0.0000000001
 43
0.0000000001
 40
0.0
 40
0.0
 40
0.0
 40
0.0
 40
1.0
 40
1.0
 40
1.0
 40
1.0
 10
-6.6839
 20
28.63
 30
0.0
 10
-6.6839
 20
28.63
 30
0.0
 10
-6.4542
 20
28.6916
 30
0.0
 10
-6.4542
 20
28.6916
 30
0.0
  0
SPLINE
  5
14E
330
1F
100
AcDbEntity
  8
DEFAULT_1
 62
   250
100
AcDbSpline
210
0.0
220
0.0
230
1.0
 70
    24
 71
     3
 72
     8
 73
     4
 74
     0
 42
0.0000000001
 43
0.0000000001
 40
0.0
 40
0.0
 40
0.0
 40
0.0
 40
1.0
 40
1.0
 40
1.0
 40
1.0
 10
-6.6839
 20
29.3107
 30
0.0
 10
-6.6839
 20
29.3107
 30
0.0
 10
-6.4542
 20
29.3723
 30
0.0
 10
-6.4542
 20
29.3723
 30
0.0
  0
SPLINE
  5
14F
330
1F
100
AcDbEntity
  8
DEFAULT_1
 62
   250
100
AcDbSpline
210
0.0
220
0.0
230
1.0
 70
    24
 71
     3
 72
     8
 73
     4
 74
     0
 42
0.0000000001
 43
0.0000000001
 40
0.0
 40
0.0
 40
0.0
 40
0.0
 40
1.0
 40
1.0
 40
1.0
 40
1.0
 10
-6.6839
 20
29.9914
 30
0.0
 10
-6.6839
 20
29.9914
 30
0.0
 10
-6.4542
 20
30.0529
 30
0.0
 10
-6.4542
 20
30.0529
 30
0.0
  0
SPLINE
  5
150
330
1F
100
AcDbEntity
  8
DEFAULT_1
 62
   250
100
AcDbSpline
210
0.0
220
0.0
230
1.0
 70
    24
 71
     3
 72
     8
 73
     4
 74
     0
 42
0.0000000001
 43
0.0000000001
 40
0.0
 40
0.0
 40
0.0
 40
0.0
 40
1.0
 40
1.0
 40
1.0
 40
1.0
 10
-6.4542
 20
30.7336
 30
0.0
 10
-6.4542
 20
30.7336
 30
0.0
 10
-6.6839
 20
30.6721
 30
0.0
 10
-6.6839
 20
30.6721
 30
0.0
  0
SPLINE
  5
151
330
1F
100
AcDbEntity
  8
DEFAULT_1
 62
   250
100
AcDbSpline
210
0.0
220
0.0
230
1.0
 70
    24
 71
     3
 72
     8
 73
     4
 74
     0
 42
0.0000000001
 43
0.0000000001
 40
0.0
 40
0.0
 40
0.0
 40
0.0
 40
1.0
 40
1.0
 40
1.0
 40
1.0
 10
-6.4542
 20
30.4783
 30
0.0
 10
-6.4542
 20
30.4783
 30
0.0
 10
-6.4542
 20
30.0529
 30
0.0
 10
-6.4542
 20
30.0529
 30
0.0
  0
SPLINE
  5
152
330
1F
100
AcDbEntity
  8
DEFAULT_1
 62
   250
100
AcDbSpline
210
0.0
220
0.0
230
1.0
 70
    24
 71
     3
 72
     8
 73
     4
 74
     0
 42
0.0000000001
 43
0.0000000001
 40
0.0
 40
0.0
 40
0.0
 40
0.0
 40
1.0
 40
1.0
 40
1.0
 40
1.0
 10
-6.4542
 20
29.3723
 30
0.0
 10
-6.4542
 20
29.3723
 30
0.0
 10
-6.4542
 20
29.7977
 30
0.0
 10
-6.4542
 20
29.7977
 30
0.0
  0
SPLINE
  5
153
330
1F
100
AcDbEntity
  8
DEFAULT_1
 62
   250
100
AcDbSpline
210
0.0
220
0.0
230
1.0
 70
    24
 71
     3
 72
     8
 73
     4
 74
     0
 42
0.0000000001
 43
0.0000000001
 40
0.0
 40
0.0
 40
0.0
 40
0.0
 40
1.0
 40
1.0
 40
1.0
 40
1.0
 10
-6.6839
 20
29.9914
 30
0.0
 10
-6.6839
 20
29.9914
 30
0.0
 10
-6.6839
 20
29.8593
 30
0.0
 10
-6.6839
 20
29.8593
 30
0.0
  0
SPLINE
  5
154
330
1F
100
AcDbEntity
  8
DEFAULT_1
 62
   250
100
AcDbSpline
210
0.0
220
0.0
230
1.0
 70
    24
 71
     3
 72
     8
 73
     4
 74
     0
 42
0.0000000001
 43
0.0000000001
 40
0.0
 40
0.0
 40
0.0
 40
0.0
 40
1.0
 40
1.0
 40
1.0
 40
1.0
 10
-6.6839
 20
29.1786
 30
0.0
 10
-6.6839
 20
29.1786
 30
0.0
 10
-6.6839
 20
29.3107
 30
0.0
 10
-6.6839
 20
29.3107
 30
0.0
  0
SPLINE
  5
155
330
1F
100
AcDbEntity
  8
DEFAULT_1
 62
   250
100
AcDbSpline
210
0.0
220
0.0
230
1.0
 70
    24
 71
     3
 72
     8
 73
     4
 74
     0
 42
0.0000000001
 43
0.0000000001
 40
0.0
 40
0.0
 40
0.0
 40
0.0
 40
1.0
 40
1.0
 40
1.0
 40
1.0
 10
-6.4542
 20
28.6916
 30
0.0
 10
-6.4542
 20
28.6916
 30
0.0
 10
-6.4542
 20
29.117
 30
0.0
 10
-6.4542
 20
29.117
 30
0.0
  0
SPLINE
  5
156
330
1F
100
AcDbEntity
  8
DEFAULT_1
 62
   250
100
AcDbSpline
210
0.0
220
0.0
230
1.0
 70
    24
 71
     3
 72
     8
 73
     4
 74
     0
 42
0.0000000001
 43
0.0000000001
 40
0.0
 40
0.0
 40
0.0
 40
0.0
 40
1.0
 40
1.0
 40
1.0
 40
1.0
 10
-6.6839
 20
28.4978
 30
0.0
 10
-6.6839
 20
28.4978
 30
0.0
 10
-6.6839
 20
28.63
 30
0.0
 10
-6.6839
 20
28.63
 30
0.0
  0
SPLINE
  5
157
330
1F
100
AcDbEntity
  8
DEFAULT_1
 62
   250
100
AcDbSpline
210
0.0
220
0.0
230
1.0
 70
    24
 71
     3
 72
     8
 73
     4
 74
     0
 42
0.0000000001
 43
0.0000000001
 40
0.0
 40
0.0
 40
0.0
 40
0.0
 40
1.0
 40
1.0
 40
1.0
 40
1.0
 10
-6.4542
 20
28.0108
 30
0.0
 10
-6.4542
 20
28.0108
 30
0.0
 10
-6.4542
 20
28.4363
 30
0.0
 10
-6.4542
 20
28.4363
 30
0.0
  0
SPLINE
  5
158
330
1F
100
AcDbEntity
  8
DEFAULT_1
 62
   250
100
AcDbSpline
210
0.0
220
0.0
230
1.0
 70
    24
 71
     3
 72
     8
 73
     4
 74
     0
 42
0.0000000001
 43
0.0000000001
 40
0.0
 40
0.0
 40
0.0
 40
0.0
 40
1.0
 40
1.0
 40
1.0
 40
1.0
 10
-6.6839
 20
27.8172
 30
0.0
 10
-6.6839
 20
27.8172
 30
0.0
 10
-6.6839
 20
27.9494
 30
0.0
 10
-6.6839
 20
27.9494
 30
0.0
  0
SPLINE
  5
159
330
1F
100
AcDbEntity
  8
DEFAULT_1
 62
   250
100
AcDbSpline
210
0.0
220
0.0
230
1.0
 70
    24
 71
     3
 72
     8
 73
     4
 74
     0
 42
0.0000000001
 43
0.0000000001
 40
0.0
 40
0.0
 40
0.0
 40
0.0
 40
1.0
 40
1.0
 40
1.0
 40
1.0
 10
-6.4542
 20
27.3302
 30
0.0
 10
-6.4542
 20
27.3302
 30
0.0
 10
-6.4542
 20
27.7556
 30
0.0
 10
-6.4542
 20
27.7556
 30
0.0
  0
SPLINE
  5
15A
330
1F
100
AcDbEntity
  8
DEFAULT_1
 62
   250
100
AcDbSpline
210
0.0
220
0.0
230
1.0
 70
    24
 71
     3
 72
     8
 73
     4
 74
     0
 42
0.0000000001
 43
0.0000000001
 40
0.0
 40
0.0
 40
0.0
 40
0.0
 40
1.0
 40
1.0
 40
1.0
 40
1.0
 10
-6.6839
 20
27.1365
 30
0.0
 10
-6.6839
 20
27.1365
 30
0.0
 10
-6.6839
 20
27.2686
 30
0.0
 10
-6.6839
 20
27.2686
 30
0.0
  0
SPLINE
  5
15B
330
1F
100
AcDbEntity
  8
DEFAULT_1
 62
   250
100
AcDbSpline
210
0.0
220
0.0
230
1.0
 70
    24
 71
     3
 72
     8
 73
     4
 74
     0
 42
0.0000000001
 43
0.0000000001
 40
0.0
 40
0.0
 40
0.0
 40
0.0
 40
1.0
 40
1.0
 40
1.0
 40
1.0
 10
-6.4542
 20
26.6495
 30
0.0
 10
-6.4542
 20
26.6495
 30
0.0
 10
-6.4542
 20
27.0749
 30
0.0
 10
-6.4542
 20
27.0749
 30
0.0
  0
SPLINE
  5
15C
330
1F
100
AcDbEntity
  8
DEFAULT_1
 62
   250
100
AcDbSpline
210
0.0
220
0.0
230
1.0
 70
    24
 71
     3
 72
     8
 73
     4
 74
     0
 42
0.0000000001
 43
0.0000000001
 40
0.0
 40
0.0
 40
0.0
 40
0.0
 40
1.0
 40
1.0
 40
1.0
 40
1.0
 10
-6.6839
 20
26.4557
 30
0.0
 10
-6.6839
 20
26.4557
 30
0.0
 10
-6.6839
 20
26.5879
 30
0.0
 10
-6.6839
 20
26.5879
 30
0.0
  0
SPLINE
  5
15D
330
1F
100
AcDbEntity
  8
DEFAULT_1
 62
   250
100
AcDbSpline
210
0.0
220
0.0
230
1.0
 70
    24
 71
     3
 72
     8
 73
     4
 74
     0
 42
0.0000000001
 43
0.0000000001
 40
0.0
 40
0.0
 40
0.0
 40
0.0
 40
1.0
 40
1.0
 40
1.0
 40
1.0
 10
-6.4542
 20
25.9688
 30
0.0
 10
-6.4542
 20
25.9688
 30
0.0
 10
-6.4542
 20
26.3942
 30
0.0
 10
-6.4542
 20
26.3942
 30
0.0
  0
SPLINE
  5
15E
330
1F
100
AcDbEntity
  8
DEFAULT_1
 62
   250
100
AcDbSpline
210
0.0
220
0.0
230
1.0
 70
    24
 71
     3
 72
     8
 73
     4
 74
     0
 42
0.0000000001
 43
0.0000000001
 40
0.0
 40
0.0
 40
0.0
 40
0.0
 40
1.0
 40
1.0
 40
1.0
 40
1.0
 10
-6.6839
 20
25.7751
 30
0.0
 10
-6.6839
 20
25.7751
 30
0.0
 10
-6.6839
 20
25.9073
 30
0.0
 10
-6.6839
 20
25.9073
 30
0.0
  0
SPLINE
  5
15F
330
1F
100
AcDbEntity
  8
DEFAULT_1
 62
   250
100
AcDbSpline
210
0.0
220
0.0
230
1.0
 70
    24
 71
     3
 72
     8
 73
     4
 74
     0
 42
0.0000000001
 43
0.0000000001
 40
0.0
 40
0.0
 40
0.0
 40
0.0
 40
1.0
 40
1.0
 40
1.0
 40
1.0
 10
-6.4542
 20
25.2881
 30
0.0
 10
-6.4542
 20
25.2881
 30
0.0
 10
-6.4542
 20
25.7135
 30
0.0
 10
-6.4542
 20
25.7135
 30
0.0
  0
SPLINE
  5
160
330
1F
100
AcDbEntity
  8
DEFAULT_1
 62
   250
100
AcDbSpline
210
0.0
220
0.0
230
1.0
 70
    24
 71
     3
 72
     8
 73
     4
 74
     0
 42
0.0000000001
 43
0.0000000001
 40
0.0
 40
0.0
 40
0.0
 40
0.0
 40
1.0
 40
1.0
 40
1.0
 40
1.0
 10
-6.6839
 20
25.0944
 30
0.0
 10
-6.6839
 20
25.0944
 30
0.0
 10
-6.6839
 20
25.2265
 30
0.0
 10
-6.6839
 20
25.2265
 30
0.0
  0
SPLINE
  5
161
330
1F
100
AcDbEntity
  8
DEFAULT_1
 62
   250
100
AcDbSpline
210
0.0
220
0.0
230
1.0
 70
    24
 71
     3
 72
     8
 73
     4
 74
     0
 42
0.0000000001
 43
0.0000000001
 40
0.0
 40
0.0
 40
0.0
 40
0.0
 40
1.0
 40
1.0
 40
1.0
 40
1.0
 10
-6.4542
 20
24.6074
 30
0.0
 10
-6.4542
 20
24.6074
 30
0.0
 10
-6.4542
 20
25.0328
 30
0.0
 10
-6.4542
 20
25.0328
 30
0.0
  0
SPLINE
  5
162
330
1F
100
AcDbEntity
  8
DEFAULT_1
 62
   250
100
AcDbSpline
210
0.0
220
0.0
230
1.0
 70
    24
 71
     3
 72
     8
 73
     4
 74
     0
 42
0.0000000001
 43
0.0000000001
 40
0.0
 40
0.0
 40
0.0
 40
0.0
 40
1.0
 40
1.0
 40
1.0
 40
1.0
 10
-6.6839
 20
24.4137
 30
0.0
 10
-6.6839
 20
24.4137
 30
0.0
 10
-6.6839
 20
24.5459
 30
0.0
 10
-6.6839
 20
24.5459
 30
0.0
  0
SPLINE
  5
163
330
1F
100
AcDbEntity
  8
DEFAULT_1
 62
   250
100
AcDbSpline
210
0.0
220
0.0
230
1.0
 70
    24
 71
     3
 72
     8
 73
     4
 74
     0
 42
0.0000000001
 43
0.0000000001
 40
0.0
 40
0.0
 40
0.0
 40
0.0
 40
1.0
 40
1.0
 40
1.0
 40
1.0
 10
-6.4542
 20
23.9268
 30
0.0
 10
-6.4542
 20
23.9268
 30
0.0
 10
-6.4542
 20
24.3522
 30
0.0
 10
-6.4542
 20
24.3522
 30
0.0
  0
SPLINE
  5
164
330
1F
100
AcDbEntity
  8
DEFAULT_1
 62
   250
100
AcDbSpline
210
0.0
220
0.0
230
1.0
 70
    24
 71
     3
 72
     8
 73
     4
 74
     0
 42
0.0000000001
 43
0.0000000001
 40
0.0
 40
0.0
 40
0.0
 40
0.0
 40
1.0
 40
1.0
 40
1.0
 40
1.0
 10
-6.6839
 20
23.733
 30
0.0
 10
-6.6839
 20
23.733
 30
0.0
 10
-6.6839
 20
23.8651
 30
0.0
 10
-6.6839
 20
23.8651
 30
0.0
  0
SPLINE
  5
165
330
1F
100
AcDbEntity
  8
DEFAULT_1
 62
   250
100
AcDbSpline
210
0.0
220
0.0
230
1.0
 70
    24
 71
     3
 72
     8
 73
     4
 74
     0
 42
0.0000000001
 43
0.0000000001
 40
0.0
 40
0.0
 40
0.0
 40
0.0
 40
1.0
 40
1.0
 40
1.0
 40
1.0
 10
-6.4542
 20
23.246
 30
0.0
 10
-6.4542
 20
23.246
 30
0.0
 10
-6.4542
 20
23.6714
 30
0.0
 10
-6.4542
 20
23.6714
 30
0.0
  0
SPLINE
  5
166
330
1F
100
AcDbEntity
  8
DEFAULT_1
 62
   250
100
AcDbSpline
210
0.0
220
0.0
230
1.0
 70
    24
 71
     3
 72
     8
 73
     4
 74
     0
 42
0.0000000001
 43
0.0000000001
 40
0.0
 40
0.0
 40
0.0
 40
0.0
 40
1.0
 40
1.0
 40
1.0
 40
1.0
 10
-6.6839
 20
23.0523
 30
0.0
 10
-6.6839
 20
23.0523
 30
0.0
 10
-6.6839
 20
23.1845
 30
0.0
 10
-6.6839
 20
23.1845
 30
0.0
  0
SPLINE
  5
167
330
1F
100
AcDbEntity
  8
DEFAULT_1
 62
   250
100
AcDbSpline
210
0.0
220
0.0
230
1.0
 70
    24
 71
     3
 72
     8
 73
     4
 74
     0
 42
0.0000000001
 43
0.0000000001
 40
0.0
 40
0.0
 40
0.0
 40
0.0
 40
1.0
 40
1.0
 40
1.0
 40
1.0
 10
-6.4542
 20
22.5653
 30
0.0
 10
-6.4542
 20
22.5653
 30
0.0
 10
-6.4542
 20
22.9908
 30
0.0
 10
-6.4542
 20
22.9908
 30
0.0
  0
SPLINE
  5
168
330
1F
100
AcDbEntity
  8
DEFAULT_1
 62
   250
100
AcDbSpline
210
0.0
220
0.0
230
1.0
 70
    24
 71
     3
 72
     8
 73
     4
 74
     0
 42
0.0000000001
 43
0.0000000001
 40
0.0
 40
0.0
 40
0.0
 40
0.0
 40
1.0
 40
1.0
 40
1.0
 40
1.0
 10
-6.6839
 20
22.3716
 30
0.0
 10
-6.6839
 20
22.3716
 30
0.0
 10
-6.6839
 20
22.5037
 30
0.0
 10
-6.6839
 20
22.5037
 30
0.0
  0
SPLINE
  5
169
330
1F
100
AcDbEntity
  8
DEFAULT_1
 62
   250
100
AcDbSpline
210
0.0
220
0.0
230
1.0
 70
    24
 71
     3
 72
     8
 73
     4
 74
     0
 42
0.0000000001
 43
0.0000000001
 40
0.0
 40
0.0
 40
0.0
 40
0.0
 40
1.0
 40
1.0
 40
1.0
 40
1.0
 10
-6.6839
 20
30.6721
 30
0.0
 10
-6.6839
 20
30.6721
 30
0.0
 10
-6.6839
 20
30.54
 30
0.0
 10
-6.6839
 20
30.54
 30
0.0
  0
SPLINE
  5
16A
330
1F
100
AcDbEntity
  8
DEFAULT_1
 62
   250
100
AcDbSpline
210
0.0
220
0.0
230
1.0
 70
    24
 71
     3
 72
     8
 73
     4
 74
     0
 42
0.0000000001
 43
0.0000000001
 40
0.0
 40
0.0
 40
0.0
 40
0.0
 40
1.0
 40
1.0
 40
1.0
 40
1.0
 10
-6.6839
 20
19.781
 30
0.0
 10
-6.6839
 20
19.781
 30
0.0
 10
-6.6839
 20
19.6488
 30
0.0
 10
-6.6839
 20
19.6488
 30
0.0
  0
SPLINE
  5
16B
330
1F
100
AcDbEntity
  8
DEFAULT_1
 62
   250
100
AcDbSpline
210
0.0
220
0.0
230
1.0
 70
    24
 71
     3
 72
     8
 73
     4
 74
     0
 42
0.0000000001
 43
0.0000000001
 40
0.0
 40
0.0
 40
0.0
 40
0.0
 40
1.0
 40
1.0
 40
1.0
 40
1.0
 10
-6.6839
 20
31.3528
 30
0.0
 10
-6.6839
 20
31.3528
 30
0.0
 10
1.9257
 20
31.3528
 30
0.0
 10
1.9257
 20
31.3528
 30
0.0
  0
SPLINE
  5
16C
330
1F
100
AcDbEntity
  8
DEFAULT_1
 62
   250
100
AcDbSpline
210
0.0
220
0.0
230
1.0
 70
    24
 71
     3
 72
     8
 73
     4
 74
     0
 42
0.0000000001
 43
0.0000000001
 40
0.0
 40
0.0
 40
0.0
 40
0.0
 40
1.0
 40
1.0
 40
1.0
 40
1.0
 10
-6.6839
 20
31.9013
 30
0.0
 10
-6.6839
 20
31.9013
 30
0.0
 10
10.963
 20
31.9013
 30
0.0
 10
10.963
 20
31.9013
 30
0.0
  0
SPLINE
  5
16D
330
1F
100
AcDbEntity
  8
DEFAULT_1
 62
   250
100
AcDbSpline
210
0.0
220
0.0
230
1.0
 70
    24
 71
     3
 72
     8
 73
     4
 74
     0
 42
0.0000000001
 43
0.0000000001
 40
0.0
 40
0.0
 40
0.0
 40
0.0
 40
1.0
 40
1.0
 40
1.0
 40
1.0
 10
2.3535
 20
31.3528
 30
0.0
 10
2.3535
 20
31.3528
 30
0.0
 10
10.963
 20
31.3528
 30
0.0
 10
10.963
 20
31.3528
 30
0.0
  0
SPLINE
  5
16E
330
1F
100
AcDbEntity
  8
DEFAULT_1
 62
   250
100
AcDbSpline
210
0.0
220
0.0
230
1.0
 70
    24
 71
     3
 72
     8
 73
     4
 74
     0
 42
0.0000000001
 43
0.0000000001
 40
0.0
 40
0.0
 40
0.0
 40
0.0
 40
1.0
 40
1.0
 40
1.0
 40
1.0
 10
2.3523
 20
30.7336
 30
0.0
 10
2.3523
 20
30.7336
 30
0.0
 10
10.7333
 20
30.7336
 30
0.0
 10
10.7333
 20
30.7336
 30
0.0
  0
SPLINE
  5
16F
330
1F
100
AcDbEntity
  8
DEFAULT_1
 62
   250
100
AcDbSpline
210
0.0
220
0.0
230
1.0
 70
    24
 71
     3
 72
     8
 73
     4
 74
     0
 42
0.0000000001
 43
0.0000000001
 40
0.0
 40
0.0
 40
0.0
 40
0.0
 40
1.0
 40
1.0
 40
1.0
 40
1.0
 10
2.3535
 20
30.6721
 30
0.0
 10
2.3535
 20
30.6721
 30
0.0
 10
10.963
 20
30.6721
 30
0.0
 10
10.963
 20
30.6721
 30
0.0
  0
SPLINE
  5
170
330
1F
100
AcDbEntity
  8
DEFAULT_1
 62
   250
100
AcDbSpline
210
0.0
220
0.0
230
1.0
 70
    24
 71
     3
 72
     8
 73
     4
 74
     0
 42
0.0000000001
 43
0.0000000001
 40
0.0
 40
0.0
 40
0.0
 40
0.0
 40
1.0
 40
1.0
 40
1.0
 40
1.0
 10
2.3535
 20
31.2206
 30
0.0
 10
2.3535
 20
31.2206
 30
0.0
 10
10.963
 20
31.2206
 30
0.0
 10
10.963
 20
31.2206
 30
0.0
  0
SPLINE
  5
171
330
1F
100
AcDbEntity
  8
DEFAULT_1
 62
   250
100
AcDbSpline
210
0.0
220
0.0
230
1.0
 70
    24
 71
     3
 72
     8
 73
     4
 74
     0
 42
0.0000000001
 43
0.0000000001
 40
0.0
 40
0.0
 40
0.0
 40
0.0
 40
1.0
 40
1.0
 40
1.0
 40
1.0
 10
2.3523
 20
31.1591
 30
0.0
 10
2.3523
 20
31.1591
 30
0.0
 10
10.7333
 20
31.1591
 30
0.0
 10
10.7333
 20
31.1591
 30
0.0
  0
SPLINE
  5
172
330
1F
100
AcDbEntity
  8
DEFAULT_1
 62
   250
100
AcDbSpline
210
0.0
220
0.0
230
1.0
 70
    24
 71
     3
 72
     8
 73
     4
 74
     0
 42
0.0000000001
 43
0.0000000001
 40
0.0
 40
0.0
 40
0.0
 40
0.0
 40
1.0
 40
1.0
 40
1.0
 40
1.0
 10
2.3535
 20
30.54
 30
0.0
 10
2.3535
 20
30.54
 30
0.0
 10
10.963
 20
30.54
 30
0.0
 10
10.963
 20
30.54
 30
0.0
  0
SPLINE
  5
173
330
1F
100
AcDbEntity
  8
DEFAULT_1
 62
   250
100
AcDbSpline
210
0.0
220
0.0
230
1.0
 70
    24
 71
     3
 72
     8
 73
     4
 74
     0
 42
0.0000000001
 43
0.0000000001
 40
0.0
 40
0.0
 40
0.0
 40
0.0
 40
1.0
 40
1.0
 40
1.0
 40
1.0
 10
2.3535
 20
29.9914
 30
0.0
 10
2.3535
 20
29.9914
 30
0.0
 10
10.963
 20
29.9914
 30
0.0
 10
10.963
 20
29.9914
 30
0.0
  0
SPLINE
  5
174
330
1F
100
AcDbEntity
  8
DEFAULT_1
 62
   250
100
AcDbSpline
210
0.0
220
0.0
230
1.0
 70
    24
 71
     3
 72
     8
 73
     4
 74
     0
 42
0.0000000001
 43
0.0000000001
 40
0.0
 40
0.0
 40
0.0
 40
0.0
 40
1.0
 40
1.0
 40
1.0
 40
1.0
 10
2.3535
 20
29.8593
 30
0.0
 10
2.3535
 20
29.8593
 30
0.0
 10
10.963
 20
29.8593
 30
0.0
 10
10.963
 20
29.8593
 30
0.0
  0
SPLINE
  5
175
330
1F
100
AcDbEntity
  8
DEFAULT_1
 62
   250
100
AcDbSpline
210
0.0
220
0.0
230
1.0
 70
    24
 71
     3
 72
     8
 73
     4
 74
     0
 42
0.0000000001
 43
0.0000000001
 40
0.0
 40
0.0
 40
0.0
 40
0.0
 40
1.0
 40
1.0
 40
1.0
 40
1.0
 10
2.3535
 20
29.3107
 30
0.0
 10
2.3535
 20
29.3107
 30
0.0
 10
10.963
 20
29.3107
 30
0.0
 10
10.963
 20
29.3107
 30
0.0
  0
SPLINE
  5
176
330
1F
100
AcDbEntity
  8
DEFAULT_1
 62
   250
100
AcDbSpline
210
0.0
220
0.0
230
1.0
 70
    24
 71
     3
 72
     8
 73
     4
 74
     0
 42
0.0000000001
 43
0.0000000001
 40
0.0
 40
0.0
 40
0.0
 40
0.0
 40
1.0
 40
1.0
 40
1.0
 40
1.0
 10
2.3535
 20
29.1786
 30
0.0
 10
2.3535
 20
29.1786
 30
0.0
 10
10.963
 20
29.1786
 30
0.0
 10
10.963
 20
29.1786
 30
0.0
  0
SPLINE
  5
177
330
1F
100
AcDbEntity
  8
DEFAULT_1
 62
   250
100
AcDbSpline
210
0.0
220
0.0
230
1.0
 70
    24
 71
     3
 72
     8
 73
     4
 74
     0
 42
0.0000000001
 43
0.0000000001
 40
0.0
 40
0.0
 40
0.0
 40
0.0
 40
1.0
 40
1.0
 40
1.0
 40
1.0
 10
2.3535
 20
28.63
 30
0.0
 10
2.3535
 20
28.63
 30
0.0
 10
10.963
 20
28.63
 30
0.0
 10
10.963
 20
28.63
 30
0.0
  0
SPLINE
  5
178
330
1F
100
AcDbEntity
  8
DEFAULT_1
 62
   250
100
AcDbSpline
210
0.0
220
0.0
230
1.0
 70
    24
 71
     3
 72
     8
 73
     4
 74
     0
 42
0.0000000001
 43
0.0000000001
 40
0.0
 40
0.0
 40
0.0
 40
0.0
 40
1.0
 40
1.0
 40
1.0
 40
1.0
 10
2.3535
 20
28.4978
 30
0.0
 10
2.3535
 20
28.4978
 30
0.0
 10
10.963
 20
28.4978
 30
0.0
 10
10.963
 20
28.4978
 30
0.0
  0
SPLINE
  5
179
330
1F
100
AcDbEntity
  8
DEFAULT_1
 62
   250
100
AcDbSpline
210
0.0
220
0.0
230
1.0
 70
    24
 71
     3
 72
     8
 73
     4
 74
     0
 42
0.0000000001
 43
0.0000000001
 40
0.0
 40
0.0
 40
0.0
 40
0.0
 40
1.0
 40
1.0
 40
1.0
 40
1.0
 10
2.3535
 20
27.9494
 30
0.0
 10
2.3535
 20
27.9494
 30
0.0
 10
10.963
 20
27.9494
 30
0.0
 10
10.963
 20
27.9494
 30
0.0
  0
SPLINE
  5
17A
330
1F
100
AcDbEntity
  8
DEFAULT_1
 62
   250
100
AcDbSpline
210
0.0
220
0.0
230
1.0
 70
    24
 71
     3
 72
     8
 73
     4
 74
     0
 42
0.0000000001
 43
0.0000000001
 40
0.0
 40
0.0
 40
0.0
 40
0.0
 40
1.0
 40
1.0
 40
1.0
 40
1.0
 10
2.3535
 20
27.8172
 30
0.0
 10
2.3535
 20
27.8172
 30
0.0
 10
10.963
 20
27.8172
 30
0.0
 10
10.963
 20
27.8172
 30
0.0
  0
SPLINE
  5
17B
330
1F
100
AcDbEntity
  8
DEFAULT_1
 62
   250
100
AcDbSpline
210
0.0
220
0.0
230
1.0
 70
    24
 71
     3
 72
     8
 73
     4
 74
     0
 42
0.0000000001
 43
0.0000000001
 40
0.0
 40
0.0
 40
0.0
 40
0.0
 40
1.0
 40
1.0
 40
1.0
 40
1.0
 10
2.3535
 20
27.2686
 30
0.0
 10
2.3535
 20
27.2686
 30
0.0
 10
10.963
 20
27.2686
 30
0.0
 10
10.963
 20
27.2686
 30
0.0
  0
SPLINE
  5
17C
330
1F
100
AcDbEntity
  8
DEFAULT_1
 62
   250
100
AcDbSpline
210
0.0
220
0.0
230
1.0
 70
    24
 71
     3
 72
     8
 73
     4
 74
     0
 42
0.0000000001
 43
0.0000000001
 40
0.0
 40
0.0
 40
0.0
 40
0.0
 40
1.0
 40
1.0
 40
1.0
 40
1.0
 10
2.3535
 20
27.1365
 30
0.0
 10
2.3535
 20
27.1365
 30
0.0
 10
10.963
 20
27.1365
 30
0.0
 10
10.963
 20
27.1365
 30
0.0
  0
SPLINE
  5
17D
330
1F
100
AcDbEntity
  8
DEFAULT_1
 62
   250
100
AcDbSpline
210
0.0
220
0.0
230
1.0
 70
    24
 71
     3
 72
     8
 73
     4
 74
     0
 42
0.0000000001
 43
0.0000000001
 40
0.0
 40
0.0
 40
0.0
 40
0.0
 40
1.0
 40
1.0
 40
1.0
 40
1.0
 10
2.3535
 20
26.5879
 30
0.0
 10
2.3535
 20
26.5879
 30
0.0
 10
10.963
 20
26.5879
 30
0.0
 10
10.963
 20
26.5879
 30
0.0
  0
SPLINE
  5
17E
330
1F
100
AcDbEntity
  8
DEFAULT_1
 62
   250
100
AcDbSpline
210
0.0
220
0.0
230
1.0
 70
    24
 71
     3
 72
     8
 73
     4
 74
     0
 42
0.0000000001
 43
0.0000000001
 40
0.0
 40
0.0
 40
0.0
 40
0.0
 40
1.0
 40
1.0
 40
1.0
 40
1.0
 10
2.3535
 20
26.4557
 30
0.0
 10
2.3535
 20
26.4557
 30
0.0
 10
10.963
 20
26.4557
 30
0.0
 10
10.963
 20
26.4557
 30
0.0
  0
SPLINE
  5
17F
330
1F
100
AcDbEntity
  8
DEFAULT_1
 62
   250
100
AcDbSpline
210
0.0
220
0.0
230
1.0
 70
    24
 71
     3
 72
     8
 73
     4
 74
     0
 42
0.0000000001
 43
0.0000000001
 40
0.0
 40
0.0
 40
0.0
 40
0.0
 40
1.0
 40
1.0
 40
1.0
 40
1.0
 10
2.3535
 20
25.9073
 30
0.0
 10
2.3535
 20
25.9073
 30
0.0
 10
10.963
 20
25.9073
 30
0.0
 10
10.963
 20
25.9073
 30
0.0
  0
SPLINE
  5
180
330
1F
100
AcDbEntity
  8
DEFAULT_1
 62
   250
100
AcDbSpline
210
0.0
220
0.0
230
1.0
 70
    24
 71
     3
 72
     8
 73
     4
 74
     0
 42
0.0000000001
 43
0.0000000001
 40
0.0
 40
0.0
 40
0.0
 40
0.0
 40
1.0
 40
1.0
 40
1.0
 40
1.0
 10
2.3535
 20
25.7751
 30
0.0
 10
2.3535
 20
25.7751
 30
0.0
 10
10.963
 20
25.7751
 30
0.0
 10
10.963
 20
25.7751
 30
0.0
  0
SPLINE
  5
181
330
1F
100
AcDbEntity
  8
DEFAULT_1
 62
   250
100
AcDbSpline
210
0.0
220
0.0
230
1.0
 70
    24
 71
     3
 72
     8
 73
     4
 74
     0
 42
0.0000000001
 43
0.0000000001
 40
0.0
 40
0.0
 40
0.0
 40
0.0
 40
1.0
 40
1.0
 40
1.0
 40
1.0
 10
2.3535
 20
25.2265
 30
0.0
 10
2.3535
 20
25.2265
 30
0.0
 10
10.963
 20
25.2265
 30
0.0
 10
10.963
 20
25.2265
 30
0.0
  0
SPLINE
  5
182
330
1F
100
AcDbEntity
  8
DEFAULT_1
 62
   250
100
AcDbSpline
210
0.0
220
0.0
230
1.0
 70
    24
 71
     3
 72
     8
 73
     4
 74
     0
 42
0.0000000001
 43
0.0000000001
 40
0.0
 40
0.0
 40
0.0
 40
0.0
 40
1.0
 40
1.0
 40
1.0
 40
1.0
 10
2.3535
 20
25.0944
 30
0.0
 10
2.3535
 20
25.0944
 30
0.0
 10
10.963
 20
25.0944
 30
0.0
 10
10.963
 20
25.0944
 30
0.0
  0
SPLINE
  5
183
330
1F
100
AcDbEntity
  8
DEFAULT_1
 62
   250
100
AcDbSpline
210
0.0
220
0.0
230
1.0
 70
    24
 71
     3
 72
     8
 73
     4
 74
     0
 42
0.0000000001
 43
0.0000000001
 40
0.0
 40
0.0
 40
0.0
 40
0.0
 40
1.0
 40
1.0
 40
1.0
 40
1.0
 10
2.3535
 20
24.5459
 30
0.0
 10
2.3535
 20
24.5459
 30
0.0
 10
10.963
 20
24.5459
 30
0.0
 10
10.963
 20
24.5459
 30
0.0
  0
SPLINE
  5
184
330
1F
100
AcDbEntity
  8
DEFAULT_1
 62
   250
100
AcDbSpline
210
0.0
220
0.0
230
1.0
 70
    24
 71
     3
 72
     8
 73
     4
 74
     0
 42
0.0000000001
 43
0.0000000001
 40
0.0
 40
0.0
 40
0.0
 40
0.0
 40
1.0
 40
1.0
 40
1.0
 40
1.0
 10
2.3535
 20
24.4137
 30
0.0
 10
2.3535
 20
24.4137
 30
0.0
 10
10.963
 20
24.4137
 30
0.0
 10
10.963
 20
24.4137
 30
0.0
  0
SPLINE
  5
185
330
1F
100
AcDbEntity
  8
DEFAULT_1
 62
   250
100
AcDbSpline
210
0.0
220
0.0
230
1.0
 70
    24
 71
     3
 72
     8
 73
     4
 74
     0
 42
0.0000000001
 43
0.0000000001
 40
0.0
 40
0.0
 40
0.0
 40
0.0
 40
1.0
 40
1.0
 40
1.0
 40
1.0
 10
2.3535
 20
23.8651
 30
0.0
 10
2.3535
 20
23.8651
 30
0.0
 10
10.963
 20
23.8651
 30
0.0
 10
10.963
 20
23.8651
 30
0.0
  0
SPLINE
  5
186
330
1F
100
AcDbEntity
  8
DEFAULT_1
 62
   250
100
AcDbSpline
210
0.0
220
0.0
230
1.0
 70
    24
 71
     3
 72
     8
 73
     4
 74
     0
 42
0.0000000001
 43
0.0000000001
 40
0.0
 40
0.0
 40
0.0
 40
0.0
 40
1.0
 40
1.0
 40
1.0
 40
1.0
 10
2.3535
 20
23.733
 30
0.0
 10
2.3535
 20
23.733
 30
0.0
 10
10.963
 20
23.733
 30
0.0
 10
10.963
 20
23.733
 30
0.0
  0
SPLINE
  5
187
330
1F
100
AcDbEntity
  8
DEFAULT_1
 62
   250
100
AcDbSpline
210
0.0
220
0.0
230
1.0
 70
    24
 71
     3
 72
     8
 73
     4
 74
     0
 42
0.0000000001
 43
0.0000000001
 40
0.0
 40
0.0
 40
0.0
 40
0.0
 40
1.0
 40
1.0
 40
1.0
 40
1.0
 10
2.3535
 20
23.1845
 30
0.0
 10
2.3535
 20
23.1845
 30
0.0
 10
10.963
 20
23.1845
 30
0.0
 10
10.963
 20
23.1845
 30
0.0
  0
SPLINE
  5
188
330
1F
100
AcDbEntity
  8
DEFAULT_1
 62
   250
100
AcDbSpline
210
0.0
220
0.0
230
1.0
 70
    24
 71
     3
 72
     8
 73
     4
 74
     0
 42
0.0000000001
 43
0.0000000001
 40
0.0
 40
0.0
 40
0.0
 40
0.0
 40
1.0
 40
1.0
 40
1.0
 40
1.0
 10
2.3535
 20
23.0523
 30
0.0
 10
2.3535
 20
23.0523
 30
0.0
 10
10.963
 20
23.0523
 30
0.0
 10
10.963
 20
23.0523
 30
0.0
  0
SPLINE
  5
189
330
1F
100
AcDbEntity
  8
DEFAULT_1
 62
   250
100
AcDbSpline
210
0.0
220
0.0
230
1.0
 70
    24
 71
     3
 72
     8
 73
     4
 74
     0
 42
0.0000000001
 43
0.0000000001
 40
0.0
 40
0.0
 40
0.0
 40
0.0
 40
1.0
 40
1.0
 40
1.0
 40
1.0
 10
2.3535
 20
22.5037
 30
0.0
 10
2.3535
 20
22.5037
 30
0.0
 10
10.963
 20
22.5037
 30
0.0
 10
10.963
 20
22.5037
 30
0.0
  0
SPLINE
  5
18A
330
1F
100
AcDbEntity
  8
DEFAULT_1
 62
   250
100
AcDbSpline
210
0.0
220
0.0
230
1.0
 70
    24
 71
     3
 72
     8
 73
     4
 74
     0
 42
0.0000000001
 43
0.0000000001
 40
0.0
 40
0.0
 40
0.0
 40
0.0
 40
1.0
 40
1.0
 40
1.0
 40
1.0
 10
2.3535
 20
22.3716
 30
0.0
 10
2.3535
 20
22.3716
 30
0.0
 10
10.963
 20
22.3716
 30
0.0
 10
10.963
 20
22.3716
 30
0.0
  0
SPLINE
  5
18B
330
1F
100
AcDbEntity
  8
DEFAULT_1
 62
   250
100
AcDbSpline
210
0.0
220
0.0
230
1.0
 70
    24
 71
     3
 72
     8
 73
     4
 74
     0
 42
0.0000000001
 43
0.0000000001
 40
0.0
 40
0.0
 40
0.0
 40
0.0
 40
1.0
 40
1.0
 40
1.0
 40
1.0
 10
2.3535
 20
21.8231
 30
0.0
 10
2.3535
 20
21.8231
 30
0.0
 10
10.963
 20
21.8231
 30
0.0
 10
10.963
 20
21.8231
 30
0.0
  0
SPLINE
  5
18C
330
1F
100
AcDbEntity
  8
DEFAULT_1
 62
   250
100
AcDbSpline
210
0.0
220
0.0
230
1.0
 70
    24
 71
     3
 72
     8
 73
     4
 74
     0
 42
0.0000000001
 43
0.0000000001
 40
0.0
 40
0.0
 40
0.0
 40
0.0
 40
1.0
 40
1.0
 40
1.0
 40
1.0
 10
2.3535
 20
21.6909
 30
0.0
 10
2.3535
 20
21.6909
 30
0.0
 10
10.963
 20
21.6909
 30
0.0
 10
10.963
 20
21.6909
 30
0.0
  0
SPLINE
  5
18D
330
1F
100
AcDbEntity
  8
DEFAULT_1
 62
   250
100
AcDbSpline
210
0.0
220
0.0
230
1.0
 70
    24
 71
     3
 72
     8
 73
     4
 74
     0
 42
0.0000000001
 43
0.0000000001
 40
0.0
 40
0.0
 40
0.0
 40
0.0
 40
1.0
 40
1.0
 40
1.0
 40
1.0
 10
2.3535
 20
21.1424
 30
0.0
 10
2.3535
 20
21.1424
 30
0.0
 10
10.963
 20
21.1424
 30
0.0
 10
10.963
 20
21.1424
 30
0.0
  0
SPLINE
  5
18E
330
1F
100
AcDbEntity
  8
DEFAULT_1
 62
   250
100
AcDbSpline
210
0.0
220
0.0
230
1.0
 70
    24
 71
     3
 72
     8
 73
     4
 74
     0
 42
0.0000000001
 43
0.0000000001
 40
0.0
 40
0.0
 40
0.0
 40
0.0
 40
1.0
 40
1.0
 40
1.0
 40
1.0
 10
2.3535
 20
21.0103
 30
0.0
 10
2.3535
 20
21.0103
 30
0.0
 10
10.963
 20
21.0103
 30
0.0
 10
10.963
 20
21.0103
 30
0.0
  0
SPLINE
  5
18F
330
1F
100
AcDbEntity
  8
DEFAULT_1
 62
   250
100
AcDbSpline
210
0.0
220
0.0
230
1.0
 70
    24
 71
     3
 72
     8
 73
     4
 74
     0
 42
0.0000000001
 43
0.0000000001
 40
0.0
 40
0.0
 40
0.0
 40
0.0
 40
1.0
 40
1.0
 40
1.0
 40
1.0
 10
2.3535
 20
20.4616
 30
0.0
 10
2.3535
 20
20.4616
 30
0.0
 10
10.963
 20
20.4616
 30
0.0
 10
10.963
 20
20.4616
 30
0.0
  0
SPLINE
  5
190
330
1F
100
AcDbEntity
  8
DEFAULT_1
 62
   250
100
AcDbSpline
210
0.0
220
0.0
230
1.0
 70
    24
 71
     3
 72
     8
 73
     4
 74
     0
 42
0.0000000001
 43
0.0000000001
 40
0.0
 40
0.0
 40
0.0
 40
0.0
 40
1.0
 40
1.0
 40
1.0
 40
1.0
 10
2.3535
 20
20.3295
 30
0.0
 10
2.3535
 20
20.3295
 30
0.0
 10
10.963
 20
20.3295
 30
0.0
 10
10.963
 20
20.3295
 30
0.0
  0
SPLINE
  5
191
330
1F
100
AcDbEntity
  8
DEFAULT_1
 62
   250
100
AcDbSpline
210
0.0
220
0.0
230
1.0
 70
    24
 71
     3
 72
     8
 73
     4
 74
     0
 42
0.0000000001
 43
0.0000000001
 40
0.0
 40
0.0
 40
0.0
 40
0.0
 40
1.0
 40
1.0
 40
1.0
 40
1.0
 10
2.3535
 20
19.781
 30
0.0
 10
2.3535
 20
19.781
 30
0.0
 10
10.963
 20
19.781
 30
0.0
 10
10.963
 20
19.781
 30
0.0
  0
SPLINE
  5
192
330
1F
100
AcDbEntity
  8
DEFAULT_1
 62
   250
100
AcDbSpline
210
0.0
220
0.0
230
1.0
 70
    24
 71
     3
 72
     8
 73
     4
 74
     0
 42
0.0000000001
 43
0.0000000001
 40
0.0
 40
0.0
 40
0.0
 40
0.0
 40
1.0
 40
1.0
 40
1.0
 40
1.0
 10
2.3535
 20
19.6488
 30
0.0
 10
2.3535
 20
19.6488
 30
0.0
 10
10.963
 20
19.6488
 30
0.0
 10
10.963
 20
19.6488
 30
0.0
  0
SPLINE
  5
193
330
1F
100
AcDbEntity
  8
DEFAULT_1
 62
   250
100
AcDbSpline
210
0.0
220
0.0
230
1.0
 70
    24
 71
     3
 72
     8
 73
     4
 74
     0
 42
0.0000000001
 43
0.0000000001
 40
0.0
 40
0.0
 40
0.0
 40
0.0
 40
1.0
 40
1.0
 40
1.0
 40
1.0
 10
10.7333
 20
20.2679
 30
0.0
 10
10.7333
 20
20.2679
 30
0.0
 10
2.3523
 20
20.2679
 30
0.0
 10
2.3523
 20
20.2679
 30
0.0
  0
SPLINE
  5
194
330
1F
100
AcDbEntity
  8
DEFAULT_1
 62
   250
100
AcDbSpline
210
0.0
220
0.0
230
1.0
 70
    24
 71
     3
 72
     8
 73
     4
 74
     0
 42
0.0000000001
 43
0.0000000001
 40
0.0
 40
0.0
 40
0.0
 40
0.0
 40
1.0
 40
1.0
 40
1.0
 40
1.0
 10
-6.4542
 20
20.5232
 30
0.0
 10
-6.4542
 20
20.5232
 30
0.0
 10
1.9269
 20
20.5232
 30
0.0
 10
1.9269
 20
20.5232
 30
0.0
  0
SPLINE
  5
195
330
1F
100
AcDbEntity
  8
DEFAULT_1
 62
   250
100
AcDbSpline
210
0.0
220
0.0
230
1.0
 70
    24
 71
     3
 72
     8
 73
     4
 74
     0
 42
0.0000000001
 43
0.0000000001
 40
0.0
 40
0.0
 40
0.0
 40
0.0
 40
1.0
 40
1.0
 40
1.0
 40
1.0
 10
-6.6839
 20
21.6909
 30
0.0
 10
-6.6839
 20
21.6909
 30
0.0
 10
1.9257
 20
21.6909
 30
0.0
 10
1.9257
 20
21.6909
 30
0.0
  0
SPLINE
  5
196
330
1F
100
AcDbEntity
  8
DEFAULT_1
 62
   250
100
AcDbSpline
210
0.0
220
0.0
230
1.0
 70
    24
 71
     3
 72
     8
 73
     4
 74
     0
 42
0.0000000001
 43
0.0000000001
 40
0.0
 40
0.0
 40
0.0
 40
0.0
 40
1.0
 40
1.0
 40
1.0
 40
1.0
 10
10.7333
 20
22.31
 30
0.0
 10
10.7333
 20
22.31
 30
0.0
 10
2.3523
 20
22.31
 30
0.0
 10
2.3523
 20
22.31
 30
0.0
  0
SPLINE
  5
197
330
1F
100
AcDbEntity
  8
DEFAULT_1
 62
   250
100
AcDbSpline
210
0.0
220
0.0
230
1.0
 70
    24
 71
     3
 72
     8
 73
     4
 74
     0
 42
0.0000000001
 43
0.0000000001
 40
0.0
 40
0.0
 40
0.0
 40
0.0
 40
1.0
 40
1.0
 40
1.0
 40
1.0
 10
1.9257
 20
21.8231
 30
0.0
 10
1.9257
 20
21.8231
 30
0.0
 10
-6.6839
 20
21.8231
 30
0.0
 10
-6.6839
 20
21.8231
 30
0.0
  0
SPLINE
  5
198
330
1F
100
AcDbEntity
  8
DEFAULT_1
 62
   250
100
AcDbSpline
210
0.0
220
0.0
230
1.0
 70
    24
 71
     3
 72
     8
 73
     4
 74
     0
 42
0.0000000001
 43
0.0000000001
 40
0.0
 40
0.0
 40
0.0
 40
0.0
 40
1.0
 40
1.0
 40
1.0
 40
1.0
 10
-6.6839
 20
22.3716
 30
0.0
 10
-6.6839
 20
22.3716
 30
0.0
 10
1.9257
 20
22.3716
 30
0.0
 10
1.9257
 20
22.3716
 30
0.0
  0
SPLINE
  5
199
330
1F
100
AcDbEntity
  8
DEFAULT_1
 62
   250
100
AcDbSpline
210
0.0
220
0.0
230
1.0
 70
    24
 71
     3
 72
     8
 73
     4
 74
     0
 42
0.0000000001
 43
0.0000000001
 40
0.0
 40
0.0
 40
0.0
 40
0.0
 40
1.0
 40
1.0
 40
1.0
 40
1.0
 10
2.3523
 20
22.9908
 30
0.0
 10
2.3523
 20
22.9908
 30
0.0
 10
10.7333
 20
22.9908
 30
0.0
 10
10.7333
 20
22.9908
 30
0.0
  0
SPLINE
  5
19A
330
1F
100
AcDbEntity
  8
DEFAULT_1
 62
   250
100
AcDbSpline
210
0.0
220
0.0
230
1.0
 70
    24
 71
     3
 72
     8
 73
     4
 74
     0
 42
0.0000000001
 43
0.0000000001
 40
0.0
 40
0.0
 40
0.0
 40
0.0
 40
1.0
 40
1.0
 40
1.0
 40
1.0
 10
2.3523
 20
23.246
 30
0.0
 10
2.3523
 20
23.246
 30
0.0
 10
10.7333
 20
23.246
 30
0.0
 10
10.7333
 20
23.246
 30
0.0
  0
SPLINE
  5
19B
330
1F
100
AcDbEntity
  8
DEFAULT_1
 62
   250
100
AcDbSpline
210
0.0
220
0.0
230
1.0
 70
    24
 71
     3
 72
     8
 73
     4
 74
     0
 42
0.0000000001
 43
0.0000000001
 40
0.0
 40
0.0
 40
0.0
 40
0.0
 40
1.0
 40
1.0
 40
1.0
 40
1.0
 10
2.3523
 20
23.6714
 30
0.0
 10
2.3523
 20
23.6714
 30
0.0
 10
10.7333
 20
23.6714
 30
0.0
 10
10.7333
 20
23.6714
 30
0.0
  0
SPLINE
  5
19C
330
1F
100
AcDbEntity
  8
DEFAULT_1
 62
   250
100
AcDbSpline
210
0.0
220
0.0
230
1.0
 70
    24
 71
     3
 72
     8
 73
     4
 74
     0
 42
0.0000000001
 43
0.0000000001
 40
0.0
 40
0.0
 40
0.0
 40
0.0
 40
1.0
 40
1.0
 40
1.0
 40
1.0
 10
2.3523
 20
23.9268
 30
0.0
 10
2.3523
 20
23.9268
 30
0.0
 10
10.7333
 20
23.9268
 30
0.0
 10
10.7333
 20
23.9268
 30
0.0
  0
SPLINE
  5
19D
330
1F
100
AcDbEntity
  8
DEFAULT_1
 62
   250
100
AcDbSpline
210
0.0
220
0.0
230
1.0
 70
    24
 71
     3
 72
     8
 73
     4
 74
     0
 42
0.0000000001
 43
0.0000000001
 40
0.0
 40
0.0
 40
0.0
 40
0.0
 40
1.0
 40
1.0
 40
1.0
 40
1.0
 10
2.3523
 20
24.3522
 30
0.0
 10
2.3523
 20
24.3522
 30
0.0
 10
10.7333
 20
24.3522
 30
0.0
 10
10.7333
 20
24.3522
 30
0.0
  0
SPLINE
  5
19E
330
1F
100
AcDbEntity
  8
DEFAULT_1
 62
   250
100
AcDbSpline
210
0.0
220
0.0
230
1.0
 70
    24
 71
     3
 72
     8
 73
     4
 74
     0
 42
0.0000000001
 43
0.0000000001
 40
0.0
 40
0.0
 40
0.0
 40
0.0
 40
1.0
 40
1.0
 40
1.0
 40
1.0
 10
2.3523
 20
24.6074
 30
0.0
 10
2.3523
 20
24.6074
 30
0.0
 10
10.7333
 20
24.6074
 30
0.0
 10
10.7333
 20
24.6074
 30
0.0
  0
SPLINE
  5
19F
330
1F
100
AcDbEntity
  8
DEFAULT_1
 62
   250
100
AcDbSpline
210
0.0
220
0.0
230
1.0
 70
    24
 71
     3
 72
     8
 73
     4
 74
     0
 42
0.0000000001
 43
0.0000000001
 40
0.0
 40
0.0
 40
0.0
 40
0.0
 40
1.0
 40
1.0
 40
1.0
 40
1.0
 10
2.3523
 20
25.0328
 30
0.0
 10
2.3523
 20
25.0328
 30
0.0
 10
10.7333
 20
25.0328
 30
0.0
 10
10.7333
 20
25.0328
 30
0.0
  0
SPLINE
  5
1A0
330
1F
100
AcDbEntity
  8
DEFAULT_1
 62
   250
100
AcDbSpline
210
0.0
220
0.0
230
1.0
 70
    24
 71
     3
 72
     8
 73
     4
 74
     0
 42
0.0000000001
 43
0.0000000001
 40
0.0
 40
0.0
 40
0.0
 40
0.0
 40
1.0
 40
1.0
 40
1.0
 40
1.0
 10
2.3523
 20
25.2881
 30
0.0
 10
2.3523
 20
25.2881
 30
0.0
 10
10.7333
 20
25.2881
 30
0.0
 10
10.7333
 20
25.2881
 30
0.0
  0
SPLINE
  5
1A1
330
1F
100
AcDbEntity
  8
DEFAULT_1
 62
   250
100
AcDbSpline
210
0.0
220
0.0
230
1.0
 70
    24
 71
     3
 72
     8
 73
     4
 74
     0
 42
0.0000000001
 43
0.0000000001
 40
0.0
 40
0.0
 40
0.0
 40
0.0
 40
1.0
 40
1.0
 40
1.0
 40
1.0
 10
2.3523
 20
25.7135
 30
0.0
 10
2.3523
 20
25.7135
 30
0.0
 10
10.7333
 20
25.7135
 30
0.0
 10
10.7333
 20
25.7135
 30
0.0
  0
SPLINE
  5
1A2
330
1F
100
AcDbEntity
  8
DEFAULT_1
 62
   250
100
AcDbSpline
210
0.0
220
0.0
230
1.0
 70
    24
 71
     3
 72
     8
 73
     4
 74
     0
 42
0.0000000001
 43
0.0000000001
 40
0.0
 40
0.0
 40
0.0
 40
0.0
 40
1.0
 40
1.0
 40
1.0
 40
1.0
 10
2.3523
 20
25.9688
 30
0.0
 10
2.3523
 20
25.9688
 30
0.0
 10
10.7333
 20
25.9688
 30
0.0
 10
10.7333
 20
25.9688
 30
0.0
  0
SPLINE
  5
1A3
330
1F
100
AcDbEntity
  8
DEFAULT_1
 62
   250
100
AcDbSpline
210
0.0
220
0.0
230
1.0
 70
    24
 71
     3
 72
     8
 73
     4
 74
     0
 42
0.0000000001
 43
0.0000000001
 40
0.0
 40
0.0
 40
0.0
 40
0.0
 40
1.0
 40
1.0
 40
1.0
 40
1.0
 10
2.3523
 20
26.3942
 30
0.0
 10
2.3523
 20
26.3942
 30
0.0
 10
10.7333
 20
26.3942
 30
0.0
 10
10.7333
 20
26.3942
 30
0.0
  0
SPLINE
  5
1A4
330
1F
100
AcDbEntity
  8
DEFAULT_1
 62
   250
100
AcDbSpline
210
0.0
220
0.0
230
1.0
 70
    24
 71
     3
 72
     8
 73
     4
 74
     0
 42
0.0000000001
 43
0.0000000001
 40
0.0
 40
0.0
 40
0.0
 40
0.0
 40
1.0
 40
1.0
 40
1.0
 40
1.0
 10
2.3523
 20
26.6495
 30
0.0
 10
2.3523
 20
26.6495
 30
0.0
 10
10.7333
 20
26.6495
 30
0.0
 10
10.7333
 20
26.6495
 30
0.0
  0
SPLINE
  5
1A5
330
1F
100
AcDbEntity
  8
DEFAULT_1
 62
   250
100
AcDbSpline
210
0.0
220
0.0
230
1.0
 70
    24
 71
     3
 72
     8
 73
     4
 74
     0
 42
0.0000000001
 43
0.0000000001
 40
0.0
 40
0.0
 40
0.0
 40
0.0
 40
1.0
 40
1.0
 40
1.0
 40
1.0
 10
2.3523
 20
27.0749
 30
0.0
 10
2.3523
 20
27.0749
 30
0.0
 10
10.7333
 20
27.0749
 30
0.0
 10
10.7333
 20
27.0749
 30
0.0
  0
SPLINE
  5
1A6
330
1F
100
AcDbEntity
  8
DEFAULT_1
 62
   250
100
AcDbSpline
210
0.0
220
0.0
230
1.0
 70
    24
 71
     3
 72
     8
 73
     4
 74
     0
 42
0.0000000001
 43
0.0000000001
 40
0.0
 40
0.0
 40
0.0
 40
0.0
 40
1.0
 40
1.0
 40
1.0
 40
1.0
 10
2.3523
 20
27.3302
 30
0.0
 10
2.3523
 20
27.3302
 30
0.0
 10
10.7333
 20
27.3302
 30
0.0
 10
10.7333
 20
27.3302
 30
0.0
  0
SPLINE
  5
1A7
330
1F
100
AcDbEntity
  8
DEFAULT_1
 62
   250
100
AcDbSpline
210
0.0
220
0.0
230
1.0
 70
    24
 71
     3
 72
     8
 73
     4
 74
     0
 42
0.0000000001
 43
0.0000000001
 40
0.0
 40
0.0
 40
0.0
 40
0.0
 40
1.0
 40
1.0
 40
1.0
 40
1.0
 10
2.3523
 20
27.7556
 30
0.0
 10
2.3523
 20
27.7556
 30
0.0
 10
10.7333
 20
27.7556
 30
0.0
 10
10.7333
 20
27.7556
 30
0.0
  0
SPLINE
  5
1A8
330
1F
100
AcDbEntity
  8
DEFAULT_1
 62
   250
100
AcDbSpline
210
0.0
220
0.0
230
1.0
 70
    24
 71
     3
 72
     8
 73
     4
 74
     0
 42
0.0000000001
 43
0.0000000001
 40
0.0
 40
0.0
 40
0.0
 40
0.0
 40
1.0
 40
1.0
 40
1.0
 40
1.0
 10
2.3523
 20
28.0108
 30
0.0
 10
2.3523
 20
28.0108
 30
0.0
 10
10.7333
 20
28.0108
 30
0.0
 10
10.7333
 20
28.0108
 30
0.0
  0
SPLINE
  5
1A9
330
1F
100
AcDbEntity
  8
DEFAULT_1
 62
   250
100
AcDbSpline
210
0.0
220
0.0
230
1.0
 70
    24
 71
     3
 72
     8
 73
     4
 74
     0
 42
0.0000000001
 43
0.0000000001
 40
0.0
 40
0.0
 40
0.0
 40
0.0
 40
1.0
 40
1.0
 40
1.0
 40
1.0
 10
2.3523
 20
28.4363
 30
0.0
 10
2.3523
 20
28.4363
 30
0.0
 10
10.7333
 20
28.4363
 30
0.0
 10
10.7333
 20
28.4363
 30
0.0
  0
SPLINE
  5
1AA
330
1F
100
AcDbEntity
  8
DEFAULT_1
 62
   250
100
AcDbSpline
210
0.0
220
0.0
230
1.0
 70
    24
 71
     3
 72
     8
 73
     4
 74
     0
 42
0.0000000001
 43
0.0000000001
 40
0.0
 40
0.0
 40
0.0
 40
0.0
 40
1.0
 40
1.0
 40
1.0
 40
1.0
 10
2.3523
 20
28.6916
 30
0.0
 10
2.3523
 20
28.6916
 30
0.0
 10
10.7333
 20
28.6916
 30
0.0
 10
10.7333
 20
28.6916
 30
0.0
  0
SPLINE
  5
1AB
330
1F
100
AcDbEntity
  8
DEFAULT_1
 62
   250
100
AcDbSpline
210
0.0
220
0.0
230
1.0
 70
    24
 71
     3
 72
     8
 73
     4
 74
     0
 42
0.0000000001
 43
0.0000000001
 40
0.0
 40
0.0
 40
0.0
 40
0.0
 40
1.0
 40
1.0
 40
1.0
 40
1.0
 10
2.3523
 20
29.117
 30
0.0
 10
2.3523
 20
29.117
 30
0.0
 10
10.7333
 20
29.117
 30
0.0
 10
10.7333
 20
29.117
 30
0.0
  0
SPLINE
  5
1AC
330
1F
100
AcDbEntity
  8
DEFAULT_1
 62
   250
100
AcDbSpline
210
0.0
220
0.0
230
1.0
 70
    24
 71
     3
 72
     8
 73
     4
 74
     0
 42
0.0000000001
 43
0.0000000001
 40
0.0
 40
0.0
 40
0.0
 40
0.0
 40
1.0
 40
1.0
 40
1.0
 40
1.0
 10
2.3523
 20
29.3723
 30
0.0
 10
2.3523
 20
29.3723
 30
0.0
 10
10.7333
 20
29.3723
 30
0.0
 10
10.7333
 20
29.3723
 30
0.0
  0
SPLINE
  5
1AD
330
1F
100
AcDbEntity
  8
DEFAULT_1
 62
   250
100
AcDbSpline
210
0.0
220
0.0
230
1.0
 70
    24
 71
     3
 72
     8
 73
     4
 74
     0
 42
0.0000000001
 43
0.0000000001
 40
0.0
 40
0.0
 40
0.0
 40
0.0
 40
1.0
 40
1.0
 40
1.0
 40
1.0
 10
2.3523
 20
29.7977
 30
0.0
 10
2.3523
 20
29.7977
 30
0.0
 10
10.7333
 20
29.7977
 30
0.0
 10
10.7333
 20
29.7977
 30
0.0
  0
SPLINE
  5
1AE
330
1F
100
AcDbEntity
  8
DEFAULT_1
 62
   250
100
AcDbSpline
210
0.0
220
0.0
230
1.0
 70
    24
 71
     3
 72
     8
 73
     4
 74
     0
 42
0.0000000001
 43
0.0000000001
 40
0.0
 40
0.0
 40
0.0
 40
0.0
 40
1.0
 40
1.0
 40
1.0
 40
1.0
 10
2.3523
 20
30.0529
 30
0.0
 10
2.3523
 20
30.0529
 30
0.0
 10
10.7333
 20
30.0529
 30
0.0
 10
10.7333
 20
30.0529
 30
0.0
  0
SPLINE
  5
1AF
330
1F
100
AcDbEntity
  8
DEFAULT_1
 62
   250
100
AcDbSpline
210
0.0
220
0.0
230
1.0
 70
    24
 71
     3
 72
     8
 73
     4
 74
     0
 42
0.0000000001
 43
0.0000000001
 40
0.0
 40
0.0
 40
0.0
 40
0.0
 40
1.0
 40
1.0
 40
1.0
 40
1.0
 10
10.7333
 20
30.4783
 30
0.0
 10
10.7333
 20
30.4783
 30
0.0
 10
2.3523
 20
30.4783
 30
0.0
 10
2.3523
 20
30.4783
 30
0.0
  0
SPLINE
  5
1B0
330
1F
100
AcDbEntity
  8
DEFAULT_1
 62
   250
100
AcDbSpline
210
0.0
220
0.0
230
1.0
 70
    24
 71
     3
 72
     8
 73
     4
 74
     0
 42
0.0000000001
 43
0.0000000001
 40
0.0
 40
0.0
 40
0.0
 40
0.0
 40
1.0
 40
1.0
 40
1.0
 40
1.0
 10
1.9269
 20
30.7336
 30
0.0
 10
1.9269
 20
30.7336
 30
0.0
 10
-6.4542
 20
30.7336
 30
0.0
 10
-6.4542
 20
30.7336
 30
0.0
  0
SPLINE
  5
1B1
330
1F
100
AcDbEntity
  8
DEFAULT_1
 62
   250
100
AcDbSpline
210
0.0
220
0.0
230
1.0
 70
    24
 71
     3
 72
     8
 73
     4
 74
     0
 42
0.0000000001
 43
0.0000000001
 40
0.0
 40
0.0
 40
0.0
 40
0.0
 40
1.0
 40
1.0
 40
1.0
 40
1.0
 10
-6.6839
 20
30.54
 30
0.0
 10
-6.6839
 20
30.54
 30
0.0
 10
1.9257
 20
30.54
 30
0.0
 10
1.9257
 20
30.54
 30
0.0
  0
SPLINE
  5
1B2
330
1F
100
AcDbEntity
  8
DEFAULT_1
 62
   250
100
AcDbSpline
210
0.0
220
0.0
230
1.0
 70
    24
 71
     3
 72
     8
 73
     4
 74
     0
 42
0.0000000001
 43
0.0000000001
 40
0.0
 40
0.0
 40
0.0
 40
0.0
 40
1.0
 40
1.0
 40
1.0
 40
1.0
 10
1.9269
 20
29.3723
 30
0.0
 10
1.9269
 20
29.3723
 30
0.0
 10
-6.4542
 20
29.3723
 30
0.0
 10
-6.4542
 20
29.3723
 30
0.0
  0
SPLINE
  5
1B3
330
1F
100
AcDbEntity
  8
DEFAULT_1
 62
   250
100
AcDbSpline
210
0.0
220
0.0
230
1.0
 70
    24
 71
     3
 72
     8
 73
     4
 74
     0
 42
0.0000000001
 43
0.0000000001
 40
0.0
 40
0.0
 40
0.0
 40
0.0
 40
1.0
 40
1.0
 40
1.0
 40
1.0
 10
-6.6839
 20
29.1786
 30
0.0
 10
-6.6839
 20
29.1786
 30
0.0
 10
1.9257
 20
29.1786
 30
0.0
 10
1.9257
 20
29.1786
 30
0.0
  0
SPLINE
  5
1B4
330
1F
100
AcDbEntity
  8
DEFAULT_1
 62
   250
100
AcDbSpline
210
0.0
220
0.0
230
1.0
 70
    24
 71
     3
 72
     8
 73
     4
 74
     0
 42
0.0000000001
 43
0.0000000001
 40
0.0
 40
0.0
 40
0.0
 40
0.0
 40
1.0
 40
1.0
 40
1.0
 40
1.0
 10
1.9257
 20
29.8593
 30
0.0
 10
1.9257
 20
29.8593
 30
0.0
 10
-6.6839
 20
29.8593
 30
0.0
 10
-6.6839
 20
29.8593
 30
0.0
  0
SPLINE
  5
1B5
330
1F
100
AcDbEntity
  8
DEFAULT_1
 62
   250
100
AcDbSpline
210
0.0
220
0.0
230
1.0
 70
    24
 71
     3
 72
     8
 73
     4
 74
     0
 42
0.0000000001
 43
0.0000000001
 40
0.0
 40
0.0
 40
0.0
 40
0.0
 40
1.0
 40
1.0
 40
1.0
 40
1.0
 10
1.9257
 20
29.9914
 30
0.0
 10
1.9257
 20
29.9914
 30
0.0
 10
-6.6839
 20
29.9914
 30
0.0
 10
-6.6839
 20
29.9914
 30
0.0
  0
SPLINE
  5
1B6
330
1F
100
AcDbEntity
  8
DEFAULT_1
 62
   250
100
AcDbSpline
210
0.0
220
0.0
230
1.0
 70
    24
 71
     3
 72
     8
 73
     4
 74
     0
 42
0.0000000001
 43
0.0000000001
 40
0.0
 40
0.0
 40
0.0
 40
0.0
 40
1.0
 40
1.0
 40
1.0
 40
1.0
 10
-6.4542
 20
29.7977
 30
0.0
 10
-6.4542
 20
29.7977
 30
0.0
 10
1.9269
 20
29.7977
 30
0.0
 10
1.9269
 20
29.7977
 30
0.0
  0
SPLINE
  5
1B7
330
1F
100
AcDbEntity
  8
DEFAULT_1
 62
   250
100
AcDbSpline
210
0.0
220
0.0
230
1.0
 70
    24
 71
     3
 72
     8
 73
     4
 74
     0
 42
0.0000000001
 43
0.0000000001
 40
0.0
 40
0.0
 40
0.0
 40
0.0
 40
1.0
 40
1.0
 40
1.0
 40
1.0
 10
-6.6839
 20
30.6721
 30
0.0
 10
-6.6839
 20
30.6721
 30
0.0
 10
1.9257
 20
30.6721
 30
0.0
 10
1.9257
 20
30.6721
 30
0.0
  0
SPLINE
  5
1B8
330
1F
100
AcDbEntity
  8
DEFAULT_1
 62
   250
100
AcDbSpline
210
0.0
220
0.0
230
1.0
 70
    24
 71
     3
 72
     8
 73
     4
 74
     0
 42
0.0000000001
 43
0.0000000001
 40
0.0
 40
0.0
 40
0.0
 40
0.0
 40
1.0
 40
1.0
 40
1.0
 40
1.0
 10
10.7333
 20
31.8398
 30
0.0
 10
10.7333
 20
31.8398
 30
0.0
 10
-6.4542
 20
31.8398
 30
0.0
 10
-6.4542
 20
31.8398
 30
0.0
  0
SPLINE
  5
1B9
330
1F
100
AcDbEntity
  8
DEFAULT_1
 62
   250
100
AcDbSpline
210
0.0
220
0.0
230
1.0
 70
    24
 71
     3
 72
     8
 73
     4
 74
     0
 42
0.0000000001
 43
0.0000000001
 40
0.0
 40
0.0
 40
0.0
 40
0.0
 40
1.0
 40
1.0
 40
1.0
 40
1.0
 10
1.9257
 20
31.2206
 30
0.0
 10
1.9257
 20
31.2206
 30
0.0
 10
-6.6839
 20
31.2206
 30
0.0
 10
-6.6839
 20
31.2206
 30
0.0
  0
SPLINE
  5
1BA
330
1F
100
AcDbEntity
  8
DEFAULT_1
 62
   250
100
AcDbSpline
210
0.0
220
0.0
230
1.0
 70
    24
 71
     3
 72
     8
 73
     4
 74
     0
 42
0.0000000001
 43
0.0000000001
 40
0.0
 40
0.0
 40
0.0
 40
0.0
 40
1.0
 40
1.0
 40
1.0
 40
1.0
 10
-6.4542
 20
31.4144
 30
0.0
 10
-6.4542
 20
31.4144
 30
0.0
 10
1.9269
 20
31.4144
 30
0.0
 10
1.9269
 20
31.4144
 30
0.0
  0
SPLINE
  5
1BB
330
1F
100
AcDbEntity
  8
DEFAULT_1
 62
   250
100
AcDbSpline
210
0.0
220
0.0
230
1.0
 70
    24
 71
     3
 72
     8
 73
     4
 74
     0
 42
0.0000000001
 43
0.0000000001
 40
0.0
 40
0.0
 40
0.0
 40
0.0
 40
1.0
 40
1.0
 40
1.0
 40
1.0
 10
2.3523
 20
31.4144
 30
0.0
 10
2.3523
 20
31.4144
 30
0.0
 10
10.7333
 20
31.4144
 30
0.0
 10
10.7333
 20
31.4144
 30
0.0
  0
SPLINE
  5
1BC
330
1F
100
AcDbEntity
  8
DEFAULT_1
 62
   250
100
AcDbSpline
210
0.0
220
0.0
230
1.0
 70
    24
 71
     3
 72
     8
 73
     4
 74
     0
 42
0.0000000001
 43
0.0000000001
 40
0.0
 40
0.0
 40
0.0
 40
0.0
 40
1.0
 40
1.0
 40
1.0
 40
1.0
 10
1.9269
 20
30.0529
 30
0.0
 10
1.9269
 20
30.0529
 30
0.0
 10
-6.4542
 20
30.0529
 30
0.0
 10
-6.4542
 20
30.0529
 30
0.0
  0
SPLINE
  5
1BD
330
1F
100
AcDbEntity
  8
DEFAULT_1
 62
   250
100
AcDbSpline
210
0.0
220
0.0
230
1.0
 70
    24
 71
     3
 72
     8
 73
     4
 74
     0
 42
0.0000000001
 43
0.0000000001
 40
0.0
 40
0.0
 40
0.0
 40
0.0
 40
1.0
 40
1.0
 40
1.0
 40
1.0
 10
1.9269
 20
30.4783
 30
0.0
 10
1.9269
 20
30.4783
 30
0.0
 10
-6.4542
 20
30.4783
 30
0.0
 10
-6.4542
 20
30.4783
 30
0.0
  0
SPLINE
  5
1BE
330
1F
100
AcDbEntity
  8
DEFAULT_1
 62
   250
100
AcDbSpline
210
0.0
220
0.0
230
1.0
 70
    24
 71
     3
 72
     8
 73
     4
 74
     0
 42
0.0000000001
 43
0.0000000001
 40
0.0
 40
0.0
 40
0.0
 40
0.0
 40
1.0
 40
1.0
 40
1.0
 40
1.0
 10
1.9269
 20
31.1591
 30
0.0
 10
1.9269
 20
31.1591
 30
0.0
 10
-6.4542
 20
31.1591
 30
0.0
 10
-6.4542
 20
31.1591
 30
0.0
  0
SPLINE
  5
1BF
330
1F
100
AcDbEntity
  8
DEFAULT_1
 62
   250
100
AcDbSpline
210
0.0
220
0.0
230
1.0
 70
    24
 71
     3
 72
     8
 73
     4
 74
     0
 42
0.0000000001
 43
0.0000000001
 40
0.0
 40
0.0
 40
0.0
 40
0.0
 40
1.0
 40
1.0
 40
1.0
 40
1.0
 10
-6.6839
 20
29.3107
 30
0.0
 10
-6.6839
 20
29.3107
 30
0.0
 10
1.9257
 20
29.3107
 30
0.0
 10
1.9257
 20
29.3107
 30
0.0
  0
SPLINE
  5
1C0
330
1F
100
AcDbEntity
  8
DEFAULT_1
 62
   250
100
AcDbSpline
210
0.0
220
0.0
230
1.0
 70
    24
 71
     3
 72
     8
 73
     4
 74
     0
 42
0.0000000001
 43
0.0000000001
 40
0.0
 40
0.0
 40
0.0
 40
0.0
 40
1.0
 40
1.0
 40
1.0
 40
1.0
 10
1.9257
 20
27.2686
 30
0.0
 10
1.9257
 20
27.2686
 30
0.0
 10
-6.6839
 20
27.2686
 30
0.0
 10
-6.6839
 20
27.2686
 30
0.0
  0
SPLINE
  5
1C1
330
1F
100
AcDbEntity
  8
DEFAULT_1
 62
   250
100
AcDbSpline
210
0.0
220
0.0
230
1.0
 70
    24
 71
     3
 72
     8
 73
     4
 74
     0
 42
0.0000000001
 43
0.0000000001
 40
0.0
 40
0.0
 40
0.0
 40
0.0
 40
1.0
 40
1.0
 40
1.0
 40
1.0
 10
-6.6839
 20
27.1365
 30
0.0
 10
-6.6839
 20
27.1365
 30
0.0
 10
1.9257
 20
27.1365
 30
0.0
 10
1.9257
 20
27.1365
 30
0.0
  0
SPLINE
  5
1C2
330
1F
100
AcDbEntity
  8
DEFAULT_1
 62
   250
100
AcDbSpline
210
0.0
220
0.0
230
1.0
 70
    24
 71
     3
 72
     8
 73
     4
 74
     0
 42
0.0000000001
 43
0.0000000001
 40
0.0
 40
0.0
 40
0.0
 40
0.0
 40
1.0
 40
1.0
 40
1.0
 40
1.0
 10
1.9257
 20
27.9494
 30
0.0
 10
1.9257
 20
27.9494
 30
0.0
 10
-6.6839
 20
27.9494
 30
0.0
 10
-6.6839
 20
27.9494
 30
0.0
  0
SPLINE
  5
1C3
330
1F
100
AcDbEntity
  8
DEFAULT_1
 62
   250
100
AcDbSpline
210
0.0
220
0.0
230
1.0
 70
    24
 71
     3
 72
     8
 73
     4
 74
     0
 42
0.0000000001
 43
0.0000000001
 40
0.0
 40
0.0
 40
0.0
 40
0.0
 40
1.0
 40
1.0
 40
1.0
 40
1.0
 10
-6.6839
 20
28.4978
 30
0.0
 10
-6.6839
 20
28.4978
 30
0.0
 10
1.9257
 20
28.4978
 30
0.0
 10
1.9257
 20
28.4978
 30
0.0
  0
SPLINE
  5
1C4
330
1F
100
AcDbEntity
  8
DEFAULT_1
 62
   250
100
AcDbSpline
210
0.0
220
0.0
230
1.0
 70
    24
 71
     3
 72
     8
 73
     4
 74
     0
 42
0.0000000001
 43
0.0000000001
 40
0.0
 40
0.0
 40
0.0
 40
0.0
 40
1.0
 40
1.0
 40
1.0
 40
1.0
 10
-6.4542
 20
28.4363
 30
0.0
 10
-6.4542
 20
28.4363
 30
0.0
 10
1.9269
 20
28.4363
 30
0.0
 10
1.9269
 20
28.4363
 30
0.0
  0
SPLINE
  5
1C5
330
1F
100
AcDbEntity
  8
DEFAULT_1
 62
   250
100
AcDbSpline
210
0.0
220
0.0
230
1.0
 70
    24
 71
     3
 72
     8
 73
     4
 74
     0
 42
0.0000000001
 43
0.0000000001
 40
0.0
 40
0.0
 40
0.0
 40
0.0
 40
1.0
 40
1.0
 40
1.0
 40
1.0
 10
-6.6839
 20
27.8172
 30
0.0
 10
-6.6839
 20
27.8172
 30
0.0
 10
1.9257
 20
27.8172
 30
0.0
 10
1.9257
 20
27.8172
 30
0.0
  0
SPLINE
  5
1C6
330
1F
100
AcDbEntity
  8
DEFAULT_1
 62
   250
100
AcDbSpline
210
0.0
220
0.0
230
1.0
 70
    24
 71
     3
 72
     8
 73
     4
 74
     0
 42
0.0000000001
 43
0.0000000001
 40
0.0
 40
0.0
 40
0.0
 40
0.0
 40
1.0
 40
1.0
 40
1.0
 40
1.0
 10
1.9269
 20
27.7556
 30
0.0
 10
1.9269
 20
27.7556
 30
0.0
 10
-6.4542
 20
27.7556
 30
0.0
 10
-6.4542
 20
27.7556
 30
0.0
  0
SPLINE
  5
1C7
330
1F
100
AcDbEntity
  8
DEFAULT_1
 62
   250
100
AcDbSpline
210
0.0
220
0.0
230
1.0
 70
    24
 71
     3
 72
     8
 73
     4
 74
     0
 42
0.0000000001
 43
0.0000000001
 40
0.0
 40
0.0
 40
0.0
 40
0.0
 40
1.0
 40
1.0
 40
1.0
 40
1.0
 10
-6.4542
 20
27.3302
 30
0.0
 10
-6.4542
 20
27.3302
 30
0.0
 10
1.9269
 20
27.3302
 30
0.0
 10
1.9269
 20
27.3302
 30
0.0
  0
SPLINE
  5
1C8
330
1F
100
AcDbEntity
  8
DEFAULT_1
 62
   250
100
AcDbSpline
210
0.0
220
0.0
230
1.0
 70
    24
 71
     3
 72
     8
 73
     4
 74
     0
 42
0.0000000001
 43
0.0000000001
 40
0.0
 40
0.0
 40
0.0
 40
0.0
 40
1.0
 40
1.0
 40
1.0
 40
1.0
 10
-6.4542
 20
27.0749
 30
0.0
 10
-6.4542
 20
27.0749
 30
0.0
 10
1.9269
 20
27.0749
 30
0.0
 10
1.9269
 20
27.0749
 30
0.0
  0
SPLINE
  5
1C9
330
1F
100
AcDbEntity
  8
DEFAULT_1
 62
   250
100
AcDbSpline
210
0.0
220
0.0
230
1.0
 70
    24
 71
     3
 72
     8
 73
     4
 74
     0
 42
0.0000000001
 43
0.0000000001
 40
0.0
 40
0.0
 40
0.0
 40
0.0
 40
1.0
 40
1.0
 40
1.0
 40
1.0
 10
1.9257
 20
28.63
 30
0.0
 10
1.9257
 20
28.63
 30
0.0
 10
-6.6839
 20
28.63
 30
0.0
 10
-6.6839
 20
28.63
 30
0.0
  0
SPLINE
  5
1CA
330
1F
100
AcDbEntity
  8
DEFAULT_1
 62
   250
100
AcDbSpline
210
0.0
220
0.0
230
1.0
 70
    24
 71
     3
 72
     8
 73
     4
 74
     0
 42
0.0000000001
 43
0.0000000001
 40
0.0
 40
0.0
 40
0.0
 40
0.0
 40
1.0
 40
1.0
 40
1.0
 40
1.0
 10
1.9269
 20
29.117
 30
0.0
 10
1.9269
 20
29.117
 30
0.0
 10
-6.4542
 20
29.117
 30
0.0
 10
-6.4542
 20
29.117
 30
0.0
  0
SPLINE
  5
1CB
330
1F
100
AcDbEntity
  8
DEFAULT_1
 62
   250
100
AcDbSpline
210
0.0
220
0.0
230
1.0
 70
    24
 71
     3
 72
     8
 73
     4
 74
     0
 42
0.0000000001
 43
0.0000000001
 40
0.0
 40
0.0
 40
0.0
 40
0.0
 40
1.0
 40
1.0
 40
1.0
 40
1.0
 10
1.9269
 20
28.6916
 30
0.0
 10
1.9269
 20
28.6916
 30
0.0
 10
-6.4542
 20
28.6916
 30
0.0
 10
-6.4542
 20
28.6916
 30
0.0
  0
SPLINE
  5
1CC
330
1F
100
AcDbEntity
  8
DEFAULT_1
 62
   250
100
AcDbSpline
210
0.0
220
0.0
230
1.0
 70
    24
 71
     3
 72
     8
 73
     4
 74
     0
 42
0.0000000001
 43
0.0000000001
 40
0.0
 40
0.0
 40
0.0
 40
0.0
 40
1.0
 40
1.0
 40
1.0
 40
1.0
 10
1.9269
 20
28.0108
 30
0.0
 10
1.9269
 20
28.0108
 30
0.0
 10
-6.4542
 20
28.0108
 30
0.0
 10
-6.4542
 20
28.0108
 30
0.0
  0
SPLINE
  5
1CD
330
1F
100
AcDbEntity
  8
DEFAULT_1
 62
   250
100
AcDbSpline
210
0.0
220
0.0
230
1.0
 70
    24
 71
     3
 72
     8
 73
     4
 74
     0
 42
0.0000000001
 43
0.0000000001
 40
0.0
 40
0.0
 40
0.0
 40
0.0
 40
1.0
 40
1.0
 40
1.0
 40
1.0
 10
-6.6839
 20
26.4557
 30
0.0
 10
-6.6839
 20
26.4557
 30
0.0
 10
1.9257
 20
26.4557
 30
0.0
 10
1.9257
 20
26.4557
 30
0.0
  0
SPLINE
  5
1CE
330
1F
100
AcDbEntity
  8
DEFAULT_1
 62
   250
100
AcDbSpline
210
0.0
220
0.0
230
1.0
 70
    24
 71
     3
 72
     8
 73
     4
 74
     0
 42
0.0000000001
 43
0.0000000001
 40
0.0
 40
0.0
 40
0.0
 40
0.0
 40
1.0
 40
1.0
 40
1.0
 40
1.0
 10
2.3523
 20
25.7135
 30
0.0
 10
2.3523
 20
25.7135
 30
0.0
 10
2.3523
 20
25.9688
 30
0.0
 10
2.3523
 20
25.9688
 30
0.0
  0
SPLINE
  5
1CF
330
1F
100
AcDbEntity
  8
DEFAULT_1
 62
   250
100
AcDbSpline
210
0.0
220
0.0
230
1.0
 70
    24
 71
     3
 72
     8
 73
     4
 74
     0
 42
0.0000000001
 43
0.0000000001
 40
0.0
 40
0.0
 40
0.0
 40
0.0
 40
1.0
 40
1.0
 40
1.0
 40
1.0
 10
-6.4542
 20
26.3942
 30
0.0
 10
-6.4542
 20
26.3942
 30
0.0
 10
1.9269
 20
26.3942
 30
0.0
 10
1.9269
 20
26.3942
 30
0.0
  0
SPLINE
  5
1D0
330
1F
100
AcDbEntity
  8
DEFAULT_1
 62
   250
100
AcDbSpline
210
0.0
220
0.0
230
1.0
 70
    24
 71
     3
 72
     8
 73
     4
 74
     0
 42
0.0000000001
 43
0.0000000001
 40
0.0
 40
0.0
 40
0.0
 40
0.0
 40
1.0
 40
1.0
 40
1.0
 40
1.0
 10
-6.6839
 20
25.0944
 30
0.0
 10
-6.6839
 20
25.0944
 30
0.0
 10
1.9257
 20
25.0944
 30
0.0
 10
1.9257
 20
25.0944
 30
0.0
  0
SPLINE
  5
1D1
330
1F
100
AcDbEntity
  8
DEFAULT_1
 62
   250
100
AcDbSpline
210
0.0
220
0.0
230
1.0
 70
    24
 71
     3
 72
     8
 73
     4
 74
     0
 42
0.0000000001
 43
0.0000000001
 40
0.0
 40
0.0
 40
0.0
 40
0.0
 40
1.0
 40
1.0
 40
1.0
 40
1.0
 10
1.9269
 20
23.9268
 30
0.0
 10
1.9269
 20
23.9268
 30
0.0
 10
-6.4542
 20
23.9268
 30
0.0
 10
-6.4542
 20
23.9268
 30
0.0
  0
SPLINE
  5
1D2
330
1F
100
AcDbEntity
  8
DEFAULT_1
 62
   250
100
AcDbSpline
210
0.0
220
0.0
230
1.0
 70
    24
 71
     3
 72
     8
 73
     4
 74
     0
 42
0.0000000001
 43
0.0000000001
 40
0.0
 40
0.0
 40
0.0
 40
0.0
 40
1.0
 40
1.0
 40
1.0
 40
1.0
 10
-6.6839
 20
23.733
 30
0.0
 10
-6.6839
 20
23.733
 30
0.0
 10
1.9257
 20
23.733
 30
0.0
 10
1.9257
 20
23.733
 30
0.0
  0
SPLINE
  5
1D3
330
1F
100
AcDbEntity
  8
DEFAULT_1
 62
   250
100
AcDbSpline
210
0.0
220
0.0
230
1.0
 70
    24
 71
     3
 72
     8
 73
     4
 74
     0
 42
0.0000000001
 43
0.0000000001
 40
0.0
 40
0.0
 40
0.0
 40
0.0
 40
1.0
 40
1.0
 40
1.0
 40
1.0
 10
-6.6839
 20
24.4137
 30
0.0
 10
-6.6839
 20
24.4137
 30
0.0
 10
1.9257
 20
24.4137
 30
0.0
 10
1.9257
 20
24.4137
 30
0.0
  0
SPLINE
  5
1D4
330
1F
100
AcDbEntity
  8
DEFAULT_1
 62
   250
100
AcDbSpline
210
0.0
220
0.0
230
1.0
 70
    24
 71
     3
 72
     8
 73
     4
 74
     0
 42
0.0000000001
 43
0.0000000001
 40
0.0
 40
0.0
 40
0.0
 40
0.0
 40
1.0
 40
1.0
 40
1.0
 40
1.0
 10
-6.6839
 20
24.5459
 30
0.0
 10
-6.6839
 20
24.5459
 30
0.0
 10
1.9257
 20
24.5459
 30
0.0
 10
1.9257
 20
24.5459
 30
0.0
  0
SPLINE
  5
1D5
330
1F
100
AcDbEntity
  8
DEFAULT_1
 62
   250
100
AcDbSpline
210
0.0
220
0.0
230
1.0
 70
    24
 71
     3
 72
     8
 73
     4
 74
     0
 42
0.0000000001
 43
0.0000000001
 40
0.0
 40
0.0
 40
0.0
 40
0.0
 40
1.0
 40
1.0
 40
1.0
 40
1.0
 10
1.9257
 20
23.8651
 30
0.0
 10
1.9257
 20
23.8651
 30
0.0
 10
-6.6839
 20
23.8651
 30
0.0
 10
-6.6839
 20
23.8651
 30
0.0
  0
SPLINE
  5
1D6
330
1F
100
AcDbEntity
  8
DEFAULT_1
 62
   250
100
AcDbSpline
210
0.0
220
0.0
230
1.0
 70
    24
 71
     3
 72
     8
 73
     4
 74
     0
 42
0.0000000001
 43
0.0000000001
 40
0.0
 40
0.0
 40
0.0
 40
0.0
 40
1.0
 40
1.0
 40
1.0
 40
1.0
 10
1.9269
 20
23.6714
 30
0.0
 10
1.9269
 20
23.6714
 30
0.0
 10
-6.4542
 20
23.6714
 30
0.0
 10
-6.4542
 20
23.6714
 30
0.0
  0
SPLINE
  5
1D7
330
1F
100
AcDbEntity
  8
DEFAULT_1
 62
   250
100
AcDbSpline
210
0.0
220
0.0
230
1.0
 70
    24
 71
     3
 72
     8
 73
     4
 74
     0
 42
0.0000000001
 43
0.0000000001
 40
0.0
 40
0.0
 40
0.0
 40
0.0
 40
1.0
 40
1.0
 40
1.0
 40
1.0
 10
-6.6839
 20
23.0523
 30
0.0
 10
-6.6839
 20
23.0523
 30
0.0
 10
1.9257
 20
23.0523
 30
0.0
 10
1.9257
 20
23.0523
 30
0.0
  0
SPLINE
  5
1D8
330
1F
100
AcDbEntity
  8
DEFAULT_1
 62
   250
100
AcDbSpline
210
0.0
220
0.0
230
1.0
 70
    24
 71
     3
 72
     8
 73
     4
 74
     0
 42
0.0000000001
 43
0.0000000001
 40
0.0
 40
0.0
 40
0.0
 40
0.0
 40
1.0
 40
1.0
 40
1.0
 40
1.0
 10
1.9269
 20
22.9908
 30
0.0
 10
1.9269
 20
22.9908
 30
0.0
 10
-6.4542
 20
22.9908
 30
0.0
 10
-6.4542
 20
22.9908
 30
0.0
  0
SPLINE
  5
1D9
330
1F
100
AcDbEntity
  8
DEFAULT_1
 62
   250
100
AcDbSpline
210
0.0
220
0.0
230
1.0
 70
    24
 71
     3
 72
     8
 73
     4
 74
     0
 42
0.0000000001
 43
0.0000000001
 40
0.0
 40
0.0
 40
0.0
 40
0.0
 40
1.0
 40
1.0
 40
1.0
 40
1.0
 10
1.9257
 20
23.1845
 30
0.0
 10
1.9257
 20
23.1845
 30
0.0
 10
-6.6839
 20
23.1845
 30
0.0
 10
-6.6839
 20
23.1845
 30
0.0
  0
SPLINE
  5
1DA
330
1F
100
AcDbEntity
  8
DEFAULT_1
 62
   250
100
AcDbSpline
210
0.0
220
0.0
230
1.0
 70
    24
 71
     3
 72
     8
 73
     4
 74
     0
 42
0.0000000001
 43
0.0000000001
 40
0.0
 40
0.0
 40
0.0
 40
0.0
 40
1.0
 40
1.0
 40
1.0
 40
1.0
 10
-6.4542
 20
22.5653
 30
0.0
 10
-6.4542
 20
22.5653
 30
0.0
 10
1.9269
 20
22.5653
 30
0.0
 10
1.9269
 20
22.5653
 30
0.0
  0
SPLINE
  5
1DB
330
1F
100
AcDbEntity
  8
DEFAULT_1
 62
   250
100
AcDbSpline
210
0.0
220
0.0
230
1.0
 70
    24
 71
     3
 72
     8
 73
     4
 74
     0
 42
0.0000000001
 43
0.0000000001
 40
0.0
 40
0.0
 40
0.0
 40
0.0
 40
1.0
 40
1.0
 40
1.0
 40
1.0
 10
2.3523
 20
22.5653
 30
0.0
 10
2.3523
 20
22.5653
 30
0.0
 10
10.7333
 20
22.5653
 30
0.0
 10
10.7333
 20
22.5653
 30
0.0
  0
SPLINE
  5
1DC
330
1F
100
AcDbEntity
  8
DEFAULT_1
 62
   250
100
AcDbSpline
210
0.0
220
0.0
230
1.0
 70
    24
 71
     3
 72
     8
 73
     4
 74
     0
 42
0.0000000001
 43
0.0000000001
 40
0.0
 40
0.0
 40
0.0
 40
0.0
 40
1.0
 40
1.0
 40
1.0
 40
1.0
 10
-6.4542
 20
24.3522
 30
0.0
 10
-6.4542
 20
24.3522
 30
0.0
 10
1.9269
 20
24.3522
 30
0.0
 10
1.9269
 20
24.3522
 30
0.0
  0
SPLINE
  5
1DD
330
1F
100
AcDbEntity
  8
DEFAULT_1
 62
   250
100
AcDbSpline
210
0.0
220
0.0
230
1.0
 70
    24
 71
     3
 72
     8
 73
     4
 74
     0
 42
0.0000000001
 43
0.0000000001
 40
0.0
 40
0.0
 40
0.0
 40
0.0
 40
1.0
 40
1.0
 40
1.0
 40
1.0
 10
1.9269
 20
24.6074
 30
0.0
 10
1.9269
 20
24.6074
 30
0.0
 10
-6.4542
 20
24.6074
 30
0.0
 10
-6.4542
 20
24.6074
 30
0.0
  0
SPLINE
  5
1DE
330
1F
100
AcDbEntity
  8
DEFAULT_1
 62
   250
100
AcDbSpline
210
0.0
220
0.0
230
1.0
 70
    24
 71
     3
 72
     8
 73
     4
 74
     0
 42
0.0000000001
 43
0.0000000001
 40
0.0
 40
0.0
 40
0.0
 40
0.0
 40
1.0
 40
1.0
 40
1.0
 40
1.0
 10
1.9257
 20
25.2265
 30
0.0
 10
1.9257
 20
25.2265
 30
0.0
 10
-6.6839
 20
25.2265
 30
0.0
 10
-6.6839
 20
25.2265
 30
0.0
  0
SPLINE
  5
1DF
330
1F
100
AcDbEntity
  8
DEFAULT_1
 62
   250
100
AcDbSpline
210
0.0
220
0.0
230
1.0
 70
    24
 71
     3
 72
     8
 73
     4
 74
     0
 42
0.0000000001
 43
0.0000000001
 40
0.0
 40
0.0
 40
0.0
 40
0.0
 40
1.0
 40
1.0
 40
1.0
 40
1.0
 10
-6.6839
 20
25.7751
 30
0.0
 10
-6.6839
 20
25.7751
 30
0.0
 10
1.9257
 20
25.7751
 30
0.0
 10
1.9257
 20
25.7751
 30
0.0
  0
SPLINE
  5
1E0
330
1F
100
AcDbEntity
  8
DEFAULT_1
 62
   250
100
AcDbSpline
210
0.0
220
0.0
230
1.0
 70
    24
 71
     3
 72
     8
 73
     4
 74
     0
 42
0.0000000001
 43
0.0000000001
 40
0.0
 40
0.0
 40
0.0
 40
0.0
 40
1.0
 40
1.0
 40
1.0
 40
1.0
 10
1.9269
 20
25.9688
 30
0.0
 10
1.9269
 20
25.9688
 30
0.0
 10
-6.4542
 20
25.9688
 30
0.0
 10
-6.4542
 20
25.9688
 30
0.0
  0
SPLINE
  5
1E1
330
1F
100
AcDbEntity
  8
DEFAULT_1
 62
   250
100
AcDbSpline
210
0.0
220
0.0
230
1.0
 70
    24
 71
     3
 72
     8
 73
     4
 74
     0
 42
0.0000000001
 43
0.0000000001
 40
0.0
 40
0.0
 40
0.0
 40
0.0
 40
1.0
 40
1.0
 40
1.0
 40
1.0
 10
-6.6839
 20
26.5879
 30
0.0
 10
-6.6839
 20
26.5879
 30
0.0
 10
1.9257
 20
26.5879
 30
0.0
 10
1.9257
 20
26.5879
 30
0.0
  0
SPLINE
  5
1E2
330
1F
100
AcDbEntity
  8
DEFAULT_1
 62
   250
100
AcDbSpline
210
0.0
220
0.0
230
1.0
 70
    24
 71
     3
 72
     8
 73
     4
 74
     0
 42
0.0000000001
 43
0.0000000001
 40
0.0
 40
0.0
 40
0.0
 40
0.0
 40
1.0
 40
1.0
 40
1.0
 40
1.0
 10
-6.4542
 20
26.6495
 30
0.0
 10
-6.4542
 20
26.6495
 30
0.0
 10
1.9269
 20
26.6495
 30
0.0
 10
1.9269
 20
26.6495
 30
0.0
  0
SPLINE
  5
1E3
330
1F
100
AcDbEntity
  8
DEFAULT_1
 62
   250
100
AcDbSpline
210
0.0
220
0.0
230
1.0
 70
    24
 71
     3
 72
     8
 73
     4
 74
     0
 42
0.0000000001
 43
0.0000000001
 40
0.0
 40
0.0
 40
0.0
 40
0.0
 40
1.0
 40
1.0
 40
1.0
 40
1.0
 10
-6.6839
 20
25.9073
 30
0.0
 10
-6.6839
 20
25.9073
 30
0.0
 10
1.9257
 20
25.9073
 30
0.0
 10
1.9257
 20
25.9073
 30
0.0
  0
SPLINE
  5
1E4
330
1F
100
AcDbEntity
  8
DEFAULT_1
 62
   250
100
AcDbSpline
210
0.0
220
0.0
230
1.0
 70
    24
 71
     3
 72
     8
 73
     4
 74
     0
 42
0.0000000001
 43
0.0000000001
 40
0.0
 40
0.0
 40
0.0
 40
0.0
 40
1.0
 40
1.0
 40
1.0
 40
1.0
 10
-6.4542
 20
25.7135
 30
0.0
 10
-6.4542
 20
25.7135
 30
0.0
 10
1.9269
 20
25.7135
 30
0.0
 10
1.9269
 20
25.7135
 30
0.0
  0
SPLINE
  5
1E5
330
1F
100
AcDbEntity
  8
DEFAULT_1
 62
   250
100
AcDbSpline
210
0.0
220
0.0
230
1.0
 70
    24
 71
     3
 72
     8
 73
     4
 74
     0
 42
0.0000000001
 43
0.0000000001
 40
0.0
 40
0.0
 40
0.0
 40
0.0
 40
1.0
 40
1.0
 40
1.0
 40
1.0
 10
-6.4542
 20
25.2881
 30
0.0
 10
-6.4542
 20
25.2881
 30
0.0
 10
1.9269
 20
25.2881
 30
0.0
 10
1.9269
 20
25.2881
 30
0.0
  0
SPLINE
  5
1E6
330
1F
100
AcDbEntity
  8
DEFAULT_1
 62
   250
100
AcDbSpline
210
0.0
220
0.0
230
1.0
 70
    24
 71
     3
 72
     8
 73
     4
 74
     0
 42
0.0000000001
 43
0.0000000001
 40
0.0
 40
0.0
 40
0.0
 40
0.0
 40
1.0
 40
1.0
 40
1.0
 40
1.0
 10
-6.4542
 20
25.0328
 30
0.0
 10
-6.4542
 20
25.0328
 30
0.0
 10
1.9269
 20
25.0328
 30
0.0
 10
1.9269
 20
25.0328
 30
0.0
  0
SPLINE
  5
1E7
330
1F
100
AcDbEntity
  8
DEFAULT_1
 62
   250
100
AcDbSpline
210
0.0
220
0.0
230
1.0
 70
    24
 71
     3
 72
     8
 73
     4
 74
     0
 42
0.0000000001
 43
0.0000000001
 40
0.0
 40
0.0
 40
0.0
 40
0.0
 40
1.0
 40
1.0
 40
1.0
 40
1.0
 10
-6.4542
 20
23.246
 30
0.0
 10
-6.4542
 20
23.246
 30
0.0
 10
1.9269
 20
23.246
 30
0.0
 10
1.9269
 20
23.246
 30
0.0
  0
SPLINE
  5
1E8
330
1F
100
AcDbEntity
  8
DEFAULT_1
 62
   250
100
AcDbSpline
210
0.0
220
0.0
230
1.0
 70
    24
 71
     3
 72
     8
 73
     4
 74
     0
 42
0.0000000001
 43
0.0000000001
 40
0.0
 40
0.0
 40
0.0
 40
0.0
 40
1.0
 40
1.0
 40
1.0
 40
1.0
 10
-6.6839
 20
22.5037
 30
0.0
 10
-6.6839
 20
22.5037
 30
0.0
 10
1.9257
 20
22.5037
 30
0.0
 10
1.9257
 20
22.5037
 30
0.0
  0
SPLINE
  5
1E9
330
1F
100
AcDbEntity
  8
DEFAULT_1
 62
   250
100
AcDbSpline
210
0.0
220
0.0
230
1.0
 70
    24
 71
     3
 72
     8
 73
     4
 74
     0
 42
0.0000000001
 43
0.0000000001
 40
0.0
 40
0.0
 40
0.0
 40
0.0
 40
1.0
 40
1.0
 40
1.0
 40
1.0
 10
-6.4542
 20
22.31
 30
0.0
 10
-6.4542
 20
22.31
 30
0.0
 10
1.9269
 20
22.31
 30
0.0
 10
1.9269
 20
22.31
 30
0.0
  0
SPLINE
  5
1EA
330
1F
100
AcDbEntity
  8
DEFAULT_1
 62
   250
100
AcDbSpline
210
0.0
220
0.0
230
1.0
 70
    24
 71
     3
 72
     8
 73
     4
 74
     0
 42
0.0000000001
 43
0.0000000001
 40
0.0
 40
0.0
 40
0.0
 40
0.0
 40
1.0
 40
1.0
 40
1.0
 40
1.0
 10
2.3523
 20
21.8846
 30
0.0
 10
2.3523
 20
21.8846
 30
0.0
 10
10.7333
 20
21.8846
 30
0.0
 10
10.7333
 20
21.8846
 30
0.0
  0
SPLINE
  5
1EB
330
1F
100
AcDbEntity
  8
DEFAULT_1
 62
   250
100
AcDbSpline
210
0.0
220
0.0
230
1.0
 70
    24
 71
     3
 72
     8
 73
     4
 74
     0
 42
0.0000000001
 43
0.0000000001
 40
0.0
 40
0.0
 40
0.0
 40
0.0
 40
1.0
 40
1.0
 40
1.0
 40
1.0
 10
2.3523
 20
21.6294
 30
0.0
 10
2.3523
 20
21.6294
 30
0.0
 10
10.7333
 20
21.6294
 30
0.0
 10
10.7333
 20
21.6294
 30
0.0
  0
SPLINE
  5
1EC
330
1F
100
AcDbEntity
  8
DEFAULT_1
 62
   250
100
AcDbSpline
210
0.0
220
0.0
230
1.0
 70
    24
 71
     3
 72
     8
 73
     4
 74
     0
 42
0.0000000001
 43
0.0000000001
 40
0.0
 40
0.0
 40
0.0
 40
0.0
 40
1.0
 40
1.0
 40
1.0
 40
1.0
 10
2.3523
 20
21.2039
 30
0.0
 10
2.3523
 20
21.2039
 30
0.0
 10
10.7333
 20
21.2039
 30
0.0
 10
10.7333
 20
21.2039
 30
0.0
  0
SPLINE
  5
1ED
330
1F
100
AcDbEntity
  8
DEFAULT_1
 62
   250
100
AcDbSpline
210
0.0
220
0.0
230
1.0
 70
    24
 71
     3
 72
     8
 73
     4
 74
     0
 42
0.0000000001
 43
0.0000000001
 40
0.0
 40
0.0
 40
0.0
 40
0.0
 40
1.0
 40
1.0
 40
1.0
 40
1.0
 10
2.3523
 20
20.9486
 30
0.0
 10
2.3523
 20
20.9486
 30
0.0
 10
10.7333
 20
20.9486
 30
0.0
 10
10.7333
 20
20.9486
 30
0.0
  0
SPLINE
  5
1EE
330
1F
100
AcDbEntity
  8
DEFAULT_1
 62
   250
100
AcDbSpline
210
0.0
220
0.0
230
1.0
 70
    24
 71
     3
 72
     8
 73
     4
 74
     0
 42
0.0000000001
 43
0.0000000001
 40
0.0
 40
0.0
 40
0.0
 40
0.0
 40
1.0
 40
1.0
 40
1.0
 40
1.0
 10
10.7333
 20
20.5232
 30
0.0
 10
10.7333
 20
20.5232
 30
0.0
 10
2.3523
 20
20.5232
 30
0.0
 10
2.3523
 20
20.5232
 30
0.0
  0
SPLINE
  5
1EF
330
1F
100
AcDbEntity
  8
DEFAULT_1
 62
   250
100
AcDbSpline
210
0.0
220
0.0
230
1.0
 70
    24
 71
     3
 72
     8
 73
     4
 74
     0
 42
0.0000000001
 43
0.0000000001
 40
0.0
 40
0.0
 40
0.0
 40
0.0
 40
1.0
 40
1.0
 40
1.0
 40
1.0
 10
-6.4542
 20
20.2679
 30
0.0
 10
-6.4542
 20
20.2679
 30
0.0
 10
1.9269
 20
20.2679
 30
0.0
 10
1.9269
 20
20.2679
 30
0.0
  0
SPLINE
  5
1F0
330
1F
100
AcDbEntity
  8
DEFAULT_1
 62
   250
100
AcDbSpline
210
0.0
220
0.0
230
1.0
 70
    24
 71
     3
 72
     8
 73
     4
 74
     0
 42
0.0000000001
 43
0.0000000001
 40
0.0
 40
0.0
 40
0.0
 40
0.0
 40
1.0
 40
1.0
 40
1.0
 40
1.0
 10
-6.6839
 20
20.4616
 30
0.0
 10
-6.6839
 20
20.4616
 30
0.0
 10
1.9257
 20
20.4616
 30
0.0
 10
1.9257
 20
20.4616
 30
0.0
  0
SPLINE
  5
1F1
330
1F
100
AcDbEntity
  8
DEFAULT_1
 62
   250
100
AcDbSpline
210
0.0
220
0.0
230
1.0
 70
    24
 71
     3
 72
     8
 73
     4
 74
     0
 42
0.0000000001
 43
0.0000000001
 40
0.0
 40
0.0
 40
0.0
 40
0.0
 40
1.0
 40
1.0
 40
1.0
 40
1.0
 10
-6.4542
 20
21.8846
 30
0.0
 10
-6.4542
 20
21.8846
 30
0.0
 10
1.9269
 20
21.8846
 30
0.0
 10
1.9269
 20
21.8846
 30
0.0
  0
SPLINE
  5
1F2
330
1F
100
AcDbEntity
  8
DEFAULT_1
 62
   250
100
AcDbSpline
210
0.0
220
0.0
230
1.0
 70
    24
 71
     3
 72
     8
 73
     4
 74
     0
 42
0.0000000001
 43
0.0000000001
 40
0.0
 40
0.0
 40
0.0
 40
0.0
 40
1.0
 40
1.0
 40
1.0
 40
1.0
 10
1.9269
 20
21.6294
 30
0.0
 10
1.9269
 20
21.6294
 30
0.0
 10
-6.4542
 20
21.6294
 30
0.0
 10
-6.4542
 20
21.6294
 30
0.0
  0
SPLINE
  5
1F3
330
1F
100
AcDbEntity
  8
DEFAULT_1
 62
   250
100
AcDbSpline
210
0.0
220
0.0
230
1.0
 70
    24
 71
     3
 72
     8
 73
     4
 74
     0
 42
0.0000000001
 43
0.0000000001
 40
0.0
 40
0.0
 40
0.0
 40
0.0
 40
1.0
 40
1.0
 40
1.0
 40
1.0
 10
-6.6839
 20
21.1424
 30
0.0
 10
-6.6839
 20
21.1424
 30
0.0
 10
1.9257
 20
21.1424
 30
0.0
 10
1.9257
 20
21.1424
 30
0.0
  0
SPLINE
  5
1F4
330
1F
100
AcDbEntity
  8
DEFAULT_1
 62
   250
100
AcDbSpline
210
0.0
220
0.0
230
1.0
 70
    24
 71
     3
 72
     8
 73
     4
 74
     0
 42
0.0000000001
 43
0.0000000001
 40
0.0
 40
0.0
 40
0.0
 40
0.0
 40
1.0
 40
1.0
 40
1.0
 40
1.0
 10
2.3523
 20
19.8425
 30
0.0
 10
2.3523
 20
19.8425
 30
0.0
 10
10.7333
 20
19.8425
 30
0.0
 10
10.7333
 20
19.8425
 30
0.0
  0
SPLINE
  5
1F5
330
1F
100
AcDbEntity
  8
DEFAULT_1
 62
   250
100
AcDbSpline
210
0.0
220
0.0
230
1.0
 70
    24
 71
     3
 72
     8
 73
     4
 74
     0
 42
0.0000000001
 43
0.0000000001
 40
0.0
 40
0.0
 40
0.0
 40
0.0
 40
1.0
 40
1.0
 40
1.0
 40
1.0
 10
-6.6839
 20
19.6488
 30
0.0
 10
-6.6839
 20
19.6488
 30
0.0
 10
1.9257
 20
19.6488
 30
0.0
 10
1.9257
 20
19.6488
 30
0.0
  0
SPLINE
  5
1F6
330
1F
100
AcDbEntity
  8
DEFAULT_1
 62
   250
100
AcDbSpline
210
0.0
220
0.0
230
1.0
 70
    24
 71
     3
 72
     8
 73
     4
 74
     0
 42
0.0000000001
 43
0.0000000001
 40
0.0
 40
0.0
 40
0.0
 40
0.0
 40
1.0
 40
1.0
 40
1.0
 40
1.0
 10
1.9269
 20
19.8425
 30
0.0
 10
1.9269
 20
19.8425
 30
0.0
 10
-6.4542
 20
19.8425
 30
0.0
 10
-6.4542
 20
19.8425
 30
0.0
  0
SPLINE
  5
1F7
330
1F
100
AcDbEntity
  8
DEFAULT_1
 62
   250
100
AcDbSpline
210
0.0
220
0.0
230
1.0
 70
    24
 71
     3
 72
     8
 73
     4
 74
     0
 42
0.0000000001
 43
0.0000000001
 40
0.0
 40
0.0
 40
0.0
 40
0.0
 40
1.0
 40
1.0
 40
1.0
 40
1.0
 10
1.9257
 20
20.3295
 30
0.0
 10
1.9257
 20
20.3295
 30
0.0
 10
-6.6839
 20
20.3295
 30
0.0
 10
-6.6839
 20
20.3295
 30
0.0
  0
SPLINE
  5
1F8
330
1F
100
AcDbEntity
  8
DEFAULT_1
 62
   250
100
AcDbSpline
210
0.0
220
0.0
230
1.0
 70
    24
 71
     3
 72
     8
 73
     4
 74
     0
 42
0.0000000001
 43
0.0000000001
 40
0.0
 40
0.0
 40
0.0
 40
0.0
 40
1.0
 40
1.0
 40
1.0
 40
1.0
 10
1.9257
 20
19.781
 30
0.0
 10
1.9257
 20
19.781
 30
0.0
 10
-6.6839
 20
19.781
 30
0.0
 10
-6.6839
 20
19.781
 30
0.0
  0
SPLINE
  5
1F9
330
1F
100
AcDbEntity
  8
DEFAULT_1
 62
   250
100
AcDbSpline
210
0.0
220
0.0
230
1.0
 70
    24
 71
     3
 72
     8
 73
     4
 74
     0
 42
0.0000000001
 43
0.0000000001
 40
0.0
 40
0.0
 40
0.0
 40
0.0
 40
1.0
 40
1.0
 40
1.0
 40
1.0
 10
1.9257
 20
21.0103
 30
0.0
 10
1.9257
 20
21.0103
 30
0.0
 10
-6.6839
 20
21.0103
 30
0.0
 10
-6.6839
 20
21.0103
 30
0.0
  0
SPLINE
  5
1FA
330
1F
100
AcDbEntity
  8
DEFAULT_1
 62
   250
100
AcDbSpline
210
0.0
220
0.0
230
1.0
 70
    24
 71
     3
 72
     8
 73
     4
 74
     0
 42
0.0000000001
 43
0.0000000001
 40
0.0
 40
0.0
 40
0.0
 40
0.0
 40
1.0
 40
1.0
 40
1.0
 40
1.0
 10
1.9269
 20
21.2039
 30
0.0
 10
1.9269
 20
21.2039
 30
0.0
 10
-6.4542
 20
21.2039
 30
0.0
 10
-6.4542
 20
21.2039
 30
0.0
  0
SPLINE
  5
1FB
330
1F
100
AcDbEntity
  8
DEFAULT_1
 62
   250
100
AcDbSpline
210
0.0
220
0.0
230
1.0
 70
    24
 71
     3
 72
     8
 73
     4
 74
     0
 42
0.0000000001
 43
0.0000000001
 40
0.0
 40
0.0
 40
0.0
 40
0.0
 40
1.0
 40
1.0
 40
1.0
 40
1.0
 10
1.9269
 20
20.9486
 30
0.0
 10
1.9269
 20
20.9486
 30
0.0
 10
-6.4542
 20
20.9486
 30
0.0
 10
-6.4542
 20
20.9486
 30
0.0
  0
SPLINE
  5
1FC
330
1F
100
AcDbEntity
  8
DEFAULT_1
 62
   250
100
AcDbSpline
210
0.0
220
0.0
230
1.0
 70
     8
 71
     3
 72
    20
 73
    16
 74
     0
 42
0.0000000001
 43
0.0000000001
 40
0.0
 40
0.0
 40
0.0
 40
0.0
 40
0.2
 40
0.2
 40
0.2
 40
0.2
 40
0.4
 40
0.4
 40
0.4
 40
0.4
 40
0.6
 40
0.6
 40
0.6
 40
0.6
 40
1.0
 40
1.0
 40
1.0
 40
1.0
 10
11.1795
 20
33.967
 30
0.0
 10
11.1795
 20
33.967
 30
0.0
 10
11.1736
 20
34.3072
 30
0.0
 10
11.1736
 20
34.3072
 30
0.0
 10
11.1736
 20
34.3072
 30
0.0
 10
11.1736
 20
34.3072
 30
0.0
 10
11.1662
 20
34.7343
 30
0.0
 10
11.1662
 20
34.7343
 30
0.0
 10
11.1662
 20
34.7343
 30
0.0
 10
11.1662
 20
34.7343
 30
0.0
 10
11.1602
 20
35.0746
 30
0.0
 10
11.1602
 20
35.0746
 30
0.0
 10
11.1602
 20
35.0746
 30
0.0
 10
11.1602
 20
35.0746
 30
0.0
 10
11.1588
 20
35.0892
 30
0.0
 10
11.1588
 20
35.0892
 30
0.0
  0
SPLINE
  5
1FD
330
1F
100
AcDbEntity
  8
DEFAULT_1
 62
   250
100
AcDbSpline
210
0.0
220
0.0
230
1.0
 70
     8
 71
     3
 72
     8
 73
     4
 74
     0
 42
0.0000000001
 43
0.0000000001
 40
0.0
 40
0.0
 40
0.0
 40
0.0
 40
1.0
 40
1.0
 40
1.0
 40
1.0
 10
11.1588
 20
35.0892
 30
0.0
 10
11.1511
 20
35.1287
 30
0.0
 10
11.1155
 20
35.1581
 30
0.0
 10
11.0751
 20
35.1581
 30
0.0
  0
SPLINE
  5
1FE
330
1F
100
AcDbEntity
  8
DEFAULT_1
 62
   250
100
AcDbSpline
210
0.0
220
0.0
230
1.0
 70
    24
 71
     3
 72
    16
 73
    12
 74
     0
 42
0.0000000001
 43
0.0000000001
 40
0.0
 40
0.0
 40
0.0
 40
0.0
 40
0.25
 40
0.25
 40
0.25
 40
0.25
 40
0.5
 40
0.5
 40
0.5
 40
0.5
 40
1.0
 40
1.0
 40
1.0
 40
1.0
 10
11.0751
 20
35.1581
 30
0.0
 10
11.0751
 20
35.1581
 30
0.0
 10
10.7348
 20
35.1581
 30
0.0
 10
10.7348
 20
35.1581
 30
0.0
 10
10.7348
 20
35.1581
 30
0.0
 10
10.7348
 20
35.1581
 30
0.0
 10
-6.4556
 20
35.1581
 30
0.0
 10
-6.4556
 20
35.1581
 30
0.0
 10
-6.4556
 20
35.1581
 30
0.0
 10
-6.4556
 20
35.1581
 30
0.0
 10
-6.796
 20
35.1581
 30
0.0
 10
-6.796
 20
35.1581
 30
0.0
  0
SPLINE
  5
1FF
330
1F
100
AcDbEntity
  8
DEFAULT_1
 62
   250
100
AcDbSpline
210
0.0
220
0.0
230
1.0
 70
     8
 71
     3
 72
     8
 73
     4
 74
     0
 42
0.0000000001
 43
0.0000000001
 40
0.0
 40
0.0
 40
0.0
 40
0.0
 40
1.0
 40
1.0
 40
1.0
 40
1.0
 10
-6.796
 20
35.1581
 30
0.0
 10
-6.811
 20
35.1571
 30
0.0
 10
-6.8237
 20
35.1543
 30
0.0
 10
-6.8372
 20
35.1476
 30
0.0
  0
SPLINE
  5
200
330
1F
100
AcDbEntity
  8
DEFAULT_1
 62
   250
100
AcDbSpline
210
0.0
220
0.0
230
1.0
 70
     8
 71
     3
 72
    12
 73
     8
 74
     0
 42
0.0000000001
 43
0.0000000001
 40
0.0
 40
0.0
 40
0.0
 40
0.0
 40
0.3333333333333333
 40
0.3333333333333333
 40
0.3333333333333333
 40
0.3333333333333333
 40
1.0
 40
1.0
 40
1.0
 40
1.0
 10
-6.9004
 20
33.967
 30
0.0
 10
-6.9004
 20
33.967
 30
0.0
 10
-6.8945
 20
34.3072
 30
0.0
 10
-6.8945
 20
34.3072
 30
0.0
 10
-6.8945
 20
34.3072
 30
0.0
 10
-6.8945
 20
34.3072
 30
0.0
 10
-6.8871
 20
34.7343
 30
0.0
 10
-6.8871
 20
34.7343
 30
0.0
  0
SPLINE
  5
201
330
1F
100
AcDbEntity
  8
DEFAULT_1
 62
   250
100
AcDbSpline
210
0.0
220
0.0
230
1.0
 70
     8
 71
     3
 72
     8
 73
     4
 74
     0
 42
0.0000000001
 43
0.0000000001
 40
0.0
 40
0.0
 40
0.0
 40
0.0
 40
1.0
 40
1.0
 40
1.0
 40
1.0
 10
-6.8871
 20
34.7343
 30
0.0
 10
-6.8869
 20
34.7442
 30
0.0
 10
-6.9526
 20
35.0847
 30
0.0
 10
-6.8314
 20
35.1505
 30
0.0
  0
SPLINE
  5
202
330
1F
100
AcDbEntity
  8
DEFAULT_1
 62
   250
100
AcDbSpline
210
0.0
220
0.0
230
1.0
 70
    24
 71
     3
 72
     8
 73
     4
 74
     0
 42
0.0000000001
 43
0.0000000001
 40
0.0
 40
0.0
 40
0.0
 40
0.0
 40
1.0
 40
1.0
 40
1.0
 40
1.0
 10
-6.9004
 20
33.967
 30
0.0
 10
-6.8839
 20
33.967
 30
0.0
 10
-6.8673
 20
33.967
 30
0.0
 10
-6.8507
 20
33.967
 30
0.0
  0
SPLINE
  5
203
330
1F
100
AcDbEntity
  8
DEFAULT_1
 62
   250
100
AcDbSpline
210
0.0
220
0.0
230
1.0
 70
    24
 71
     3
 72
    16
 73
    12
 74
     0
 42
0.0000000001
 43
0.0000000001
 40
0.0
 40
0.0
 40
0.0
 40
0.0
 40
0.25
 40
0.25
 40
0.25
 40
0.25
 40
0.5
 40
0.5
 40
0.5
 40
0.5
 40
1.0
 40
1.0
 40
1.0
 40
1.0
 10
-6.8507
 20
33.967
 30
0.0
 10
-6.8507
 20
33.967
 30
0.0
 10
-6.5104
 20
33.967
 30
0.0
 10
-6.5104
 20
33.967
 30
0.0
 10
-6.5104
 20
33.967
 30
0.0
 10
-6.5104
 20
33.967
 30
0.0
 10
10.7895
 20
33.967
 30
0.0
 10
10.7895
 20
33.967
 30
0.0
 10
10.7895
 20
33.967
 30
0.0
 10
10.7895
 20
33.967
 30
0.0
 10
11.1299
 20
33.967
 30
0.0
 10
11.1299
 20
33.967
 30
0.0
  0
SPLINE
  5
204
330
1F
100
AcDbEntity
  8
DEFAULT_1
 62
   250
100
AcDbSpline
210
0.0
220
0.0
230
1.0
 70
    24
 71
     3
 72
     8
 73
     4
 74
     0
 42
0.0000000001
 43
0.0000000001
 40
0.0
 40
0.0
 40
0.0
 40
0.0
 40
1.0
 40
1.0
 40
1.0
 40
1.0
 10
11.1299
 20
33.967
 30
0.0
 10
11.1461
 20
33.967
 30
0.0
 10
11.1625
 20
33.967
 30
0.0
 10
11.1787
 20
33.967
 30
0.0
  0
SPLINE
  5
205
330
1F
100
AcDbEntity
  8
DEFAULT_1
 62
   250
100
AcDbSpline
210
0.0
220
0.0
230
1.0
 70
     8
 71
     3
 72
     8
 73
     4
 74
     0
 42
0.0000000001
 43
0.0000000001
 40
0.0
 40
0.0
 40
0.0
 40
0.0
 40
1.0
 40
1.0
 40
1.0
 40
1.0
 10
-6.796
 20
35.1569
 30
0.0
 10
-6.796
 20
34.7603
 30
0.0
 10
-6.8084
 20
34.3635
 30
0.0
 10
-6.8153
 20
33.967
 30
0.0
  0
SPLINE
  5
206
330
1F
100
AcDbEntity
  8
DEFAULT_1
 62
   250
100
AcDbSpline
210
0.0
220
0.0
230
1.0
 70
     8
 71
     3
 72
     8
 73
     4
 74
     0
 42
0.0000000001
 43
0.0000000001
 40
0.0
 40
0.0
 40
0.0
 40
0.0
 40
1.0
 40
1.0
 40
1.0
 40
1.0
 10
11.1602
 20
35.0746
 30
0.0
 10
11.1521
 20
35.0755
 30
0.0
 10
11.1435
 20
35.0751
 30
0.0
 10
11.1353
 20
35.0752
 30
0.0
  0
SPLINE
  5
207
330
1F
100
AcDbEntity
  8
DEFAULT_1
 62
   250
100
AcDbSpline
210
0.0
220
0.0
230
1.0
 70
     8
 71
     3
 72
    24
 73
    20
 74
     0
 42
0.0000000001
 43
0.0000000001
 40
0.0
 40
0.0
 40
0.0
 40
0.0
 40
0.1666666666666667
 40
0.1666666666666667
 40
0.1666666666666667
 40
0.1666666666666667
 40
0.3333333333333333
 40
0.3333333333333333
 40
0.3333333333333333
 40
0.3333333333333333
 40
0.5
 40
0.5
 40
0.5
 40
0.5
 40
0.6666666666666666
 40
0.6666666666666666
 40
0.6666666666666666
 40
0.6666666666666666
 40
1.0
 40
1.0
 40
1.0
 40
1.0
 10
11.1353
 20
35.0752
 30
0.0
 10
11.1353
 20
35.0752
 30
0.0
 10
11.0751
 20
35.0746
 30
0.0
 10
11.0751
 20
35.0746
 30
0.0
 10
11.0751
 20
35.0746
 30
0.0
 10
11.0751
 20
35.0746
 30
0.0
 10
10.7348
 20
35.0746
 30
0.0
 10
10.7348
 20
35.0746
 30
0.0
 10
10.7348
 20
35.0746
 30
0.0
 10
10.7348
 20
35.0746
 30
0.0
 10
-6.4556
 20
35.0746
 30
0.0
 10
-6.4556
 20
35.0746
 30
0.0
 10
-6.4556
 20
35.0746
 30
0.0
 10
-6.4556
 20
35.0746
 30
0.0
 10
-6.796
 20
35.0746
 30
0.0
 10
-6.796
 20
35.0746
 30
0.0
 10
-6.796
 20
35.0746
 30
0.0
 10
-6.796
 20
35.0746
 30
0.0
 10
-6.8562
 20
35.0752
 30
0.0
 10
-6.8562
 20
35.0752
 30
0.0
  0
SPLINE
  5
208
330
1F
100
AcDbEntity
  8
DEFAULT_1
 62
   250
100
AcDbSpline
210
0.0
220
0.0
230
1.0
 70
     8
 71
     3
 72
     8
 73
     4
 74
     0
 42
0.0000000001
 43
0.0000000001
 40
0.0
 40
0.0
 40
0.0
 40
0.0
 40
1.0
 40
1.0
 40
1.0
 40
1.0
 10
-6.8562
 20
35.0752
 30
0.0
 10
-6.8643
 20
35.0751
 30
0.0
 10
-6.873
 20
35.0755
 30
0.0
 10
-6.8811
 20
35.0746
 30
0.0
  0
SPLINE
  5
209
330
1F
100
AcDbEntity
  8
DEFAULT_1
 62
   250
100
AcDbSpline
210
0.0
220
0.0
230
1.0
 70
     8
 71
     3
 72
     8
 73
     4
 74
     0
 42
0.0000000001
 43
0.0000000001
 40
0.0
 40
0.0
 40
0.0
 40
0.0
 40
1.0
 40
1.0
 40
1.0
 40
1.0
 10
11.0945
 20
33.967
 30
0.0
 10
11.0876
 20
34.3632
 30
0.0
 10
11.067
 20
34.761
 30
0.0
 10
11.0752
 20
35.1574
 30
0.0
  0
SPLINE
  5
20A
330
1F
100
AcDbEntity
  8
DEFAULT_1
 62
   250
100
AcDbSpline
210
0.0
220
0.0
230
1.0
 70
     8
 71
     3
 72
     8
 73
     4
 74
     0
 42
0.0000000001
 43
0.0000000001
 40
0.0
 40
0.0
 40
0.0
 40
0.0
 40
1.0
 40
1.0
 40
1.0
 40
1.0
 10
2.3523
 20
19.8425
 30
0.0
 10
2.354
 20
19.7574
 30
0.0
 10
2.354
 20
19.6724
 30
0.0
 10
2.3523
 20
19.5873
 30
0.0
  0
SPLINE
  5
20B
330
1F
100
AcDbEntity
  8
DEFAULT_1
 62
   250
100
AcDbSpline
210
0.0
220
0.0
230
1.0
 70
     8
 71
     3
 72
     8
 73
     4
 74
     0
 42
0.0000000001
 43
0.0000000001
 40
0.0
 40
0.0
 40
0.0
 40
0.0
 40
1.0
 40
1.0
 40
1.0
 40
1.0
 10
1.9269
 20
19.5873
 30
0.0
 10
1.9252
 20
19.6724
 30
0.0
 10
1.9252
 20
19.7574
 30
0.0
 10
1.9269
 20
19.8425
 30
0.0
  0
SPLINE
  5
20C
330
1F
100
AcDbEntity
  8
DEFAULT_1
 62
   250
100
AcDbSpline
210
0.0
220
0.0
230
1.0
 70
     8
 71
     3
 72
     8
 73
     4
 74
     0
 42
0.0000000001
 43
0.0000000001
 40
0.0
 40
0.0
 40
0.0
 40
0.0
 40
1.0
 40
1.0
 40
1.0
 40
1.0
 10
2.3523
 20
20.2679
 30
0.0
 10
2.354
 20
20.3531
 30
0.0
 10
2.354
 20
20.4381
 30
0.0
 10
2.3523
 20
20.5232
 30
0.0
  0
SPLINE
  5
20D
330
1F
100
AcDbEntity
  8
DEFAULT_1
 62
   250
100
AcDbSpline
210
0.0
220
0.0
230
1.0
 70
     8
 71
     3
 72
     8
 73
     4
 74
     0
 42
0.0000000001
 43
0.0000000001
 40
0.0
 40
0.0
 40
0.0
 40
0.0
 40
1.0
 40
1.0
 40
1.0
 40
1.0
 10
1.9269
 20
20.9486
 30
0.0
 10
1.9252
 20
21.0337
 30
0.0
 10
1.9252
 20
21.1188
 30
0.0
 10
1.9269
 20
21.2039
 30
0.0
  0
SPLINE
  5
20E
330
1F
100
AcDbEntity
  8
DEFAULT_1
 62
   250
100
AcDbSpline
210
0.0
220
0.0
230
1.0
 70
     8
 71
     3
 72
     8
 73
     4
 74
     0
 42
0.0000000001
 43
0.0000000001
 40
0.0
 40
0.0
 40
0.0
 40
0.0
 40
1.0
 40
1.0
 40
1.0
 40
1.0
 10
1.9269
 20
21.6294
 30
0.0
 10
1.9252
 20
21.7145
 30
0.0
 10
1.9252
 20
21.7995
 30
0.0
 10
1.9269
 20
21.8846
 30
0.0
  0
SPLINE
  5
20F
330
1F
100
AcDbEntity
  8
DEFAULT_1
 62
   250
100
AcDbSpline
210
0.0
220
0.0
230
1.0
 70
     8
 71
     3
 72
     8
 73
     4
 74
     0
 42
0.0000000001
 43
0.0000000001
 40
0.0
 40
0.0
 40
0.0
 40
0.0
 40
1.0
 40
1.0
 40
1.0
 40
1.0
 10
1.9269
 20
22.31
 30
0.0
 10
1.9252
 20
22.3951
 30
0.0
 10
1.9252
 20
22.4802
 30
0.0
 10
1.9269
 20
22.5653
 30
0.0
  0
SPLINE
  5
210
330
1F
100
AcDbEntity
  8
DEFAULT_1
 62
   250
100
AcDbSpline
210
0.0
220
0.0
230
1.0
 70
     8
 71
     3
 72
     8
 73
     4
 74
     0
 42
0.0000000001
 43
0.0000000001
 40
0.0
 40
0.0
 40
0.0
 40
0.0
 40
1.0
 40
1.0
 40
1.0
 40
1.0
 10
1.9269
 20
22.9908
 30
0.0
 10
1.9252
 20
23.0759
 30
0.0
 10
1.9252
 20
23.1608
 30
0.0
 10
1.9269
 20
23.246
 30
0.0
  0
SPLINE
  5
211
330
1F
100
AcDbEntity
  8
DEFAULT_1
 62
   250
100
AcDbSpline
210
0.0
220
0.0
230
1.0
 70
     8
 71
     3
 72
     8
 73
     4
 74
     0
 42
0.0000000001
 43
0.0000000001
 40
0.0
 40
0.0
 40
0.0
 40
0.0
 40
1.0
 40
1.0
 40
1.0
 40
1.0
 10
1.9269
 20
23.6714
 30
0.0
 10
1.9252
 20
23.7566
 30
0.0
 10
1.9252
 20
23.8416
 30
0.0
 10
1.9269
 20
23.9268
 30
0.0
  0
SPLINE
  5
212
330
1F
100
AcDbEntity
  8
DEFAULT_1
 62
   250
100
AcDbSpline
210
0.0
220
0.0
230
1.0
 70
     8
 71
     3
 72
     8
 73
     4
 74
     0
 42
0.0000000001
 43
0.0000000001
 40
0.0
 40
0.0
 40
0.0
 40
0.0
 40
1.0
 40
1.0
 40
1.0
 40
1.0
 10
1.9269
 20
24.3522
 30
0.0
 10
1.9252
 20
24.4372
 30
0.0
 10
1.9252
 20
24.5223
 30
0.0
 10
1.9269
 20
24.6074
 30
0.0
  0
SPLINE
  5
213
330
1F
100
AcDbEntity
  8
DEFAULT_1
 62
   250
100
AcDbSpline
210
0.0
220
0.0
230
1.0
 70
     8
 71
     3
 72
     8
 73
     4
 74
     0
 42
0.0000000001
 43
0.0000000001
 40
0.0
 40
0.0
 40
0.0
 40
0.0
 40
1.0
 40
1.0
 40
1.0
 40
1.0
 10
1.9269
 20
25.0328
 30
0.0
 10
1.9252
 20
25.1179
 30
0.0
 10
1.9252
 20
25.203
 30
0.0
 10
1.9269
 20
25.2881
 30
0.0
  0
SPLINE
  5
214
330
1F
100
AcDbEntity
  8
DEFAULT_1
 62
   250
100
AcDbSpline
210
0.0
220
0.0
230
1.0
 70
     8
 71
     3
 72
     8
 73
     4
 74
     0
 42
0.0000000001
 43
0.0000000001
 40
0.0
 40
0.0
 40
0.0
 40
0.0
 40
1.0
 40
1.0
 40
1.0
 40
1.0
 10
1.9269
 20
25.7135
 30
0.0
 10
1.9252
 20
25.7986
 30
0.0
 10
1.9252
 20
25.8837
 30
0.0
 10
1.9269
 20
25.9688
 30
0.0
  0
SPLINE
  5
215
330
1F
100
AcDbEntity
  8
DEFAULT_1
 62
   250
100
AcDbSpline
210
0.0
220
0.0
230
1.0
 70
     8
 71
     3
 72
     8
 73
     4
 74
     0
 42
0.0000000001
 43
0.0000000001
 40
0.0
 40
0.0
 40
0.0
 40
0.0
 40
1.0
 40
1.0
 40
1.0
 40
1.0
 10
1.9269
 20
26.3942
 30
0.0
 10
1.9252
 20
26.4793
 30
0.0
 10
1.9252
 20
26.5643
 30
0.0
 10
1.9269
 20
26.6495
 30
0.0
  0
SPLINE
  5
216
330
1F
100
AcDbEntity
  8
DEFAULT_1
 62
   250
100
AcDbSpline
210
0.0
220
0.0
230
1.0
 70
     8
 71
     3
 72
     8
 73
     4
 74
     0
 42
0.0000000001
 43
0.0000000001
 40
0.0
 40
0.0
 40
0.0
 40
0.0
 40
1.0
 40
1.0
 40
1.0
 40
1.0
 10
1.9269
 20
27.0749
 30
0.0
 10
1.9252
 20
27.16
 30
0.0
 10
1.9252
 20
27.2451
 30
0.0
 10
1.9269
 20
27.3302
 30
0.0
  0
SPLINE
  5
217
330
1F
100
AcDbEntity
  8
DEFAULT_1
 62
   250
100
AcDbSpline
210
0.0
220
0.0
230
1.0
 70
     8
 71
     3
 72
     8
 73
     4
 74
     0
 42
0.0000000001
 43
0.0000000001
 40
0.0
 40
0.0
 40
0.0
 40
0.0
 40
1.0
 40
1.0
 40
1.0
 40
1.0
 10
1.9269
 20
27.7556
 30
0.0
 10
1.9252
 20
27.8408
 30
0.0
 10
1.9252
 20
27.9258
 30
0.0
 10
1.9269
 20
28.0108
 30
0.0
  0
SPLINE
  5
218
330
1F
100
AcDbEntity
  8
DEFAULT_1
 62
   250
100
AcDbSpline
210
0.0
220
0.0
230
1.0
 70
     8
 71
     3
 72
     8
 73
     4
 74
     0
 42
0.0000000001
 43
0.0000000001
 40
0.0
 40
0.0
 40
0.0
 40
0.0
 40
1.0
 40
1.0
 40
1.0
 40
1.0
 10
1.9269
 20
28.4363
 30
0.0
 10
1.9252
 20
28.5214
 30
0.0
 10
1.9252
 20
28.6065
 30
0.0
 10
1.9269
 20
28.6916
 30
0.0
  0
SPLINE
  5
219
330
1F
100
AcDbEntity
  8
DEFAULT_1
 62
   250
100
AcDbSpline
210
0.0
220
0.0
230
1.0
 70
     8
 71
     3
 72
     8
 73
     4
 74
     0
 42
0.0000000001
 43
0.0000000001
 40
0.0
 40
0.0
 40
0.0
 40
0.0
 40
1.0
 40
1.0
 40
1.0
 40
1.0
 10
1.9269
 20
29.117
 30
0.0
 10
1.9252
 20
29.2021
 30
0.0
 10
1.9252
 20
29.2872
 30
0.0
 10
1.9269
 20
29.3723
 30
0.0
  0
SPLINE
  5
21A
330
1F
100
AcDbEntity
  8
DEFAULT_1
 62
   250
100
AcDbSpline
210
0.0
220
0.0
230
1.0
 70
     8
 71
     3
 72
     8
 73
     4
 74
     0
 42
0.0000000001
 43
0.0000000001
 40
0.0
 40
0.0
 40
0.0
 40
0.0
 40
1.0
 40
1.0
 40
1.0
 40
1.0
 10
1.9269
 20
29.7977
 30
0.0
 10
1.9252
 20
29.8827
 30
0.0
 10
1.9252
 20
29.9679
 30
0.0
 10
1.9269
 20
30.0529
 30
0.0
  0
SPLINE
  5
21B
330
1F
100
AcDbEntity
  8
DEFAULT_1
 62
   250
100
AcDbSpline
210
0.0
220
0.0
230
1.0
 70
     8
 71
     3
 72
     8
 73
     4
 74
     0
 42
0.0000000001
 43
0.0000000001
 40
0.0
 40
0.0
 40
0.0
 40
0.0
 40
1.0
 40
1.0
 40
1.0
 40
1.0
 10
1.9269
 20
30.4783
 30
0.0
 10
1.9252
 20
30.5635
 30
0.0
 10
1.9252
 20
30.6486
 30
0.0
 10
1.9269
 20
30.7336
 30
0.0
  0
SPLINE
  5
21C
330
1F
100
AcDbEntity
  8
DEFAULT_1
 62
   250
100
AcDbSpline
210
0.0
220
0.0
230
1.0
 70
     8
 71
     3
 72
     8
 73
     4
 74
     0
 42
0.0000000001
 43
0.0000000001
 40
0.0
 40
0.0
 40
0.0
 40
0.0
 40
1.0
 40
1.0
 40
1.0
 40
1.0
 10
1.9269
 20
31.1591
 30
0.0
 10
1.9252
 20
31.2442
 30
0.0
 10
1.9252
 20
31.3292
 30
0.0
 10
1.9269
 20
31.4144
 30
0.0
  0
SPLINE
  5
21D
330
1F
100
AcDbEntity
  8
DEFAULT_1
 62
   250
100
AcDbSpline
210
0.0
220
0.0
230
1.0
 70
     8
 71
     3
 72
     8
 73
     4
 74
     0
 42
0.0000000001
 43
0.0000000001
 40
0.0
 40
0.0
 40
0.0
 40
0.0
 40
1.0
 40
1.0
 40
1.0
 40
1.0
 10
2.3523
 20
31.4144
 30
0.0
 10
2.354
 20
31.3292
 30
0.0
 10
2.354
 20
31.2442
 30
0.0
 10
2.3523
 20
31.1591
 30
0.0
  0
SPLINE
  5
21E
330
1F
100
AcDbEntity
  8
DEFAULT_1
 62
   250
100
AcDbSpline
210
0.0
220
0.0
230
1.0
 70
     8
 71
     3
 72
     8
 73
     4
 74
     0
 42
0.0000000001
 43
0.0000000001
 40
0.0
 40
0.0
 40
0.0
 40
0.0
 40
1.0
 40
1.0
 40
1.0
 40
1.0
 10
2.3523
 20
30.4783
 30
0.0
 10
2.354
 20
30.5635
 30
0.0
 10
2.354
 20
30.6486
 30
0.0
 10
2.3523
 20
30.7336
 30
0.0
  0
SPLINE
  5
21F
330
1F
100
AcDbEntity
  8
DEFAULT_1
 62
   250
100
AcDbSpline
210
0.0
220
0.0
230
1.0
 70
     8
 71
     3
 72
     8
 73
     4
 74
     0
 42
0.0000000001
 43
0.0000000001
 40
0.0
 40
0.0
 40
0.0
 40
0.0
 40
1.0
 40
1.0
 40
1.0
 40
1.0
 10
2.3523
 20
20.9486
 30
0.0
 10
2.354
 20
21.0337
 30
0.0
 10
2.354
 20
21.1188
 30
0.0
 10
2.3523
 20
21.2039
 30
0.0
  0
SPLINE
  5
220
330
1F
100
AcDbEntity
  8
DEFAULT_1
 62
   250
100
AcDbSpline
210
0.0
220
0.0
230
1.0
 70
     8
 71
     3
 72
     8
 73
     4
 74
     0
 42
0.0000000001
 43
0.0000000001
 40
0.0
 40
0.0
 40
0.0
 40
0.0
 40
1.0
 40
1.0
 40
1.0
 40
1.0
 10
2.3523
 20
21.8846
 30
0.0
 10
2.354
 20
21.7995
 30
0.0
 10
2.354
 20
21.7145
 30
0.0
 10
2.3523
 20
21.6294
 30
0.0
  0
SPLINE
  5
221
330
1F
100
AcDbEntity
  8
DEFAULT_1
 62
   250
100
AcDbSpline
210
0.0
220
0.0
230
1.0
 70
     8
 71
     3
 72
     8
 73
     4
 74
     0
 42
0.0000000001
 43
0.0000000001
 40
0.0
 40
0.0
 40
0.0
 40
0.0
 40
1.0
 40
1.0
 40
1.0
 40
1.0
 10
2.3523
 20
22.5653
 30
0.0
 10
2.354
 20
22.4802
 30
0.0
 10
2.354
 20
22.3951
 30
0.0
 10
2.3523
 20
22.31
 30
0.0
  0
SPLINE
  5
222
330
1F
100
AcDbEntity
  8
DEFAULT_1
 62
   250
100
AcDbSpline
210
0.0
220
0.0
230
1.0
 70
     8
 71
     3
 72
     8
 73
     4
 74
     0
 42
0.0000000001
 43
0.0000000001
 40
0.0
 40
0.0
 40
0.0
 40
0.0
 40
1.0
 40
1.0
 40
1.0
 40
1.0
 10
2.3523
 20
30.0529
 30
0.0
 10
2.354
 20
29.9679
 30
0.0
 10
2.354
 20
29.8827
 30
0.0
 10
2.3523
 20
29.7977
 30
0.0
  0
SPLINE
  5
223
330
1F
100
AcDbEntity
  8
DEFAULT_1
 62
   250
100
AcDbSpline
210
0.0
220
0.0
230
1.0
 70
     8
 71
     3
 72
     8
 73
     4
 74
     0
 42
0.0000000001
 43
0.0000000001
 40
0.0
 40
0.0
 40
0.0
 40
0.0
 40
1.0
 40
1.0
 40
1.0
 40
1.0
 10
2.3523
 20
29.117
 30
0.0
 10
2.354
 20
29.2021
 30
0.0
 10
2.354
 20
29.2872
 30
0.0
 10
2.3523
 20
29.3723
 30
0.0
  0
SPLINE
  5
224
330
1F
100
AcDbEntity
  8
DEFAULT_1
 62
   250
100
AcDbSpline
210
0.0
220
0.0
230
1.0
 70
     8
 71
     3
 72
     8
 73
     4
 74
     0
 42
0.0000000001
 43
0.0000000001
 40
0.0
 40
0.0
 40
0.0
 40
0.0
 40
1.0
 40
1.0
 40
1.0
 40
1.0
 10
2.3523
 20
28.4363
 30
0.0
 10
2.354
 20
28.5214
 30
0.0
 10
2.354
 20
28.6065
 30
0.0
 10
2.3523
 20
28.6916
 30
0.0
  0
SPLINE
  5
225
330
1F
100
AcDbEntity
  8
DEFAULT_1
 62
   250
100
AcDbSpline
210
0.0
220
0.0
230
1.0
 70
     8
 71
     3
 72
     8
 73
     4
 74
     0
 42
0.0000000001
 43
0.0000000001
 40
0.0
 40
0.0
 40
0.0
 40
0.0
 40
1.0
 40
1.0
 40
1.0
 40
1.0
 10
2.3523
 20
28.0108
 30
0.0
 10
2.354
 20
27.9258
 30
0.0
 10
2.354
 20
27.8408
 30
0.0
 10
2.3523
 20
27.7556
 30
0.0
  0
SPLINE
  5
226
330
1F
100
AcDbEntity
  8
DEFAULT_1
 62
   250
100
AcDbSpline
210
0.0
220
0.0
230
1.0
 70
     8
 71
     3
 72
     8
 73
     4
 74
     0
 42
0.0000000001
 43
0.0000000001
 40
0.0
 40
0.0
 40
0.0
 40
0.0
 40
1.0
 40
1.0
 40
1.0
 40
1.0
 10
2.3523
 20
27.0749
 30
0.0
 10
2.354
 20
27.16
 30
0.0
 10
2.354
 20
27.2451
 30
0.0
 10
2.3523
 20
27.3302
 30
0.0
  0
SPLINE
  5
227
330
1F
100
AcDbEntity
  8
DEFAULT_1
 62
   250
100
AcDbSpline
210
0.0
220
0.0
230
1.0
 70
     8
 71
     3
 72
     8
 73
     4
 74
     0
 42
0.0000000001
 43
0.0000000001
 40
0.0
 40
0.0
 40
0.0
 40
0.0
 40
1.0
 40
1.0
 40
1.0
 40
1.0
 10
2.3523
 20
26.3942
 30
0.0
 10
2.354
 20
26.4793
 30
0.0
 10
2.354
 20
26.5643
 30
0.0
 10
2.3523
 20
26.6495
 30
0.0
  0
SPLINE
  5
228
330
1F
100
AcDbEntity
  8
DEFAULT_1
 62
   250
100
AcDbSpline
210
0.0
220
0.0
230
1.0
 70
     8
 71
     3
 72
     8
 73
     4
 74
     0
 42
0.0000000001
 43
0.0000000001
 40
0.0
 40
0.0
 40
0.0
 40
0.0
 40
1.0
 40
1.0
 40
1.0
 40
1.0
 10
2.3523
 20
24.6074
 30
0.0
 10
2.354
 20
24.5223
 30
0.0
 10
2.354
 20
24.4372
 30
0.0
 10
2.3523
 20
24.3522
 30
0.0
  0
SPLINE
  5
229
330
1F
100
AcDbEntity
  8
DEFAULT_1
 62
   250
100
AcDbSpline
210
0.0
220
0.0
230
1.0
 70
     8
 71
     3
 72
     8
 73
     4
 74
     0
 42
0.0000000001
 43
0.0000000001
 40
0.0
 40
0.0
 40
0.0
 40
0.0
 40
1.0
 40
1.0
 40
1.0
 40
1.0
 10
2.3523
 20
23.6714
 30
0.0
 10
2.354
 20
23.7566
 30
0.0
 10
2.354
 20
23.8416
 30
0.0
 10
2.3523
 20
23.9268
 30
0.0
  0
SPLINE
  5
22A
330
1F
100
AcDbEntity
  8
DEFAULT_1
 62
   250
100
AcDbSpline
210
0.0
220
0.0
230
1.0
 70
     8
 71
     3
 72
     8
 73
     4
 74
     0
 42
0.0000000001
 43
0.0000000001
 40
0.0
 40
0.0
 40
0.0
 40
0.0
 40
1.0
 40
1.0
 40
1.0
 40
1.0
 10
2.3523
 20
22.9908
 30
0.0
 10
2.354
 20
23.0759
 30
0.0
 10
2.354
 20
23.1608
 30
0.0
 10
2.3523
 20
23.246
 30
0.0
  0
SPLINE
  5
22B
330
1F
100
AcDbEntity
  8
DEFAULT_1
 62
   250
100
AcDbSpline
210
0.0
220
0.0
230
1.0
 70
     8
 71
     3
 72
     8
 73
     4
 74
     0
 42
0.0000000001
 43
0.0000000001
 40
0.0
 40
0.0
 40
0.0
 40
0.0
 40
1.0
 40
1.0
 40
1.0
 40
1.0
 10
2.3523
 20
25.2881
 30
0.0
 10
2.354
 20
25.203
 30
0.0
 10
2.354
 20
25.1179
 30
0.0
 10
2.3523
 20
25.0328
 30
0.0
  0
SPLINE
  5
22C
330
1F
100
AcDbEntity
  8
DEFAULT_1
 62
   250
100
AcDbSpline
210
0.0
220
0.0
230
1.0
 70
     8
 71
     3
 72
     8
 73
     4
 74
     0
 42
0.0000000001
 43
0.0000000001
 40
0.0
 40
0.0
 40
0.0
 40
0.0
 40
1.0
 40
1.0
 40
1.0
 40
1.0
 10
1.9269
 20
20.5232
 30
0.0
 10
1.9252
 20
20.4381
 30
0.0
 10
1.9252
 20
20.3531
 30
0.0
 10
1.9269
 20
20.2679
 30
0.0
  0
ENDSEC
  0
SECTION
  2
OBJECTS
  0
DICTIONARY
  5
C
330
0
100
AcDbDictionary
  3
ACAD_GROUP
350
D
  3
ACAD_LAYOUT
350
1A
  3
ACAD_MATERIAL
350
3B
  3
ACAD_MLEADERSTYLE
350
24F
  3
ACAD_MLINESTYLE
350
17
  3
ACAD_PLOTSETTINGS
350
19
  3
ACAD_VISUALSTYLE
350
2A
  3
ACDBHEADERROUNDTRIPXREC
350
22D
  3
ACDBVARIABLEDICTIONARY
350
24D
  0
DICTIONARY
  5
D
102
{ACAD_REACTORS
330
C
102
}
330
C
100
AcDbDictionary
  0
DICTIONARY
  5
1A
102
{ACAD_REACTORS
330
C
102
}
330
C
100
AcDbDictionary
  0
DICTIONARY
  5
3B
102
{ACAD_REACTORS
330
C
102
}
330
C
100
AcDbDictionary
  3
BYBLOCK
350
3D
  3
BYLAYER
350
3C
  3
GLOBAL
350
3E
  0
DICTIONARY
  5
24F
102
{ACAD_REACTORS
330
C
102
}
330
C
100
AcDbDictionary
  0
DICTIONARY
  5
17
102
{ACAD_REACTORS
330
C
102
}
330
C
100
AcDbDictionary
  3
STANDARD
350
18
  0
DICTIONARY
  5
19
102
{ACAD_REACTORS
330
C
102
}
330
C
100
AcDbDictionary
  0
DICTIONARY
  5
2A
102
{ACAD_REACTORS
330
C
102
}
330
C
100
AcDbDictionary
  3
2DWIREFRAME
350
2F
  3
3D_HIDDEN
350
31
  3
3DWIREFRAME
350
30
  3
BASIC
350
32
  3
BRIGHTEN
350
36
  3
COLORCHANGE
350
3A
  3
CONCEPTUAL
350
34
  3
DIM
350
35
  3
FACEPATTERN
350
39
  3
FLAT
350
2B
  3
FLATWITHEDGES
350
2C
  3
GOURAUD
350
2D
  3
GOURAUDWITHEDGES
350
2E
  3
LINEPATTERN
350
38
  3
REALISTIC
350
33
  3
THICKEN
350
37
  0
DICTIONARY
  5
22D
102
{ACAD_REACTORS
330
C
102
}
330
C
100
AcDbDictionary
  3
CEPSNTYPE
350
236
  3
DIMSTYLEDATA
350
24C
  3
FINGERPRINTGUID
350
237
  3
HYPERLINKBASE
350
230
  3
INSUNITS
350
235
  3
LAYOUTDICT
350
232
  3
LWETCUNION
350
234
  3
PLOTSETDICT
350
233
  3
PSVPSCALE
350
239
  3
PUCSBASE
350
23C
  3
PUCSORGBACK
350
242
  3
PUCSORGBOTTOM
350
23E
  3
PUCSORGFRONT
350
241
  3
PUCSORGLEFT
350
23F
  3
PUCSORGRIGHT
350
240
  3
PUCSORGTOP
350
23D
  3
PUCSORTHOREF
350
23A
  3
PUCSORTHOVIEW
350
23B
  3
STYLESHEET
350
231
  3
TSTACKALIGN
350
22E
  3
TSTACKSIZE
350
22F
  3
UCSBASE
350
245
  3
UCSORGBACK
350
24B
  3
UCSORGBOTTOM
350
247
  3
UCSORGFRONT
350
24A
  3
UCSORGLEFT
350
248
  3
UCSORGRIGHT
350
249
  3
UCSORGTOP
350
246
  3
UCSORTHOREF
350
243
  3
UCSORTHOVIEW
350
244
  3
VERSIONGUID
350
238
  0
DICTIONARY
  5
24D
102
{ACAD_REACTORS
330
C
102
}
330
C
100
AcDbDictionary
  3
DIMASSOC
350
250
  3
HIDETEXT
350
251
  0
MATERIAL
  5
3D
102
{ACAD_REACTORS
330
3B
102
}
102
{ACAD_XDICTIONARY
360
254
102
}
330
3B
100
AcDbMaterial
  1
ByBlock
  0
MATERIAL
  5
3C
102
{ACAD_REACTORS
330
3B
102
}
102
{ACAD_XDICTIONARY
360
252
102
}
330
3B
100
AcDbMaterial
  1
ByLayer
  0
MATERIAL
  5
3E
102
{ACAD_REACTORS
330
3B
102
}
102
{ACAD_XDICTIONARY
360
256
102
}
330
3B
100
AcDbMaterial
  1
Global
  0
MLINESTYLE
  5
18
102
{ACAD_REACTORS
330
17
102
}
330
17
100
AcDbMlineStyle
  2
Standard
 70
     0
  3

 62
   256
 51
90.0
 52
90.0
 71
     2
 49
0.5
 62
   256
  6
BYLAYER
 49
-0.5
 62
   256
  6
BYLAYER
  0
ACAD_PROXY_OBJECT
  5
2F
102
{ACAD_REACTORS
330
2A
102
}
330
2A
100
AcDbProxyObject
 90
      499
 91
      501
 93
      436
310
42CC9915DA5C99599C985B595049028333333333333E3BF0000000000000FB0107901411070040501600405405064090741402480A0340
1001
ACAD
1000
AcDbSavedByObjectVersion
1070
     0
  0
ACAD_PROXY_OBJECT
  5
31
102
{ACAD_REACTORS
330
2A
102
}
330
2A
100
AcDbProxyObject
 90
      499
 91
      501
 93
      500
310
424CD108121A5919195B90640502408333333333333E3BF0000000000000FB01079024090700405020000000000001110200405405064090740C02480A0340
1001
ACAD
1000
AcDbSavedByObjectVersion
1070
     0
  0
ACAD_PROXY_OBJECT
  5
30
102
{ACAD_REACTORS
330
2A
102
}
330
2A
100
AcDbProxyObject
 90
      499
 91
      501
 93
      436
310
42CCD915DA5C99599C985B595059028333333333333E3BF0000000000000FB0107901411070040501600405405064090741402480A0340
1001
ACAD
1000
AcDbSavedByObjectVersion
1070
     0
  0
ACAD_PROXY_OBJECT
  5
32
102
{ACAD_REACTORS
330
2A
102
}
330
2A
100
AcDbProxyObject
 90
      499
 91
      501
 93
      388
310
4150985CDA58D07406404333333333333E3BF0000000000000FB0107A41107004050150841D405064090741402480A0350
1001
ACAD
1000
AcDbSavedByObjectVersion
1070
     0
  0
ACAD_PROXY_OBJECT
  5
36
102
{ACAD_REACTORS
330
2A
102
}
330
2A
100
AcDbProxyObject
 90
      499
 91
      501
 93
      428
310
42109C9A59DA1D195B90C409028333333333333E3BF0000000000000FB010790141107004050150841D405064090741402480A029950
1001
ACAD
1000
AcDbSavedByObjectVersion
1070
     0
  0
ACAD_PROXY_OBJECT
  5
3A
102
{ACAD_REACTORS
330
2A
102
}
330
2A
100
AcDbProxyObject
 90
      499
 91
      501
 93
      452
310
42D0DBDB1BDC90DA185B99D95104090240C333333333333E3BF0000000000000FB0108901411070040501508421405064090741402480A0350
1001
ACAD
1000
AcDbSavedByObjectVersion
1070
     0
  0
ACAD_PROXY_OBJECT
  5
34
102
{ACAD_REACTORS
330
2A
102
}
330
2A
100
AcDbProxyObject
 90
      499
 91
      501
 93
      500
310
4290DBDB98D95C1D1D585B10940D028333333333333E3BF0000000000000FB0107902409070040501000000000000111010841D405064090740C02480A0340
1001
ACAD
1000
AcDbSavedByObjectVersion
1070
     0
  0
ACAD_PROXY_OBJECT
  5
35
102
{ACAD_REACTORS
330
2A
102
}
330
2A
100
AcDbProxyObject
 90
      499
 91
      501
 93
      412
310
40D11A5B50B409028333333333333E3BF0000000000000FB010790141107004050150841D405064090741402480A02677FFFFFD0
1001
ACAD
1000
AcDbSavedByObjectVersion
1070
     0
  0
ACAD_PROXY_OBJECT
  5
39
102
{ACAD_REACTORS
330
2A
102
}
330
2A
100
AcDbProxyObject
 90
      499
 91
      501
 93
      444
310
42D19858D95C185D1D195C9B90F409028333333333333E3BF0000000000000FB010790141107004050150841D405064090741402480A0350
1001
ACAD
1000
AcDbSavedByObjectVersion
1070
     0
  0
ACAD_PROXY_OBJECT
  5
2B
102
{ACAD_REACTORS
330
2A
102
}
330
2A
100
AcDbProxyObject
 90
      499
 91
      501
 93
      388
310
41119B185D240901404333333333333E3BF0000000000000F9010740A41107004050150841D405064090741402480A1B50
1001
ACAD
1000
AcDbSavedByObjectVersion
1070
     0
  0
ACAD_PROXY_OBJECT
  5
2C
102
{ACAD_REACTORS
330
2A
102
}
330
2A
100
AcDbProxyObject
 90
      499
 91
      501
 93
      476
310
43519B185D15DA5D1A115919D95CD0140901404333333333333E3BF0000000000000F9010740901411070040501600405405064090741402480A1B50
1001
ACAD
1000
AcDbSavedByObjectVersion
1070
     0
  0
ACAD_PROXY_OBJECT
  5
2D
102
{ACAD_REACTORS
330
2A
102
}
330
2A
100
AcDbProxyObject
 90
      499
 91
      501
 93
      412
310
41D1DBDD5C985D5910240902404333333333333E3BF0000000000000F9010740A411070040501641D405064090741402480A1B50
1001
ACAD
1000
AcDbSavedByObjectVersion
1070
     0
  0
ACAD_PROXY_OBJECT
  5
2E
102
{ACAD_REACTORS
330
2A
102
}
330
2A
100
AcDbProxyObject
 90
      499
 91
      501
 93
      500
310
4411DBDD5C985D5915DA5D1A115919D95CD0340902404333333333333E3BF0000000000000F9010740901411070040501600405405064090741402480A1B50
1001
ACAD
1000
AcDbSavedByObjectVersion
1070
     0
  0
ACAD_PROXY_OBJECT
  5
38
102
{ACAD_REACTORS
330
2A
102
}
330
2A
100
AcDbProxyObject
 90
      499
 91
      501
 93
      444
310
42D31A5B995C185D1D195C9B90E409028333333333333E3BF0000000000000FB010790141107004050750841D405064090741402483A0350
1001
ACAD
1000
AcDbSavedByObjectVersion
1070
     0
  0
ACAD_PROXY_OBJECT
  5
33
102
{ACAD_REACTORS
330
2A
102
}
330
2A
100
AcDbProxyObject
 90
      499
 91
      501
 93
      420
310
425499585B1A5CDD1A58D08409028333333333333E3BF0000000000000FB01079019070040501508421405064090741402480A1B40
1001
ACAD
1000
AcDbSavedByObjectVersion
1070
     0
  0
ACAD_PROXY_OBJECT
  5
37
102
{ACAD_REACTORS
330
2A
102
}
330
2A
100
AcDbProxyObject
 90
      499
 91
      501
 93
      412
310
41D51A1A58DAD95B90D409028333333333333E3BF0000000000000FB010790141107004050150C41D405064090741402480A0350
1001
ACAD
1000
AcDbSavedByObjectVersion
1070
     0
  0
XRECORD
  5
236
102
{ACAD_REACTORS
330
22D
102
}
330
22D
100
AcDbXrecord
 90
        0
  0
XRECORD
  5
24C
102
{ACAD_REACTORS
330
22D
102
}
330
22D
100
AcDbXrecord
1000
DSTYLE
1002
{
1070
   340
340
11
1002
}
  0
XRECORD
  5
237
102
{ACAD_REACTORS
330
22D
102
}
330
22D
100
AcDbXrecord
  1
{1879052D-152E-43BF-9556-FB82E985BF70}
  0
XRECORD
  5
230
102
{ACAD_REACTORS
330
22D
102
}
330
22D
100
AcDbXrecord
  1

  0
XRECORD
  5
235
102
{ACAD_REACTORS
330
22D
102
}
330
22D
100
AcDbXrecord
 90
        4
  0
XRECORD
  5
232
102
{ACAD_REACTORS
330
22D
102
}
330
22D
100
AcDbXrecord
340
1A
  0
XRECORD
  5
234
102
{ACAD_REACTORS
330
22D
102
}
330
22D
100
AcDbXrecord
 90
    10781
  0
XRECORD
  5
233
102
{ACAD_REACTORS
330
22D
102
}
330
22D
100
AcDbXrecord
340
19
  0
XRECORD
  5
239
102
{ACAD_REACTORS
330
22D
102
}
330
22D
100
AcDbXrecord
 40
0.0
  0
XRECORD
  5
23C
102
{ACAD_REACTORS
330
22D
102
}
330
22D
100
AcDbXrecord
340
0
  0
XRECORD
  5
242
102
{ACAD_REACTORS
330
22D
102
}
330
22D
100
AcDbXrecord
 10
0.0
 20
0.0
 30
0.0
  0
XRECORD
  5
23E
102
{ACAD_REACTORS
330
22D
102
}
330
22D
100
AcDbXrecord
 10
0.0
 20
0.0
 30
0.0
  0
XRECORD
  5
241
102
{ACAD_REACTORS
330
22D
102
}
330
22D
100
AcDbXrecord
 10
0.0
 20
0.0
 30
0.0
  0
XRECORD
  5
23F
102
{ACAD_REACTORS
330
22D
102
}
330
22D
100
AcDbXrecord
 10
0.0
 20
0.0
 30
0.0
  0
XRECORD
  5
240
102
{ACAD_REACTORS
330
22D
102
}
330
22D
100
AcDbXrecord
 10
0.0
 20
0.0
 30
0.0
  0
XRECORD
  5
23D
102
{ACAD_REACTORS
330
22D
102
}
330
22D
100
AcDbXrecord
 10
0.0
 20
0.0
 30
0.0
  0
XRECORD
  5
23A
102
{ACAD_REACTORS
330
22D
102
}
330
22D
100
AcDbXrecord
340
0
  0
XRECORD
  5
23B
102
{ACAD_REACTORS
330
22D
102
}
330
22D
100
AcDbXrecord
 70
     0
  0
XRECORD
  5
231
102
{ACAD_REACTORS
330
22D
102
}
330
22D
100
AcDbXrecord
  1

  0
XRECORD
  5
22E
102
{ACAD_REACTORS
330
22D
102
}
330
22D
100
AcDbXrecord
 90
        1
  0
XRECORD
  5
22F
102
{ACAD_REACTORS
330
22D
102
}
330
22D
100
AcDbXrecord
 90
       70
  0
XRECORD
  5
245
102
{ACAD_REACTORS
330
22D
102
}
330
22D
100
AcDbXrecord
340
0
  0
XRECORD
  5
24B
102
{ACAD_REACTORS
330
22D
102
}
330
22D
100
AcDbXrecord
 10
0.0
 20
0.0
 30
0.0
  0
XRECORD
  5
247
102
{ACAD_REACTORS
330
22D
102
}
330
22D
100
AcDbXrecord
 10
0.0
 20
0.0
 30
0.0
  0
XRECORD
  5
24A
102
{ACAD_REACTORS
330
22D
102
}
330
22D
100
AcDbXrecord
 10
0.0
 20
0.0
 30
0.0
  0
XRECORD
  5
248
102
{ACAD_REACTORS
330
22D
102
}
330
22D
100
AcDbXrecord
 10
0.0
 20
0.0
 30
0.0
  0
XRECORD
  5
249
102
{ACAD_REACTORS
330
22D
102
}
330
22D
100
AcDbXrecord
 10
0.0
 20
0.0
 30
0.0
  0
XRECORD
  5
246
102
{ACAD_REACTORS
330
22D
102
}
330
22D
100
AcDbXrecord
 10
0.0
 20
0.0
 30
0.0
  0
XRECORD
  5
243
102
{ACAD_REACTORS
330
22D
102
}
330
22D
100
AcDbXrecord
340
0
  0
XRECORD
  5
244
102
{ACAD_REACTORS
330
22D
102
}
330
22D
100
AcDbXrecord
 70
     0
  0
XRECORD
  5
238
102
{ACAD_REACTORS
330
22D
102
}
330
22D
100
AcDbXrecord
  1
{FAEB1C32-E019-11D5-929B-00C0DF256EC4}
  0
DICTIONARYVAR
  5
250
102
{ACAD_REACTORS
330
24D
102
}
330
24D
100
DictionaryVariables
280
     0
  1
2
  0
DICTIONARYVAR
  5
251
102
{ACAD_REACTORS
330
24D
102
}
330
24D
100
DictionaryVariables
280
     0
  1
1
  0
DICTIONARY
  5
254
330
3D
100
AcDbDictionary
280
     1
  3
ACAD_XREC_ROUNDTRIP
360
255
  0
DICTIONARY
  5
252
330
3C
100
AcDbDictionary
280
     1
  3
ACAD_XREC_ROUNDTRIP
360
253
  0
DICTIONARY
  5
256
330
3E
100
AcDbDictionary
280
     1
  3
ACAD_XREC_ROUNDTRIP
360
257
  0
XRECORD
  5
255
102
{ACAD_REACTORS
330
254
102
}
330
254
100
AcDbXrecord
102
MATERIAL
148
0.0
149
0.0
149
0.0
 93
        0
 94
      127
282
     0
 72
     1
 77
     1
171
     1
175
     1
179
     1
273
     0
  0
XRECORD
  5
253
102
{ACAD_REACTORS
330
252
102
}
330
252
100
AcDbXrecord
102
MATERIAL
148
0.0
149
0.0
149
0.0
 93
        0
 94
      127
282
     0
 72
     1
 77
     1
171
     1
175
     1
179
     1
273
     0
  0
XRECORD
  5
257
102
{ACAD_REACTORS
330
256
102
}
330
256
100
AcDbXrecord
102
MATERIAL
148
0.0
149
0.0
149
0.0
 93
        0
 94
      127
282
     0
 72
     1
 77
     1
171
     1
175
     1
179
     1
273
     0
  0
ENDSEC
  0
EOF
