  0
SECTION
  2
HEADER
  9
$ACADVER
  1
AC1014
  9
$ACADMAINTVER
 70
     9
  9
$DWGCODEPAGE
  3
ANSI_1250
  9
$INSBASE
 10
0.0
 20
0.0
 30
0.0
  9
$EXTMIN
 10
-24.8097
 20
-29.4145
 30
0.0
  9
$EXTMAX
 10
24.8124
 20
29.4146
 30
0.0
  9
$LIMMIN
 10
0.0
 20
0.0
  9
$LIMMAX
 10
12.0
 20
9.0
  9
$ORTHOMODE
 70
     0
  9
$REGENMODE
 70
     1
  9
$FILLMODE
 70
     1
  9
$QTEXTMODE
 70
     0
  9
$MIRRTEXT
 70
     1
  9
$DRAGMODE
 70
     2
  9
$LTSCALE
 40
1.0
  9
$OSMODE
 70
    37
  9
$ATTMODE
 70
     1
  9
$TEXTSIZE
 40
0.2
  9
$TRACEWID
 40
0.05
  9
$TEXTSTYLE
  7
STANDARD
  9
$CLAYER
  8
0
  9
$CELTYPE
  6
BYLAYER
  9
$CECOLOR
 62
   256
  9
$CELTSCALE
 40
1.0
  9
$DELOBJ
 70
     1
  9
$DISPSILH
 70
     0
  9
$DIMSCALE
 40
1.0
  9
$DIMASZ
 40
0.18
  9
$DIMEXO
 40
0.0625
  9
$DIMDLI
 40
0.38
  9
$DIMRND
 40
0.0
  9
$DIMDLE
 40
0.0
  9
$DIMEXE
 40
0.18
  9
$DIMTP
 40
0.0
  9
$DIMTM
 40
0.0
  9
$DIMTXT
 40
0.18
  9
$DIMCEN
 40
0.09
  9
$DIMTSZ
 40
0.0
  9
$DIMTOL
 70
     0
  9
$DIMLIM
 70
     0
  9
$DIMTIH
 70
     1
  9
$DIMTOH
 70
     1
  9
$DIMSE1
 70
     0
  9
$DIMSE2
 70
     0
  9
$DIMTAD
 70
     0
  9
$DIMZIN
 70
     0
  9
$DIMBLK
  1

  9
$DIMASO
 70
     1
  9
$DIMSHO
 70
     1
  9
$DIMPOST
  1

  9
$DIMAPOST
  1

  9
$DIMALT
 70
     0
  9
$DIMALTD
 70
     2
  9
$DIMALTF
 40
25.4
  9
$DIMLFAC
 40
1.0
  9
$DIMTOFL
 70
     0
  9
$DIMTVP
 40
0.0
  9
$DIMTIX
 70
     0
  9
$DIMSOXD
 70
     0
  9
$DIMSAH
 70
     0
  9
$DIMBLK1
  1

  9
$DIMBLK2
  1

  9
$DIMSTYLE
  2
STANDARD
  9
$DIMCLRD
 70
     0
  9
$DIMCLRE
 70
     0
  9
$DIMCLRT
 70
     0
  9
$DIMTFAC
 40
1.0
  9
$DIMGAP
 40
0.09
  9
$DIMJUST
 70
     0
  9
$DIMSD1
 70
     0
  9
$DIMSD2
 70
     0
  9
$DIMTOLJ
 70
     1
  9
$DIMTZIN
 70
     0
  9
$DIMALTZ
 70
     0
  9
$DIMALTTZ
 70
     0
  9
$DIMFIT
 70
     3
  9
$DIMUPT
 70
     0
  9
$DIMUNIT
 70
     2
  9
$DIMDEC
 70
     4
  9
$DIMTDEC
 70
     4
  9
$DIMALTU
 70
     2
  9
$DIMALTTD
 70
     2
  9
$DIMTXSTY
  7
STANDARD
  9
$DIMAUNIT
 70
     0
  9
$LUNITS
 70
     2
  9
$LUPREC
 70
     4
  9
$SKETCHINC
 40
0.1
  9
$FILLETRAD
 40
0.5
  9
$AUNITS
 70
     0
  9
$AUPREC
 70
     0
  9
$MENU
  1
.
  9
$ELEVATION
 40
0.0
  9
$PELEVATION
 40
0.0
  9
$THICKNESS
 40
0.0
  9
$LIMCHECK
 70
     0
  9
$CHAMFERA
 40
0.5
  9
$CHAMFERB
 40
0.5
  9
$CHAMFERC
 40
1.0
  9
$CHAMFERD
 40
0.0
  9
$SKPOLY
 70
     0
  9
$TDCREATE
 40
2456232.485583148
  9
$TDUPDATE
 40
2456232.48558316
  9
$TDINDWG
 40
0.0000000116
  9
$TDUSRTIMER
 40
0.0000000116
  9
$USRTIMER
 70
     1
  9
$ANGBASE
 50
0.0
  9
$ANGDIR
 70
     0
  9
$PDMODE
 70
     0
  9
$PDSIZE
 40
0.0
  9
$PLINEWID
 40
0.0
  9
$COORDS
 70
     1
  9
$SPLFRAME
 70
     0
  9
$SPLINETYPE
 70
     6
  9
$SPLINESEGS
 70
     8
  9
$ATTDIA
 70
     0
  9
$ATTREQ
 70
     1
  9
$HANDLING
 70
     1
  9
$HANDSEED
  5
111
  9
$SURFTAB1
 70
     6
  9
$SURFTAB2
 70
     6
  9
$SURFTYPE
 70
     6
  9
$SURFU
 70
     6
  9
$SURFV
 70
     6
  9
$UCSNAME
  2

  9
$UCSORG
 10
0.0
 20
0.0
 30
0.0
  9
$UCSXDIR
 10
1.0
 20
0.0
 30
0.0
  9
$UCSYDIR
 10
0.0
 20
1.0
 30
0.0
  9
$PUCSNAME
  2

  9
$PUCSORG
 10
0.0
 20
0.0
 30
0.0
  9
$PUCSXDIR
 10
1.0
 20
0.0
 30
0.0
  9
$PUCSYDIR
 10
0.0
 20
1.0
 30
0.0
  9
$USERI1
 70
     0
  9
$USERI2
 70
     0
  9
$USERI3
 70
     0
  9
$USERI4
 70
     0
  9
$USERI5
 70
     0
  9
$USERR1
 40
0.0
  9
$USERR2
 40
0.0
  9
$USERR3
 40
0.0
  9
$USERR4
 40
0.0
  9
$USERR5
 40
0.0
  9
$WORLDVIEW
 70
     1
  9
$SHADEDGE
 70
     3
  9
$SHADEDIF
 70
    70
  9
$TILEMODE
 70
     1
  9
$MAXACTVP
 70
    64
  9
$PINSBASE
 10
0.0
 20
0.0
 30
0.0
  9
$PLIMCHECK
 70
     0
  9
$PEXTMIN
 10
1.000000000000000E+20
 20
1.000000000000000E+20
 30
1.000000000000000E+20
  9
$PEXTMAX
 10
-1.000000000000000E+20
 20
-1.000000000000000E+20
 30
-1.000000000000000E+20
  9
$PLIMMIN
 10
0.0
 20
0.0
  9
$PLIMMAX
 10
12.0
 20
9.0
  9
$UNITMODE
 70
     0
  9
$VISRETAIN
 70
     1
  9
$PLINEGEN
 70
     0
  9
$PSLTSCALE
 70
     1
  9
$TREEDEPTH
 70
  3020
  9
$PICKSTYLE
 70
     1
  9
$CMLSTYLE
  2
STANDARD
  9
$CMLJUST
 70
     0
  9
$CMLSCALE
 40
1.0
  9
$PROXYGRAPHICS
 70
     1
  9
$MEASUREMENT
 70
     0
  0
ENDSEC
  0
SECTION
  2
CLASSES
  0
CLASS
  1
ACDBDICTIONARYWDFLT
  2
AcDbDictionaryWithDefault
  3
ObjectDBX Classes
 90
        0
280
     0
281
     0
  0
CLASS
  1
VISUALSTYLE
  2
AcDbVisualStyle
  3
ObjectDBX Classes
 90
     4095
280
     0
281
     0
  0
CLASS
  1
MATERIAL
  2
AcDbMaterial
  3
ObjectDBX Classes
 90
     1153
280
     0
281
     0
  0
CLASS
  1
DICTIONARYVAR
  2
AcDbDictionaryVar
  3
ObjectDBX Classes
 90
        0
280
     0
281
     0
  0
CLASS
  1
XRECORD
  2
AcDbXrecord
  3
AutoCAD 2000
 90
        0
280
     0
281
     0
  0
CLASS
  1
LWPOLYLINE
  2
AcDbPolyline
  3
AutoCAD 2000
 90
        0
280
     0
281
     1
  0
CLASS
  1
HATCH
  2
AcDbHatch
  3
AutoCAD 2000
 90
        0
280
     0
281
     1
  0
CLASS
  1
ACDBPLACEHOLDER
  2
AcDbPlaceHolder
  3
ObjectDBX Classes
 90
        0
280
     0
281
     0
  0
CLASS
  1
LAYOUT
  2
AcDbLayout
  3
ObjectDBX Classes
 90
        0
280
     0
281
     0
  0
ENDSEC
  0
SECTION
  2
TABLES
  0
TABLE
  2
VPORT
  5
8
330
0
100
AcDbSymbolTable
 70
     1
  0
VPORT
  5
29
330
8
100
AcDbSymbolTableRecord
100
AcDbViewportTableRecord
  2
*ACTIVE
 70
     0
 10
0.0
 20
0.0
 11
1.0
 21
1.0
 12
10.42990654205607
 22
4.5
 13
0.0
 23
0.0
 14
0.5
 24
0.5
 15
0.5
 25
0.5
 16
0.0
 26
0.0
 36
1.0
 17
0.0
 27
0.0
 37
0.0
 40
9.0
 41
1.972972972850329
 42
50.0
 43
0.0
 44
0.0
 50
0.0
 51
0.0
 71
     0
 72
   100
 73
     1
 74
     3
 75
     0
 76
     0
 77
     0
 78
     0
  0
ENDTAB
  0
TABLE
  2
LTYPE
  5
5
330
0
100
AcDbSymbolTable
 70
     5
  0
LTYPE
  5
14
330
5
100
AcDbSymbolTableRecord
100
AcDbLinetypeTableRecord
  2
BYBLOCK
 70
     0
  3

 72
    65
 73
     0
 40
0.0
  0
LTYPE
  5
15
330
5
100
AcDbSymbolTableRecord
100
AcDbLinetypeTableRecord
  2
BYLAYER
 70
     0
  3

 72
    65
 73
     0
 40
0.0
  0
LTYPE
  5
16
330
5
100
AcDbSymbolTableRecord
100
AcDbLinetypeTableRecord
  2
CONTINUOUS
 70
     0
  3
Solid line
 72
    65
 73
     0
 40
0.0
  0
LTYPE
  5
97
330
5
100
AcDbSymbolTableRecord
100
AcDbLinetypeTableRecord
  2
NEW_LINE1
 70
     0
  3

 72
    65
 73
     4
 40
1.2
 49
0.5
 74
     4
 75
     0
340
0
 46
1.0
 50
0.0
 44
0.0
 45
0.0
 49
-0.3
 74
     4
 75
     0
340
0
 46
1.0
 50
0.0
 44
0.0
 45
0.0
 49
0.1
 74
     4
 75
     0
340
0
 46
1.0
 50
0.0
 44
0.0
 45
0.0
 49
-0.3
 74
     4
 75
     0
340
0
 46
1.0
 50
0.0
 44
0.0
 45
0.0
  0
LTYPE
  5
99
330
5
100
AcDbSymbolTableRecord
100
AcDbLinetypeTableRecord
  2
NEW_LINE2
 70
     0
  3

 72
    65
 73
     4
 40
1.2
 49
0.5
 74
     4
 75
     0
340
0
 46
1.0
 50
0.0
 44
0.0
 45
0.0
 49
-0.3
 74
     4
 75
     0
340
0
 46
1.0
 50
0.0
 44
0.0
 45
0.0
 49
0.1
 74
     4
 75
     0
340
0
 46
1.0
 50
0.0
 44
0.0
 45
0.0
 49
-0.3
 74
     4
 75
     0
340
0
 46
1.0
 50
0.0
 44
0.0
 45
0.0
  0
LTYPE
  5
D6
330
5
100
AcDbSymbolTableRecord
100
AcDbLinetypeTableRecord
  2
NEW_LINE3
 70
     0
  3

 72
    65
 73
     4
 40
1.2
 49
0.5
 74
     4
 75
     0
340
0
 46
1.0
 50
0.0
 44
0.0
 45
0.0
 49
-0.3
 74
     4
 75
     0
340
0
 46
1.0
 50
0.0
 44
0.0
 45
0.0
 49
0.1
 74
     4
 75
     0
340
0
 46
1.0
 50
0.0
 44
0.0
 45
0.0
 49
-0.3
 74
     4
 75
     0
340
0
 46
1.0
 50
0.0
 44
0.0
 45
0.0
  0
LTYPE
  5
D8
330
5
100
AcDbSymbolTableRecord
100
AcDbLinetypeTableRecord
  2
NEW_LINE4
 70
     0
  3

 72
    65
 73
     4
 40
1.2
 49
0.5
 74
     4
 75
     0
340
0
 46
1.0
 50
0.0
 44
0.0
 45
0.0
 49
-0.3
 74
     4
 75
     0
340
0
 46
1.0
 50
0.0
 44
0.0
 45
0.0
 49
0.1
 74
     4
 75
     0
340
0
 46
1.0
 50
0.0
 44
0.0
 45
0.0
 49
-0.3
 74
     4
 75
     0
340
0
 46
1.0
 50
0.0
 44
0.0
 45
0.0
  0
ENDTAB
  0
TABLE
  2
LAYER
  5
2
330
0
100
AcDbSymbolTable
 70
     2
  0
LAYER
  5
10
330
2
100
AcDbSymbolTableRecord
100
AcDbLayerTableRecord
  2
0
 70
     0
 62
     7
  6
CONTINUOUS
  0
LAYER
  5
40
330
2
100
AcDbSymbolTableRecord
100
AcDbLayerTableRecord
  2
AXIS
 70
     0
 62
     7
  6
CONTINUOUS
  0
ENDTAB
  0
TABLE
  2
STYLE
  5
3
330
0
100
AcDbSymbolTable
 70
     1
  0
STYLE
  5
11
330
3
100
AcDbSymbolTableRecord
100
AcDbTextStyleTableRecord
  2
STANDARD
 70
     0
 40
0.0
 41
1.0
 50
0.0
 71
     0
 42
0.2
  3
txt
  4

  0
ENDTAB
  0
TABLE
  2
VIEW
  5
6
330
0
100
AcDbSymbolTable
 70
     0
  0
ENDTAB
  0
TABLE
  2
UCS
  5
7
330
0
100
AcDbSymbolTable
 70
     0
  0
ENDTAB
  0
TABLE
  2
APPID
  5
9
330
0
100
AcDbSymbolTable
 70
     2
  0
APPID
  5
12
330
9
100
AcDbSymbolTableRecord
100
AcDbRegAppTableRecord
  2
ACAD
 70
     0
  0
APPID
  5
3F
330
9
100
AcDbSymbolTableRecord
100
AcDbRegAppTableRecord
  2
ODA
 70
     0
  0
ENDTAB
  0
TABLE
  2
DIMSTYLE
  5
A
330
0
100
AcDbSymbolTable
 70
     1
  0
DIMSTYLE
105
27
330
A
100
AcDbSymbolTableRecord
100
AcDbDimStyleTableRecord
  2
STANDARD
 70
     0
  3

  4

  5

  6

  7

 40
1.0
 41
0.18
 42
0.0625
 43
0.38
 44
0.18
 45
0.0
 46
0.0
 47
0.0
 48
0.0
140
0.18
141
0.09
142
0.0
143
25.4
144
1.0
145
0.0
146
1.0
147
0.09
 71
     0
 72
     0
 73
     1
 74
     1
 75
     0
 76
     0
 77
     0
 78
     0
170
     0
171
     2
172
     0
173
     0
174
     0
175
     0
176
     0
177
     0
178
     0
270
     2
271
     4
272
     4
273
     2
274
     2
340
11
275
     0
280
     0
281
     0
282
     0
283
     1
284
     0
285
     0
286
     0
287
     3
288
     0
  0
ENDTAB
  0
TABLE
  2
BLOCK_RECORD
  5
1
330
0
100
AcDbSymbolTable
 70
     1
  0
BLOCK_RECORD
  5
1F
330
1
100
AcDbSymbolTableRecord
100
AcDbBlockTableRecord
  2
*MODEL_SPACE
  0
BLOCK_RECORD
  5
1B
330
1
100
AcDbSymbolTableRecord
100
AcDbBlockTableRecord
  2
*PAPER_SPACE
  0
ENDTAB
  0
ENDSEC
  0
SECTION
  2
BLOCKS
  0
BLOCK
  5
20
330
1F
100
AcDbEntity
  8
0
100
AcDbBlockBegin
  2
*MODEL_SPACE
 70
     0
 10
0.0
 20
0.0
 30
0.0
  3
*MODEL_SPACE
  1

  0
ENDBLK
  5
21
330
1F
100
AcDbEntity
  8
0
100
AcDbBlockEnd
  0
BLOCK
  5
1C
330
1B
100
AcDbEntity
 67
     1
  8
0
100
AcDbBlockBegin
  2
*PAPER_SPACE
 70
     0
 10
0.0
 20
0.0
 30
0.0
  3
*PAPER_SPACE
  1

  0
ENDBLK
  5
1D
330
1B
100
AcDbEntity
 67
     1
  8
0
100
AcDbBlockEnd
  0
ENDSEC
  0
SECTION
  2
ENTITIES
  0
SPLINE
  5
41
330
1F
100
AcDbEntity
  8
AXIS
 62
   250
100
AcDbSpline
210
0.0
220
0.0
230
1.0
 70
    24
 71
     3
 72
     8
 73
     4
 74
     0
 42
0.0000000001
 43
0.0000000001
 40
0.0
 40
0.0
 40
0.0
 40
0.0
 40
1.0
 40
1.0
 40
1.0
 40
1.0
 10
-9.6815
 20
-19.9597
 30
0.0
 10
-9.6815
 20
-19.9597
 30
0.0
 10
-15.6272
 20
-19.9597
 30
0.0
 10
-15.6272
 20
-19.9597
 30
0.0
  0
SPLINE
  5
42
330
1F
100
AcDbEntity
  8
AXIS
 62
   250
100
AcDbSpline
210
0.0
220
0.0
230
1.0
 70
    24
 71
     3
 72
     8
 73
     4
 74
     0
 42
0.0000000001
 43
0.0000000001
 40
0.0
 40
0.0
 40
0.0
 40
0.0
 40
1.0
 40
1.0
 40
1.0
 40
1.0
 10
-9.7339
 20
-2.0548
 30
0.0
 10
-9.7339
 20
-2.0548
 30
0.0
 10
-15.6272
 20
-2.0548
 30
0.0
 10
-15.6272
 20
-2.0548
 30
0.0
  0
SPLINE
  5
43
330
1F
100
AcDbEntity
  8
AXIS
 62
   250
100
AcDbSpline
210
0.0
220
0.0
230
1.0
 70
    24
 71
     3
 72
     8
 73
     4
 74
     0
 42
0.0000000001
 43
0.0000000001
 40
0.0
 40
0.0
 40
0.0
 40
0.0
 40
1.0
 40
1.0
 40
1.0
 40
1.0
 10
-15.4567
 20
-2.879
 30
0.0
 10
-15.4567
 20
-2.879
 30
0.0
 10
-15.4567
 20
-19.4664
 30
0.0
 10
-15.4567
 20
-19.4664
 30
0.0
  0
SPLINE
  5
44
330
1F
100
AcDbEntity
  8
AXIS
 62
   250
100
AcDbSpline
210
0.0
220
0.0
230
1.0
 70
    24
 71
     3
 72
     8
 73
     4
 74
     0
 42
0.0000000001
 43
0.0000000001
 40
0.0
 40
0.0
 40
0.0
 40
0.0
 40
1.0
 40
1.0
 40
1.0
 40
1.0
 10
-9.3564
 20
-20.6015
 30
0.0
 10
-9.3564
 20
-20.6015
 30
0.0
 10
-9.3564
 20
-29.0319
 30
0.0
 10
-9.3564
 20
-29.0319
 30
0.0
  0
SPLINE
  5
45
330
1F
100
AcDbEntity
  8
AXIS
 62
   250
100
AcDbSpline
210
0.0
220
0.0
230
1.0
 70
    24
 71
     3
 72
     8
 73
     4
 74
     0
 42
0.0000000001
 43
0.0000000001
 40
0.0
 40
0.0
 40
0.0
 40
0.0
 40
1.0
 40
1.0
 40
1.0
 40
1.0
 10
8.5485
 20
-20.371
 30
0.0
 10
8.5485
 20
-20.371
 30
0.0
 10
8.5485
 20
-29.4145
 30
0.0
 10
8.5485
 20
-29.4145
 30
0.0
  0
SPLINE
  5
46
330
1F
100
AcDbEntity
  8
AXIS
 62
   250
100
AcDbSpline
210
0.0
220
0.0
230
1.0
 70
    24
 71
     3
 72
     8
 73
     4
 74
     0
 42
0.0000000001
 43
0.0000000001
 40
0.0
 40
0.0
 40
0.0
 40
0.0
 40
1.0
 40
1.0
 40
1.0
 40
1.0
 10
8.5001
 20
-28.5689
 30
0.0
 10
8.5001
 20
-28.5689
 30
0.0
 10
-8.9393
 20
-28.5689
 30
0.0
 10
-8.9393
 20
-28.5689
 30
0.0
  0
SPLINE
  5
47
330
1F
100
AcDbEntity
  8
AXIS
 62
   250
100
AcDbSpline
210
0.0
220
0.0
230
1.0
 70
    11
 71
     3
 72
    40
 73
    36
 74
     0
 42
0.0000000001
 43
0.0000000001
 40
0.0
 40
0.0
 40
0.0
 40
0.0
 40
0.1
 40
0.1
 40
0.1
 40
0.1
 40
0.2
 40
0.2
 40
0.2
 40
0.2
 40
0.3
 40
0.3
 40
0.3
 40
0.3
 40
0.4
 40
0.4
 40
0.4
 40
0.4
 40
0.5
 40
0.5
 40
0.5
 40
0.5
 40
0.6
 40
0.6
 40
0.6
 40
0.6
 40
0.7
 40
0.7
 40
0.7
 40
0.7
 40
0.8
 40
0.8
 40
0.8
 40
0.8
 40
1.0
 40
1.0
 40
1.0
 40
1.0
 10
-1.846
 20
-28.2393
 30
0.0
 10
-1.846
 20
-28.2393
 30
0.0
 10
-2.0939
 20
-28.2393
 30
0.0
 10
-2.0939
 20
-28.2393
 30
0.0
 10
-2.0939
 20
-28.2393
 30
0.0
 10
-2.0939
 20
-28.2393
 30
0.0
 10
-2.0939
 20
-26.6589
 30
0.0
 10
-2.0939
 20
-26.6589
 30
0.0
 10
-2.0939
 20
-26.6589
 30
0.0
 10
-2.1537
 20
-26.7158
 30
0.0
 10
-2.2317
 20
-26.7727
 30
0.0
 10
-2.3286
 20
-26.8296
 30
0.0
 10
-2.3286
 20
-26.8296
 30
0.0
 10
-2.426
 20
-26.8865
 30
0.0
 10
-2.513
 20
-26.9293
 30
0.0
 10
-2.5902
 20
-26.9576
 30
0.0
 10
-2.5902
 20
-26.9576
 30
0.0
 10
-2.5902
 20
-26.9576
 30
0.0
 10
-2.5902
 20
-26.7181
 30
0.0
 10
-2.5902
 20
-26.7181
 30
0.0
 10
-2.5902
 20
-26.7181
 30
0.0
 10
-2.4514
 20
-26.6528
 30
0.0
 10
-2.33
 20
-26.5737
 30
0.0
 10
-2.2261
 20
-26.4811
 30
0.0
 10
-2.2261
 20
-26.4811
 30
0.0
 10
-2.1226
 20
-26.3879
 30
0.0
 10
-2.0488
 20
-26.2981
 30
0.0
 10
-2.0055
 20
-26.2106
 30
0.0
 10
-2.0055
 20
-26.2106
 30
0.0
 10
-2.0055
 20
-26.2106
 30
0.0
 10
-1.846
 20
-26.2106
 30
0.0
 10
-1.846
 20
-26.2106
 30
0.0
 10
-1.846
 20
-26.2106
 30
0.0
 10
-1.846
 20
-26.2106
 30
0.0
 10
-1.846
 20
-28.2393
 30
0.0
 10
-1.846
 20
-28.2393
 30
0.0
  0
SPLINE
  5
48
330
1F
100
AcDbEntity
  8
AXIS
 62
   250
100
AcDbSpline
210
0.0
220
0.0
230
1.0
 70
    11
 71
     3
 72
    52
 73
    48
 74
     0
 42
0.0000000001
 43
0.0000000001
 40
0.0
 40
0.0
 40
0.0
 40
0.0
 40
0.0769230769230769
 40
0.0769230769230769
 40
0.0769230769230769
 40
0.0769230769230769
 40
0.1538461538461539
 40
0.1538461538461539
 40
0.1538461538461539
 40
0.1538461538461539
 40
0.2307692307692308
 40
0.2307692307692308
 40
0.2307692307692308
 40
0.2307692307692308
 40
0.3076923076923077
 40
0.3076923076923077
 40
0.3076923076923077
 40
0.3076923076923077
 40
0.3846153846153846
 40
0.3846153846153846
 40
0.3846153846153846
 40
0.3846153846153846
 40
0.4615384615384616
 40
0.4615384615384616
 40
0.4615384615384616
 40
0.4615384615384616
 40
0.5384615384615384
 40
0.5384615384615384
 40
0.5384615384615384
 40
0.5384615384615384
 40
0.6153846153846154
 40
0.6153846153846154
 40
0.6153846153846154
 40
0.6153846153846154
 40
0.6923076923076923
 40
0.6923076923076923
 40
0.6923076923076923
 40
0.6923076923076923
 40
0.7692307692307693
 40
0.7692307692307693
 40
0.7692307692307693
 40
0.7692307692307693
 40
0.8461538461538461
 40
0.8461538461538461
 40
0.8461538461538461
 40
0.8461538461538461
 40
1.0
 40
1.0
 40
1.0
 40
1.0
 10
-1.2106
 20
-27.2431
 30
0.0
 10
-1.2106
 20
-27.0041
 30
0.0
 10
-1.1861
 20
-26.8117
 30
0.0
 10
-1.1367
 20
-26.6664
 30
0.0
 10
-1.1367
 20
-26.6664
 30
0.0
 10
-1.0878
 20
-26.5206
 30
0.0
 10
-1.0144
 20
-26.4082
 30
0.0
 10
-0.9175
 20
-26.3291
 30
0.0
 10
-0.9175
 20
-26.3291
 30
0.0
 10
-0.8206
 20
-26.2501
 30
0.0
 10
-0.6988
 20
-26.2106
 30
0.0
 10
-0.5521
 20
-26.2106
 30
0.0
 10
-0.5521
 20
-26.2106
 30
0.0
 10
-0.4434
 20
-26.2106
 30
0.0
 10
-0.3484
 20
-26.2327
 30
0.0
 10
-0.2666
 20
-26.2765
 30
0.0
 10
-0.2666
 20
-26.2765
 30
0.0
 10
-0.1847
 20
-26.3197
 30
0.0
 10
-0.1174
 20
-26.3828
 30
0.0
 10
-0.0638
 20
-26.4651
 30
0.0
 10
-0.0638
 20
-26.4651
 30
0.0
 10
-0.0107
 20
-26.5474
 30
0.0
 10
0.0312
 20
-26.6476
 30
0.0
 10
0.0613
 20
-26.7656
 30
0.0
 10
0.0613
 20
-26.7656
 30
0.0
 10
0.0919
 20
-26.8837
 30
0.0
 10
0.1069
 20
-27.0427
 30
0.0
 10
0.1069
 20
-27.2431
 30
0.0
 10
0.1069
 20
-27.2431
 30
0.0
 10
0.1069
 20
-27.4801
 30
0.0
 10
0.0825
 20
-27.6711
 30
0.0
 10
0.034
 20
-27.8169
 30
0.0
 10
0.034
 20
-27.8169
 30
0.0
 10
-0.0149
 20
-27.9627
 30
0.0
 10
-0.0878
 20
-28.0751
 30
0.0
 10
-0.1847
 20
-28.1546
 30
0.0
 10
-0.1847
 20
-28.1546
 30
0.0
 10
-0.2816
 20
-28.2341
 30
0.0
 10
-0.4039
 20
-28.2736
 30
0.0
 10
-0.5521
 20
-28.2736
 30
0.0
 10
-0.5521
 20
-28.2736
 30
0.0
 10
-0.7468
 20
-28.2736
 30
0.0
 10
-0.8997
 20
-28.204
 30
0.0
 10
-1.0107
 20
-28.0643
 30
0.0
 10
-1.0107
 20
-28.0643
 30
0.0
 10
-1.1438
 20
-27.8964
 30
0.0
 10
-1.2106
 20
-27.6222
 30
0.0
 10
-1.2106
 20
-27.2431
 30
0.0
  0
SPLINE
  5
49
330
1F
100
AcDbEntity
  8
AXIS
 62
   250
100
AcDbSpline
210
0.0
220
0.0
230
1.0
 70
    11
 71
     3
 72
    36
 73
    32
 74
     0
 42
0.0000000001
 43
0.0000000001
 40
0.0
 40
0.0
 40
0.0
 40
0.0
 40
0.1111111111111111
 40
0.1111111111111111
 40
0.1111111111111111
 40
0.1111111111111111
 40
0.2222222222222222
 40
0.2222222222222222
 40
0.2222222222222222
 40
0.2222222222222222
 40
0.3333333333333333
 40
0.3333333333333333
 40
0.3333333333333333
 40
0.3333333333333333
 40
0.4444444444444444
 40
0.4444444444444444
 40
0.4444444444444444
 40
0.4444444444444444
 40
0.5555555555555556
 40
0.5555555555555556
 40
0.5555555555555556
 40
0.5555555555555556
 40
0.6666666666666666
 40
0.6666666666666666
 40
0.6666666666666666
 40
0.6666666666666666
 40
0.7777777777777778
 40
0.7777777777777778
 40
0.7777777777777778
 40
0.7777777777777778
 40
1.0
 40
1.0
 40
1.0
 40
1.0
 10
-0.9556
 20
-27.2431
 30
0.0
 10
-0.9556
 20
-27.5747
 30
0.0
 10
-0.9166
 20
-27.7953
 30
0.0
 10
-0.839
 20
-27.9053
 30
0.0
 10
-0.839
 20
-27.9053
 30
0.0
 10
-0.7614
 20
-28.0149
 30
0.0
 10
-0.6659
 20
-28.07
 30
0.0
 10
-0.5521
 20
-28.07
 30
0.0
 10
-0.5521
 20
-28.07
 30
0.0
 10
-0.4378
 20
-28.07
 30
0.0
 10
-0.3423
 20
-28.0145
 30
0.0
 10
-0.2647
 20
-27.9044
 30
0.0
 10
-0.2647
 20
-27.9044
 30
0.0
 10
-0.1871
 20
-27.7943
 30
0.0
 10
-0.148
 20
-27.5737
 30
0.0
 10
-0.148
 20
-27.2431
 30
0.0
 10
-0.148
 20
-27.2431
 30
0.0
 10
-0.148
 20
-26.9105
 30
0.0
 10
-0.1871
 20
-26.6894
 30
0.0
 10
-0.2647
 20
-26.5803
 30
0.0
 10
-0.2647
 20
-26.5803
 30
0.0
 10
-0.3423
 20
-26.4707
 30
0.0
 10
-0.4387
 20
-26.4162
 30
0.0
 10
-0.5544
 20
-26.4162
 30
0.0
 10
-0.5544
 20
-26.4162
 30
0.0
 10
-0.6687
 20
-26.4162
 30
0.0
 10
-0.7595
 20
-26.4646
 30
0.0
 10
-0.8277
 20
-26.561
 30
0.0
 10
-0.8277
 20
-26.561
 30
0.0
 10
-0.9128
 20
-26.6838
 30
0.0
 10
-0.9556
 20
-26.9115
 30
0.0
 10
-0.9556
 20
-27.2431
 30
0.0
  0
SPLINE
  5
4A
330
1F
100
AcDbEntity
  8
AXIS
 62
   250
100
AcDbSpline
210
0.0
220
0.0
230
1.0
 70
    11
 71
     3
 72
    92
 73
    88
 74
     0
 42
0.0000000001
 43
0.0000000001
 40
0.0
 40
0.0
 40
0.0
 40
0.0
 40
0.0434782608695652
 40
0.0434782608695652
 40
0.0434782608695652
 40
0.0434782608695652
 40
0.0869565217391304
 40
0.0869565217391304
 40
0.0869565217391304
 40
0.0869565217391304
 40
0.1304347826086956
 40
0.1304347826086956
 40
0.1304347826086956
 40
0.1304347826086956
 40
0.1739130434782609
 40
0.1739130434782609
 40
0.1739130434782609
 40
0.1739130434782609
 40
0.2173913043478261
 40
0.2173913043478261
 40
0.2173913043478261
 40
0.2173913043478261
 40
0.2608695652173913
 40
0.2608695652173913
 40
0.2608695652173913
 40
0.2608695652173913
 40
0.3043478260869565
 40
0.3043478260869565
 40
0.3043478260869565
 40
0.3043478260869565
 40
0.3478260869565217
 40
0.3478260869565217
 40
0.3478260869565217
 40
0.3478260869565217
 40
0.391304347826087
 40
0.391304347826087
 40
0.391304347826087
 40
0.391304347826087
 40
0.4347826086956522
 40
0.4347826086956522
 40
0.4347826086956522
 40
0.4347826086956522
 40
0.4782608695652174
 40
0.4782608695652174
 40
0.4782608695652174
 40
0.4782608695652174
 40
0.5217391304347826
 40
0.5217391304347826
 40
0.5217391304347826
 40
0.5217391304347826
 40
0.5652173913043478
 40
0.5652173913043478
 40
0.5652173913043478
 40
0.5652173913043478
 40
0.6086956521739131
 40
0.6086956521739131
 40
0.6086956521739131
 40
0.6086956521739131
 40
0.6521739130434783
 40
0.6521739130434783
 40
0.6521739130434783
 40
0.6521739130434783
 40
0.6956521739130435
 40
0.6956521739130435
 40
0.6956521739130435
 40
0.6956521739130435
 40
0.7391304347826086
 40
0.7391304347826086
 40
0.7391304347826086
 40
0.7391304347826086
 40
0.782608695652174
 40
0.782608695652174
 40
0.782608695652174
 40
0.782608695652174
 40
0.8260869565217391
 40
0.8260869565217391
 40
0.8260869565217391
 40
0.8260869565217391
 40
0.8695652173913043
 40
0.8695652173913043
 40
0.8695652173913043
 40
0.8695652173913043
 40
0.9130434782608695
 40
0.9130434782608695
 40
0.9130434782608695
 40
0.9130434782608695
 40
1.0
 40
1.0
 40
1.0
 40
1.0
 10
0.359
 20
-27.7101
 30
0.0
 10
0.359
 20
-27.7101
 30
0.0
 10
0.6196
 20
-27.688
 30
0.0
 10
0.6196
 20
-27.688
 30
0.0
 10
0.6196
 20
-27.688
 30
0.0
 10
0.6389
 20
-27.815
 30
0.0
 10
0.6836
 20
-27.91
 30
0.0
 10
0.7537
 20
-27.974
 30
0.0
 10
0.7537
 20
-27.974
 30
0.0
 10
0.8242
 20
-28.038
 30
0.0
 10
0.9089
 20
-28.07
 30
0.0
 10
1.0081
 20
-28.07
 30
0.0
 10
1.0081
 20
-28.07
 30
0.0
 10
1.1276
 20
-28.07
 30
0.0
 10
1.2287
 20
-28.0248
 30
0.0
 10
1.311
 20
-27.935
 30
0.0
 10
1.311
 20
-27.935
 30
0.0
 10
1.3938
 20
-27.8447
 30
0.0
 10
1.4352
 20
-27.7252
 30
0.0
 10
1.4352
 20
-27.5766
 30
0.0
 10
1.4352
 20
-27.5766
 30
0.0
 10
1.4352
 20
-27.435
 30
0.0
 10
1.3957
 20
-27.3235
 30
0.0
 10
1.3162
 20
-27.2417
 30
0.0
 10
1.3162
 20
-27.2417
 30
0.0
 10
1.2367
 20
-27.1598
 30
0.0
 10
1.1328
 20
-27.1189
 30
0.0
 10
1.0039
 20
-27.1189
 30
0.0
 10
1.0039
 20
-27.1189
 30
0.0
 10
0.9239
 20
-27.1189
 30
0.0
 10
0.852
 20
-27.1372
 30
0.0
 10
0.7875
 20
-27.1734
 30
0.0
 10
0.7875
 20
-27.1734
 30
0.0
 10
0.7231
 20
-27.2097
 30
0.0
 10
0.6728
 20
-27.2567
 30
0.0
 10
0.6361
 20
-27.3146
 30
0.0
 10
0.6361
 20
-27.3146
 30
0.0
 10
0.6361
 20
-27.3146
 30
0.0
 10
0.4032
 20
-27.2845
 30
0.0
 10
0.4032
 20
-27.2845
 30
0.0
 10
0.4032
 20
-27.2845
 30
0.0
 10
0.4032
 20
-27.2845
 30
0.0
 10
0.5989
 20
-26.2468
 30
0.0
 10
0.5989
 20
-26.2468
 30
0.0
 10
0.5989
 20
-26.2468
 30
0.0
 10
0.5989
 20
-26.2468
 30
0.0
 10
1.6036
 20
-26.2468
 30
0.0
 10
1.6036
 20
-26.2468
 30
0.0
 10
1.6036
 20
-26.2468
 30
0.0
 10
1.6036
 20
-26.2468
 30
0.0
 10
1.6036
 20
-26.4839
 30
0.0
 10
1.6036
 20
-26.4839
 30
0.0
 10
1.6036
 20
-26.4839
 30
0.0
 10
1.6036
 20
-26.4839
 30
0.0
 10
0.7974
 20
-26.4839
 30
0.0
 10
0.7974
 20
-26.4839
 30
0.0
 10
0.7974
 20
-26.4839
 30
0.0
 10
0.7974
 20
-26.4839
 30
0.0
 10
0.6883
 20
-27.0267
 30
0.0
 10
0.6883
 20
-27.0267
 30
0.0
 10
0.6883
 20
-27.0267
 30
0.0
 10
0.8096
 20
-26.942
 30
0.0
 10
0.9371
 20
-26.8997
 30
0.0
 10
1.0702
 20
-26.8997
 30
0.0
 10
1.0702
 20
-26.8997
 30
0.0
 10
1.2466
 20
-26.8997
 30
0.0
 10
1.3952
 20
-26.9608
 30
0.0
 10
1.5166
 20
-27.0831
 30
0.0
 10
1.5166
 20
-27.0831
 30
0.0
 10
1.6379
 20
-27.2054
 30
0.0
 10
1.6986
 20
-27.3625
 30
0.0
 10
1.6986
 20
-27.5544
 30
0.0
 10
1.6986
 20
-27.5544
 30
0.0
 10
1.6986
 20
-27.7374
 30
0.0
 10
1.645
 20
-27.8955
 30
0.0
 10
1.5387
 20
-28.0286
 30
0.0
 10
1.5387
 20
-28.0286
 30
0.0
 10
1.4089
 20
-28.1918
 30
0.0
 10
1.232
 20
-28.2736
 30
0.0
 10
1.0081
 20
-28.2736
 30
0.0
 10
1.0081
 20
-28.2736
 30
0.0
 10
0.8242
 20
-28.2736
 30
0.0
 10
0.6742
 20
-28.2224
 30
0.0
 10
0.558
 20
-28.1194
 30
0.0
 10
0.558
 20
-28.1194
 30
0.0
 10
0.4418
 20
-28.0163
 30
0.0
 10
0.3755
 20
-27.8799
 30
0.0
 10
0.359
 20
-27.7101
 30
0.0
  0
SPLINE
  5
4B
330
1F
100
AcDbEntity
  8
AXIS
 62
   250
100
AcDbSpline
210
0.0
220
0.0
230
1.0
 70
    11
 71
     3
 72
    20
 73
    16
 74
     0
 42
0.0000000001
 43
0.0000000001
 40
0.0
 40
0.0
 40
0.0
 40
0.0
 40
0.2
 40
0.2
 40
0.2
 40
0.2
 40
0.4
 40
0.4
 40
0.4
 40
0.4
 40
0.6
 40
0.6
 40
0.6
 40
0.6
 40
1.0
 40
1.0
 40
1.0
 40
1.0
 10
6.0088
 20
-28.1811
 30
0.0
 10
6.0088
 20
-28.1811
 30
0.0
 10
8.5088
 20
-28.534
 30
0.0
 10
8.5088
 20
-28.534
 30
0.0
 10
8.5088
 20
-28.534
 30
0.0
 10
8.5088
 20
-28.534
 30
0.0
 10
8.5088
 20
-28.6123
 30
0.0
 10
8.5088
 20
-28.6123
 30
0.0
 10
8.5088
 20
-28.6123
 30
0.0
 10
8.5088
 20
-28.6123
 30
0.0
 10
6.0088
 20
-28.9886
 30
0.0
 10
6.0088
 20
-28.9886
 30
0.0
 10
6.0088
 20
-28.9886
 30
0.0
 10
6.0088
 20
-28.9886
 30
0.0
 10
6.0088
 20
-28.1811
 30
0.0
 10
6.0088
 20
-28.1811
 30
0.0
  0
SPLINE
  5
4C
330
1F
100
AcDbEntity
  8
AXIS
 62
   250
100
AcDbSpline
210
0.0
220
0.0
230
1.0
 70
    11
 71
     3
 72
    20
 73
    16
 74
     0
 42
0.0000000001
 43
0.0000000001
 40
0.0
 40
0.0
 40
0.0
 40
0.0
 40
0.2
 40
0.2
 40
0.2
 40
0.2
 40
0.4
 40
0.4
 40
0.4
 40
0.4
 40
0.6
 40
0.6
 40
0.6
 40
0.6
 40
1.0
 40
1.0
 40
1.0
 40
1.0
 10
-6.7732
 20
-28.9776
 30
0.0
 10
-6.7732
 20
-28.9776
 30
0.0
 10
-9.2732
 20
-28.6247
 30
0.0
 10
-9.2732
 20
-28.6247
 30
0.0
 10
-9.2732
 20
-28.6247
 30
0.0
 10
-9.2732
 20
-28.6247
 30
0.0
 10
-9.2732
 20
-28.5464
 30
0.0
 10
-9.2732
 20
-28.5464
 30
0.0
 10
-9.2732
 20
-28.5464
 30
0.0
 10
-9.2732
 20
-28.5464
 30
0.0
 10
-6.7732
 20
-28.1701
 30
0.0
 10
-6.7732
 20
-28.1701
 30
0.0
 10
-6.7732
 20
-28.1701
 30
0.0
 10
-6.7732
 20
-28.1701
 30
0.0
 10
-6.7732
 20
-28.9776
 30
0.0
 10
-6.7732
 20
-28.9776
 30
0.0
  0
SPLINE
  5
4D
330
1F
100
AcDbEntity
  8
AXIS
 62
   250
100
AcDbSpline
210
0.0
220
0.0
230
1.0
 70
    11
 71
     3
 72
    40
 73
    36
 74
     0
 42
0.0000000001
 43
0.0000000001
 40
0.0
 40
0.0
 40
0.0
 40
0.0
 40
0.1
 40
0.1
 40
0.1
 40
0.1
 40
0.2
 40
0.2
 40
0.2
 40
0.2
 40
0.3
 40
0.3
 40
0.3
 40
0.3
 40
0.4
 40
0.4
 40
0.4
 40
0.4
 40
0.5
 40
0.5
 40
0.5
 40
0.5
 40
0.6
 40
0.6
 40
0.6
 40
0.6
 40
0.7
 40
0.7
 40
0.7
 40
0.7
 40
0.8
 40
0.8
 40
0.8
 40
0.8
 40
1.0
 40
1.0
 40
1.0
 40
1.0
 10
-16.2018
 20
-12.3932
 30
0.0
 10
-16.2018
 20
-12.3932
 30
0.0
 10
-16.2018
 20
-12.6411
 30
0.0
 10
-16.2018
 20
-12.6411
 30
0.0
 10
-16.2018
 20
-12.6411
 30
0.0
 10
-16.2018
 20
-12.6411
 30
0.0
 10
-17.7822
 20
-12.6411
 30
0.0
 10
-17.7822
 20
-12.6411
 30
0.0
 10
-17.7822
 20
-12.6411
 30
0.0
 10
-17.7253
 20
-12.7009
 30
0.0
 10
-17.6684
 20
-12.7789
 30
0.0
 10
-17.6115
 20
-12.8758
 30
0.0
 10
-17.6115
 20
-12.8758
 30
0.0
 10
-17.5546
 20
-12.9732
 30
0.0
 10
-17.5118
 20
-13.0602
 30
0.0
 10
-17.4835
 20
-13.1374
 30
0.0
 10
-17.4835
 20
-13.1374
 30
0.0
 10
-17.4835
 20
-13.1374
 30
0.0
 10
-17.723
 20
-13.1374
 30
0.0
 10
-17.723
 20
-13.1374
 30
0.0
 10
-17.723
 20
-13.1374
 30
0.0
 10
-17.7883
 20
-12.9986
 30
0.0
 10
-17.8674
 20
-12.8772
 30
0.0
 10
-17.96
 20
-12.7733
 30
0.0
 10
-17.96
 20
-12.7733
 30
0.0
 10
-18.0532
 20
-12.6698
 30
0.0
 10
-18.143
 20
-12.596
 30
0.0
 10
-18.2305
 20
-12.5527
 30
0.0
 10
-18.2305
 20
-12.5527
 30
0.0
 10
-18.2305
 20
-12.5527
 30
0.0
 10
-18.2305
 20
-12.3932
 30
0.0
 10
-18.2305
 20
-12.3932
 30
0.0
 10
-18.2305
 20
-12.3932
 30
0.0
 10
-18.2305
 20
-12.3932
 30
0.0
 10
-16.2018
 20
-12.3932
 30
0.0
 10
-16.2018
 20
-12.3932
 30
0.0
  0
SPLINE
  5
4E
330
1F
100
AcDbEntity
  8
AXIS
 62
   250
100
AcDbSpline
210
0.0
220
0.0
230
1.0
 70
    11
 71
     3
 72
    52
 73
    48
 74
     0
 42
0.0000000001
 43
0.0000000001
 40
0.0
 40
0.0
 40
0.0
 40
0.0
 40
0.0769230769230769
 40
0.0769230769230769
 40
0.0769230769230769
 40
0.0769230769230769
 40
0.1538461538461539
 40
0.1538461538461539
 40
0.1538461538461539
 40
0.1538461538461539
 40
0.2307692307692308
 40
0.2307692307692308
 40
0.2307692307692308
 40
0.2307692307692308
 40
0.3076923076923077
 40
0.3076923076923077
 40
0.3076923076923077
 40
0.3076923076923077
 40
0.3846153846153846
 40
0.3846153846153846
 40
0.3846153846153846
 40
0.3846153846153846
 40
0.4615384615384616
 40
0.4615384615384616
 40
0.4615384615384616
 40
0.4615384615384616
 40
0.5384615384615384
 40
0.5384615384615384
 40
0.5384615384615384
 40
0.5384615384615384
 40
0.6153846153846154
 40
0.6153846153846154
 40
0.6153846153846154
 40
0.6153846153846154
 40
0.6923076923076923
 40
0.6923076923076923
 40
0.6923076923076923
 40
0.6923076923076923
 40
0.7692307692307693
 40
0.7692307692307693
 40
0.7692307692307693
 40
0.7692307692307693
 40
0.8461538461538461
 40
0.8461538461538461
 40
0.8461538461538461
 40
0.8461538461538461
 40
1.0
 40
1.0
 40
1.0
 40
1.0
 10
-17.198
 20
-11.7578
 30
0.0
 10
-17.437
 20
-11.7578
 30
0.0
 10
-17.6294
 20
-11.7333
 30
0.0
 10
-17.7747
 20
-11.6839
 30
0.0
 10
-17.7747
 20
-11.6839
 30
0.0
 10
-17.9205
 20
-11.635
 30
0.0
 10
-18.0329
 20
-11.5616
 30
0.0
 10
-18.112
 20
-11.4647
 30
0.0
 10
-18.112
 20
-11.4647
 30
0.0
 10
-18.191
 20
-11.3678
 30
0.0
 10
-18.2305
 20
-11.246
 30
0.0
 10
-18.2305
 20
-11.0993
 30
0.0
 10
-18.2305
 20
-11.0993
 30
0.0
 10
-18.2305
 20
-10.9906
 30
0.0
 10
-18.2084
 20
-10.8956
 30
0.0
 10
-18.1646
 20
-10.8138
 30
0.0
 10
-18.1646
 20
-10.8138
 30
0.0
 10
-18.1214
 20
-10.7319
 30
0.0
 10
-18.0583
 20
-10.6646
 30
0.0
 10
-17.976
 20
-10.611
 30
0.0
 10
-17.976
 20
-10.611
 30
0.0
 10
-17.8937
 20
-10.5579
 30
0.0
 10
-17.7935
 20
-10.516
 30
0.0
 10
-17.6755
 20
-10.4859
 30
0.0
 10
-17.6755
 20
-10.4859
 30
0.0
 10
-17.5574
 20
-10.4553
 30
0.0
 10
-17.3984
 20
-10.4403
 30
0.0
 10
-17.198
 20
-10.4403
 30
0.0
 10
-17.198
 20
-10.4403
 30
0.0
 10
-16.961
 20
-10.4403
 30
0.0
 10
-16.77
 20
-10.4647
 30
0.0
 10
-16.6242
 20
-10.5132
 30
0.0
 10
-16.6242
 20
-10.5132
 30
0.0
 10
-16.4784
 20
-10.5621
 30
0.0
 10
-16.366
 20
-10.635
 30
0.0
 10
-16.2865
 20
-10.7319
 30
0.0
 10
-16.2865
 20
-10.7319
 30
0.0
 10
-16.207
 20
-10.8288
 30
0.0
 10
-16.1675
 20
-10.9511
 30
0.0
 10
-16.1675
 20
-11.0993
 30
0.0
 10
-16.1675
 20
-11.0993
 30
0.0
 10
-16.1675
 20
-11.294
 30
0.0
 10
-16.2371
 20
-11.4469
 30
0.0
 10
-16.3768
 20
-11.5579
 30
0.0
 10
-16.3768
 20
-11.5579
 30
0.0
 10
-16.5447
 20
-11.691
 30
0.0
 10
-16.8189
 20
-11.7578
 30
0.0
 10
-17.198
 20
-11.7578
 30
0.0
  0
SPLINE
  5
4F
330
1F
100
AcDbEntity
  8
AXIS
 62
   250
100
AcDbSpline
210
0.0
220
0.0
230
1.0
 70
    11
 71
     3
 72
    36
 73
    32
 74
     0
 42
0.0000000001
 43
0.0000000001
 40
0.0
 40
0.0
 40
0.0
 40
0.0
 40
0.1111111111111111
 40
0.1111111111111111
 40
0.1111111111111111
 40
0.1111111111111111
 40
0.2222222222222222
 40
0.2222222222222222
 40
0.2222222222222222
 40
0.2222222222222222
 40
0.3333333333333333
 40
0.3333333333333333
 40
0.3333333333333333
 40
0.3333333333333333
 40
0.4444444444444444
 40
0.4444444444444444
 40
0.4444444444444444
 40
0.4444444444444444
 40
0.5555555555555556
 40
0.5555555555555556
 40
0.5555555555555556
 40
0.5555555555555556
 40
0.6666666666666666
 40
0.6666666666666666
 40
0.6666666666666666
 40
0.6666666666666666
 40
0.7777777777777778
 40
0.7777777777777778
 40
0.7777777777777778
 40
0.7777777777777778
 40
1.0
 40
1.0
 40
1.0
 40
1.0
 10
-17.198
 20
-11.5028
 30
0.0
 10
-16.8664
 20
-11.5028
 30
0.0
 10
-16.6458
 20
-11.4638
 30
0.0
 10
-16.5358
 20
-11.3862
 30
0.0
 10
-16.5358
 20
-11.3862
 30
0.0
 10
-16.4262
 20
-11.3086
 30
0.0
 10
-16.3711
 20
-11.2131
 30
0.0
 10
-16.3711
 20
-11.0993
 30
0.0
 10
-16.3711
 20
-11.0993
 30
0.0
 10
-16.3711
 20
-10.985
 30
0.0
 10
-16.4266
 20
-10.8895
 30
0.0
 10
-16.5367
 20
-10.8119
 30
0.0
 10
-16.5367
 20
-10.8119
 30
0.0
 10
-16.6468
 20
-10.7343
 30
0.0
 10
-16.8674
 20
-10.6952
 30
0.0
 10
-17.198
 20
-10.6952
 30
0.0
 10
-17.198
 20
-10.6952
 30
0.0
 10
-17.5306
 20
-10.6952
 30
0.0
 10
-17.7517
 20
-10.7343
 30
0.0
 10
-17.8608
 20
-10.8119
 30
0.0
 10
-17.8608
 20
-10.8119
 30
0.0
 10
-17.9704
 20
-10.8895
 30
0.0
 10
-18.0249
 20
-10.9859
 30
0.0
 10
-18.0249
 20
-11.1016
 30
0.0
 10
-18.0249
 20
-11.1016
 30
0.0
 10
-18.0249
 20
-11.2159
 30
0.0
 10
-17.9765
 20
-11.3067
 30
0.0
 10
-17.8801
 20
-11.3749
 30
0.0
 10
-17.8801
 20
-11.3749
 30
0.0
 10
-17.7573
 20
-11.46
 30
0.0
 10
-17.5296
 20
-11.5028
 30
0.0
 10
-17.198
 20
-11.5028
 30
0.0
  0
SPLINE
  5
50
330
1F
100
AcDbEntity
  8
AXIS
 62
   250
100
AcDbSpline
210
0.0
220
0.0
230
1.0
 70
    11
 71
     3
 72
    92
 73
    88
 74
     0
 42
0.0000000001
 43
0.0000000001
 40
0.0
 40
0.0
 40
0.0
 40
0.0
 40
0.0434782608695652
 40
0.0434782608695652
 40
0.0434782608695652
 40
0.0434782608695652
 40
0.0869565217391304
 40
0.0869565217391304
 40
0.0869565217391304
 40
0.0869565217391304
 40
0.1304347826086956
 40
0.1304347826086956
 40
0.1304347826086956
 40
0.1304347826086956
 40
0.1739130434782609
 40
0.1739130434782609
 40
0.1739130434782609
 40
0.1739130434782609
 40
0.2173913043478261
 40
0.2173913043478261
 40
0.2173913043478261
 40
0.2173913043478261
 40
0.2608695652173913
 40
0.2608695652173913
 40
0.2608695652173913
 40
0.2608695652173913
 40
0.3043478260869565
 40
0.3043478260869565
 40
0.3043478260869565
 40
0.3043478260869565
 40
0.3478260869565217
 40
0.3478260869565217
 40
0.3478260869565217
 40
0.3478260869565217
 40
0.391304347826087
 40
0.391304347826087
 40
0.391304347826087
 40
0.391304347826087
 40
0.4347826086956522
 40
0.4347826086956522
 40
0.4347826086956522
 40
0.4347826086956522
 40
0.4782608695652174
 40
0.4782608695652174
 40
0.4782608695652174
 40
0.4782608695652174
 40
0.5217391304347826
 40
0.5217391304347826
 40
0.5217391304347826
 40
0.5217391304347826
 40
0.5652173913043478
 40
0.5652173913043478
 40
0.5652173913043478
 40
0.5652173913043478
 40
0.6086956521739131
 40
0.6086956521739131
 40
0.6086956521739131
 40
0.6086956521739131
 40
0.6521739130434783
 40
0.6521739130434783
 40
0.6521739130434783
 40
0.6521739130434783
 40
0.6956521739130435
 40
0.6956521739130435
 40
0.6956521739130435
 40
0.6956521739130435
 40
0.7391304347826086
 40
0.7391304347826086
 40
0.7391304347826086
 40
0.7391304347826086
 40
0.782608695652174
 40
0.782608695652174
 40
0.782608695652174
 40
0.782608695652174
 40
0.8260869565217391
 40
0.8260869565217391
 40
0.8260869565217391
 40
0.8260869565217391
 40
0.8695652173913043
 40
0.8695652173913043
 40
0.8695652173913043
 40
0.8695652173913043
 40
0.9130434782608695
 40
0.9130434782608695
 40
0.9130434782608695
 40
0.9130434782608695
 40
1.0
 40
1.0
 40
1.0
 40
1.0
 10
-16.731
 20
-10.1882
 30
0.0
 10
-16.731
 20
-10.1882
 30
0.0
 10
-16.7531
 20
-9.9276
 30
0.0
 10
-16.7531
 20
-9.9276
 30
0.0
 10
-16.7531
 20
-9.9276
 30
0.0
 10
-16.6261
 20
-9.9083
 30
0.0
 10
-16.5311
 20
-9.8636
 30
0.0
 10
-16.4671
 20
-9.7935
 30
0.0
 10
-16.4671
 20
-9.7935
 30
0.0
 10
-16.4031
 20
-9.723
 30
0.0
 10
-16.3711
 20
-9.6383
 30
0.0
 10
-16.3711
 20
-9.5391
 30
0.0
 10
-16.3711
 20
-9.5391
 30
0.0
 10
-16.3711
 20
-9.4196
 30
0.0
 10
-16.4163
 20
-9.3185
 30
0.0
 10
-16.5061
 20
-9.2362
 30
0.0
 10
-16.5061
 20
-9.2362
 30
0.0
 10
-16.5964
 20
-9.1534
 30
0.0
 10
-16.7159
 20
-9.112
 30
0.0
 10
-16.8645
 20
-9.112
 30
0.0
 10
-16.8645
 20
-9.112
 30
0.0
 10
-17.0061
 20
-9.112
 30
0.0
 10
-17.1176
 20
-9.1515
 30
0.0
 10
-17.1994
 20
-9.231
 30
0.0
 10
-17.1994
 20
-9.231
 30
0.0
 10
-17.2813
 20
-9.3105
 30
0.0
 10
-17.3222
 20
-9.4144
 30
0.0
 10
-17.3222
 20
-9.5433
 30
0.0
 10
-17.3222
 20
-9.5433
 30
0.0
 10
-17.3222
 20
-9.6233
 30
0.0
 10
-17.3039
 20
-9.6952
 30
0.0
 10
-17.2677
 20
-9.7597
 30
0.0
 10
-17.2677
 20
-9.7597
 30
0.0
 10
-17.2314
 20
-9.8241
 30
0.0
 10
-17.1844
 20
-9.8744
 30
0.0
 10
-17.1265
 20
-9.9111
 30
0.0
 10
-17.1265
 20
-9.9111
 30
0.0
 10
-17.1265
 20
-9.9111
 30
0.0
 10
-17.1566
 20
-10.144
 30
0.0
 10
-17.1566
 20
-10.144
 30
0.0
 10
-17.1566
 20
-10.144
 30
0.0
 10
-17.1566
 20
-10.144
 30
0.0
 10
-18.1943
 20
-9.9483
 30
0.0
 10
-18.1943
 20
-9.9483
 30
0.0
 10
-18.1943
 20
-9.9483
 30
0.0
 10
-18.1943
 20
-9.9483
 30
0.0
 10
-18.1943
 20
-8.9436
 30
0.0
 10
-18.1943
 20
-8.9436
 30
0.0
 10
-18.1943
 20
-8.9436
 30
0.0
 10
-18.1943
 20
-8.9436
 30
0.0
 10
-17.9572
 20
-8.9436
 30
0.0
 10
-17.9572
 20
-8.9436
 30
0.0
 10
-17.9572
 20
-8.9436
 30
0.0
 10
-17.9572
 20
-8.9436
 30
0.0
 10
-17.9572
 20
-9.7498
 30
0.0
 10
-17.9572
 20
-9.7498
 30
0.0
 10
-17.9572
 20
-9.7498
 30
0.0
 10
-17.9572
 20
-9.7498
 30
0.0
 10
-17.4144
 20
-9.8589
 30
0.0
 10
-17.4144
 20
-9.8589
 30
0.0
 10
-17.4144
 20
-9.8589
 30
0.0
 10
-17.4991
 20
-9.7376
 30
0.0
 10
-17.5414
 20
-9.6101
 30
0.0
 10
-17.5414
 20
-9.477
 30
0.0
 10
-17.5414
 20
-9.477
 30
0.0
 10
-17.5414
 20
-9.3006
 30
0.0
 10
-17.4803
 20
-9.152
 30
0.0
 10
-17.358
 20
-9.0306
 30
0.0
 10
-17.358
 20
-9.0306
 30
0.0
 10
-17.2357
 20
-8.9093
 30
0.0
 10
-17.0786
 20
-8.8486
 30
0.0
 10
-16.8867
 20
-8.8486
 30
0.0
 10
-16.8867
 20
-8.8486
 30
0.0
 10
-16.7037
 20
-8.8486
 30
0.0
 10
-16.5456
 20
-8.9022
 30
0.0
 10
-16.4125
 20
-9.0085
 30
0.0
 10
-16.4125
 20
-9.0085
 30
0.0
 10
-16.2493
 20
-9.1383
 30
0.0
 10
-16.1675
 20
-9.3152
 30
0.0
 10
-16.1675
 20
-9.5391
 30
0.0
 10
-16.1675
 20
-9.5391
 30
0.0
 10
-16.1675
 20
-9.723
 30
0.0
 10
-16.2187
 20
-9.873
 30
0.0
 10
-16.3217
 20
-9.9892
 30
0.0
 10
-16.3217
 20
-9.9892
 30
0.0
 10
-16.4248
 20
-10.1054
 30
0.0
 10
-16.5612
 20
-10.1717
 30
0.0
 10
-16.731
 20
-10.1882
 30
0.0
  0
SPLINE
  5
51
330
1F
100
AcDbEntity
  8
AXIS
 62
   250
100
AcDbSpline
210
0.0
220
0.0
230
1.0
 70
    11
 71
     3
 72
    20
 73
    16
 74
     0
 42
0.0000000001
 43
0.0000000001
 40
0.0
 40
0.0
 40
0.0
 40
0.0
 40
0.2
 40
0.2
 40
0.2
 40
0.2
 40
0.4
 40
0.4
 40
0.4
 40
0.4
 40
0.6
 40
0.6
 40
0.6
 40
0.6
 40
1.0
 40
1.0
 40
1.0
 40
1.0
 10
-15.8524
 20
-4.6181
 30
0.0
 10
-15.8524
 20
-4.6181
 30
0.0
 10
-15.4995
 20
-2.1181
 30
0.0
 10
-15.4995
 20
-2.1181
 30
0.0
 10
-15.4995
 20
-2.1181
 30
0.0
 10
-15.4995
 20
-2.1181
 30
0.0
 10
-15.4212
 20
-2.1181
 30
0.0
 10
-15.4212
 20
-2.1181
 30
0.0
 10
-15.4212
 20
-2.1181
 30
0.0
 10
-15.4212
 20
-2.1181
 30
0.0
 10
-15.0449
 20
-4.6181
 30
0.0
 10
-15.0449
 20
-4.6181
 30
0.0
 10
-15.0449
 20
-4.6181
 30
0.0
 10
-15.0449
 20
-4.6181
 30
0.0
 10
-15.8524
 20
-4.6181
 30
0.0
 10
-15.8524
 20
-4.6181
 30
0.0
  0
SPLINE
  5
52
330
1F
100
AcDbEntity
  8
AXIS
 62
   250
100
AcDbSpline
210
0.0
220
0.0
230
1.0
 70
    11
 71
     3
 72
    20
 73
    16
 74
     0
 42
0.0000000001
 43
0.0000000001
 40
0.0
 40
0.0
 40
0.0
 40
0.0
 40
0.2
 40
0.2
 40
0.2
 40
0.2
 40
0.4
 40
0.4
 40
0.4
 40
0.4
 40
0.6
 40
0.6
 40
0.6
 40
0.6
 40
1.0
 40
1.0
 40
1.0
 40
1.0
 10
-15.0578
 20
-17.3141
 30
0.0
 10
-15.0578
 20
-17.3141
 30
0.0
 10
-15.4107
 20
-19.8141
 30
0.0
 10
-15.4107
 20
-19.8141
 30
0.0
 10
-15.4107
 20
-19.8141
 30
0.0
 10
-15.4107
 20
-19.8141
 30
0.0
 10
-15.489
 20
-19.8141
 30
0.0
 10
-15.489
 20
-19.8141
 30
0.0
 10
-15.489
 20
-19.8141
 30
0.0
 10
-15.489
 20
-19.8141
 30
0.0
 10
-15.8653
 20
-17.3141
 30
0.0
 10
-15.8653
 20
-17.3141
 30
0.0
 10
-15.8653
 20
-17.3141
 30
0.0
 10
-15.8653
 20
-17.3141
 30
0.0
 10
-15.0578
 20
-17.3141
 30
0.0
 10
-15.0578
 20
-17.3141
 30
0.0
  0
SPLINE
  5
53
330
1F
100
AcDbEntity
  8
AXIS
 62
   250
100
AcDbSpline
210
0.0
220
0.0
230
1.0
 70
     8
 71
     3
 72
    76
 73
    72
 74
     0
 42
0.0000000001
 43
0.0000000001
 40
0.0
 40
0.0
 40
0.0
 40
0.0
 40
0.0526315789473684
 40
0.0526315789473684
 40
0.0526315789473684
 40
0.0526315789473684
 40
0.1052631578947368
 40
0.1052631578947368
 40
0.1052631578947368
 40
0.1052631578947368
 40
0.1578947368421053
 40
0.1578947368421053
 40
0.1578947368421053
 40
0.1578947368421053
 40
0.2105263157894737
 40
0.2105263157894737
 40
0.2105263157894737
 40
0.2105263157894737
 40
0.2631578947368421
 40
0.2631578947368421
 40
0.2631578947368421
 40
0.2631578947368421
 40
0.3157894736842105
 40
0.3157894736842105
 40
0.3157894736842105
 40
0.3157894736842105
 40
0.3684210526315789
 40
0.3684210526315789
 40
0.3684210526315789
 40
0.3684210526315789
 40
0.4210526315789473
 40
0.4210526315789473
 40
0.4210526315789473
 40
0.4210526315789473
 40
0.4736842105263158
 40
0.4736842105263158
 40
0.4736842105263158
 40
0.4736842105263158
 40
0.5263157894736842
 40
0.5263157894736842
 40
0.5263157894736842
 40
0.5263157894736842
 40
0.5789473684210527
 40
0.5789473684210527
 40
0.5789473684210527
 40
0.5789473684210527
 40
0.631578947368421
 40
0.631578947368421
 40
0.631578947368421
 40
0.631578947368421
 40
0.6842105263157895
 40
0.6842105263157895
 40
0.6842105263157895
 40
0.6842105263157895
 40
0.7368421052631579
 40
0.7368421052631579
 40
0.7368421052631579
 40
0.7368421052631579
 40
0.7894736842105263
 40
0.7894736842105263
 40
0.7894736842105263
 40
0.7894736842105263
 40
0.8421052631578947
 40
0.8421052631578947
 40
0.8421052631578947
 40
0.8421052631578947
 40
0.8947368421052632
 40
0.8947368421052632
 40
0.8947368421052632
 40
0.8947368421052632
 40
1.0
 40
1.0
 40
1.0
 40
1.0
 10
19.2357
 20
-6.7925
 30
0.0
 10
19.2357
 20
-6.7925
 30
0.0
 10
19.2452
 20
-6.7923
 30
0.0
 10
19.2452
 20
-6.7923
 30
0.0
 10
19.2452
 20
-6.7923
 30
0.0
 10
19.2452
 20
-6.7923
 30
0.0
 10
19.272
 20
-6.9323
 30
0.0
 10
19.272
 20
-6.9323
 30
0.0
 10
19.272
 20
-6.9323
 30
0.0
 10
19.272
 20
-6.9323
 30
0.0
 10
19.2979
 20
-7.2122
 30
0.0
 10
19.2979
 20
-7.2122
 30
0.0
 10
19.2979
 20
-7.2122
 30
0.0
 10
19.2979
 20
-7.2122
 30
0.0
 10
19.3211
 20
-7.6229
 30
0.0
 10
19.3211
 20
-7.6229
 30
0.0
 10
19.3211
 20
-7.6229
 30
0.0
 10
19.3211
 20
-7.6229
 30
0.0
 10
19.3416
 20
-8.1503
 30
0.0
 10
19.3416
 20
-8.1503
 30
0.0
 10
19.3416
 20
-8.1503
 30
0.0
 10
19.3416
 20
-8.1503
 30
0.0
 10
19.3581
 20
-8.7758
 30
0.0
 10
19.3581
 20
-8.7758
 30
0.0
 10
19.3581
 20
-8.7758
 30
0.0
 10
19.3581
 20
-8.7758
 30
0.0
 10
19.3702
 20
-9.4779
 30
0.0
 10
19.3702
 20
-9.4779
 30
0.0
 10
19.3702
 20
-9.4779
 30
0.0
 10
19.3702
 20
-9.4779
 30
0.0
 10
19.378
 20
-10.2332
 30
0.0
 10
19.378
 20
-10.2332
 30
0.0
 10
19.378
 20
-10.2332
 30
0.0
 10
19.378
 20
-10.2332
 30
0.0
 10
19.3803
 20
-11.0151
 30
0.0
 10
19.3803
 20
-11.0151
 30
0.0
 10
19.3803
 20
-11.0151
 30
0.0
 10
19.3803
 20
-11.0151
 30
0.0
 10
19.378
 20
-11.774
 30
0.0
 10
19.378
 20
-11.774
 30
0.0
 10
19.378
 20
-11.774
 30
0.0
 10
19.378
 20
-11.774
 30
0.0
 10
19.3708
 20
-12.5222
 30
0.0
 10
19.3708
 20
-12.5222
 30
0.0
 10
19.3708
 20
-12.5222
 30
0.0
 10
19.3708
 20
-12.5222
 30
0.0
 10
19.3586
 20
-13.2271
 30
0.0
 10
19.3586
 20
-13.2271
 30
0.0
 10
19.3586
 20
-13.2271
 30
0.0
 10
19.3586
 20
-13.2271
 30
0.0
 10
19.3423
 20
-13.8576
 30
0.0
 10
19.3423
 20
-13.8576
 30
0.0
 10
19.3423
 20
-13.8576
 30
0.0
 10
19.3423
 20
-13.8576
 30
0.0
 10
19.3219
 20
-14.3894
 30
0.0
 10
19.3219
 20
-14.3894
 30
0.0
 10
19.3219
 20
-14.3894
 30
0.0
 10
19.3219
 20
-14.3894
 30
0.0
 10
19.2988
 20
-14.8048
 30
0.0
 10
19.2988
 20
-14.8048
 30
0.0
 10
19.2988
 20
-14.8048
 30
0.0
 10
19.2988
 20
-14.8048
 30
0.0
 10
19.2732
 20
-15.0902
 30
0.0
 10
19.2732
 20
-15.0902
 30
0.0
 10
19.2732
 20
-15.0902
 30
0.0
 10
19.2732
 20
-15.0902
 30
0.0
 10
19.2462
 20
-15.2354
 30
0.0
 10
19.2462
 20
-15.2354
 30
0.0
 10
19.2462
 20
-15.2354
 30
0.0
 10
19.2462
 20
-15.2354
 30
0.0
 10
19.2336
 20
-15.237
 30
0.0
 10
19.2336
 20
-15.237
 30
0.0
  0
SPLINE
  5
54
330
1F
100
AcDbEntity
  8
AXIS
 62
   250
100
AcDbSpline
210
0.0
220
0.0
230
1.0
 70
     8
 71
     3
 72
     8
 73
     4
 74
     0
 42
0.0000000001
 43
0.0000000001
 40
0.0
 40
0.0
 40
0.0
 40
0.0
 40
1.0
 40
1.0
 40
1.0
 40
1.0
 10
8.6429
 20
-13.3349
 30
0.0
 10
9.0336
 20
-11.813
 30
0.0
 10
9.0336
 20
-10.2171
 30
0.0
 10
8.6429
 20
-8.6953
 30
0.0
  0
SPLINE
  5
55
330
1F
100
AcDbEntity
  8
AXIS
 62
   250
100
AcDbSpline
210
0.0
220
0.0
230
1.0
 70
     8
 71
     3
 72
   100
 73
    96
 74
     0
 42
0.0000000001
 43
0.0000000001
 40
0.0
 40
0.0
 40
0.0
 40
0.0
 40
0.04
 40
0.04
 40
0.04
 40
0.04
 40
0.08
 40
0.08
 40
0.08
 40
0.08
 40
0.12
 40
0.12
 40
0.12
 40
0.12
 40
0.16
 40
0.16
 40
0.16
 40
0.16
 40
0.2
 40
0.2
 40
0.2
 40
0.2
 40
0.24
 40
0.24
 40
0.24
 40
0.24
 40
0.28
 40
0.28
 40
0.28
 40
0.28
 40
0.32
 40
0.32
 40
0.32
 40
0.32
 40
0.36
 40
0.36
 40
0.36
 40
0.36
 40
0.4
 40
0.4
 40
0.4
 40
0.4
 40
0.44
 40
0.44
 40
0.44
 40
0.44
 40
0.48
 40
0.48
 40
0.48
 40
0.48
 40
0.52
 40
0.52
 40
0.52
 40
0.52
 40
0.56
 40
0.56
 40
0.56
 40
0.56
 40
0.6
 40
0.6
 40
0.6
 40
0.6
 40
0.64
 40
0.64
 40
0.64
 40
0.64
 40
0.68
 40
0.68
 40
0.68
 40
0.68
 40
0.72
 40
0.72
 40
0.72
 40
0.72
 40
0.76
 40
0.76
 40
0.76
 40
0.76
 40
0.8
 40
0.8
 40
0.8
 40
0.8
 40
0.84
 40
0.84
 40
0.84
 40
0.84
 40
0.88
 40
0.88
 40
0.88
 40
0.88
 40
0.92
 40
0.92
 40
0.92
 40
0.92
 40
1.0
 40
1.0
 40
1.0
 40
1.0
 10
11.567
 20
-15.2536
 30
0.0
 10
11.567
 20
-15.2536
 30
0.0
 10
11.667
 20
-15.2536
 30
0.0
 10
11.667
 20
-15.2536
 30
0.0
 10
11.667
 20
-15.2536
 30
0.0
 10
11.667
 20
-15.2536
 30
0.0
 10
19.2323
 20
-15.2536
 30
0.0
 10
19.2323
 20
-15.2536
 30
0.0
 10
19.2323
 20
-15.2536
 30
0.0
 10
19.2323
 20
-15.2536
 30
0.0
 10
19.9114
 20
-15.0717
 30
0.0
 10
19.9114
 20
-15.0717
 30
0.0
 10
19.9114
 20
-15.0717
 30
0.0
 10
19.9114
 20
-15.0717
 30
0.0
 10
19.9234
 20
-15.0545
 30
0.0
 10
19.9234
 20
-15.0545
 30
0.0
 10
19.9234
 20
-15.0545
 30
0.0
 10
19.9234
 20
-15.0545
 30
0.0
 10
19.9493
 20
-14.9156
 30
0.0
 10
19.9493
 20
-14.9156
 30
0.0
 10
19.9493
 20
-14.9156
 30
0.0
 10
19.9493
 20
-14.9156
 30
0.0
 10
19.9738
 20
-14.6424
 30
0.0
 10
19.9738
 20
-14.6424
 30
0.0
 10
19.9738
 20
-14.6424
 30
0.0
 10
19.9738
 20
-14.6424
 30
0.0
 10
19.9961
 20
-14.2445
 30
0.0
 10
19.9961
 20
-14.2445
 30
0.0
 10
19.9961
 20
-14.2445
 30
0.0
 10
19.9961
 20
-14.2445
 30
0.0
 10
20.0153
 20
-13.7358
 30
0.0
 10
20.0153
 20
-13.7358
 30
0.0
 10
20.0153
 20
-13.7358
 30
0.0
 10
20.0153
 20
-13.7358
 30
0.0
 10
20.0309
 20
-13.1581
 30
0.0
 10
20.0309
 20
-13.1581
 30
0.0
 10
20.0309
 20
-13.1581
 30
0.0
 10
20.0309
 20
-13.1581
 30
0.0
 10
20.0478
 20
-12.4779
 30
0.0
 10
20.0478
 20
-12.4779
 30
0.0
 10
20.0478
 20
-12.4779
 30
0.0
 10
20.0478
 20
-12.4779
 30
0.0
 10
20.0496
 20
-11.7724
 30
0.0
 10
20.0496
 20
-11.7724
 30
0.0
 10
20.0496
 20
-11.7724
 30
0.0
 10
20.0496
 20
-11.7724
 30
0.0
 10
20.0404
 20
-11.0265
 30
0.0
 10
20.0404
 20
-11.0265
 30
0.0
 10
20.0404
 20
-11.0265
 30
0.0
 10
20.0404
 20
-11.0265
 30
0.0
 10
20.0494
 20
-10.2665
 30
0.0
 10
20.0494
 20
-10.2665
 30
0.0
 10
20.0494
 20
-10.2665
 30
0.0
 10
20.0494
 20
-10.2665
 30
0.0
 10
20.0422
 20
-9.5592
 30
0.0
 10
20.0422
 20
-9.5592
 30
0.0
 10
20.0422
 20
-9.5592
 30
0.0
 10
20.0422
 20
-9.5592
 30
0.0
 10
20.0374
 20
-8.8852
 30
0.0
 10
20.0374
 20
-8.8852
 30
0.0
 10
20.0374
 20
-8.8852
 30
0.0
 10
20.0374
 20
-8.8852
 30
0.0
 10
20.0145
 20
-8.2939
 30
0.0
 10
20.0145
 20
-8.2939
 30
0.0
 10
20.0145
 20
-8.2939
 30
0.0
 10
20.0145
 20
-8.2939
 30
0.0
 10
19.9978
 20
-7.7711
 30
0.0
 10
19.9978
 20
-7.7711
 30
0.0
 10
19.9978
 20
-7.7711
 30
0.0
 10
19.9978
 20
-7.7711
 30
0.0
 10
19.9727
 20
-7.3753
 30
0.0
 10
19.9727
 20
-7.3753
 30
0.0
 10
19.9727
 20
-7.3753
 30
0.0
 10
19.9727
 20
-7.3753
 30
0.0
 10
19.9482
 20
-7.1071
 30
0.0
 10
19.9482
 20
-7.1071
 30
0.0
 10
19.9482
 20
-7.1071
 30
0.0
 10
19.9482
 20
-7.1071
 30
0.0
 10
19.9226
 20
-6.9734
 30
0.0
 10
19.9226
 20
-6.9734
 30
0.0
 10
19.9226
 20
-6.9734
 30
0.0
 10
19.9226
 20
-6.9734
 30
0.0
 10
19.9114
 20
-6.9584
 30
0.0
 10
19.9114
 20
-6.9584
 30
0.0
 10
19.9114
 20
-6.9584
 30
0.0
 10
19.9114
 20
-6.9584
 30
0.0
 10
19.3356
 20
-6.803
 30
0.0
 10
19.3356
 20
-6.803
 30
0.0
 10
19.3356
 20
-6.803
 30
0.0
 10
19.3356
 20
-6.803
 30
0.0
 10
19.2323
 20
-6.7764
 30
0.0
 10
19.2323
 20
-6.7764
 30
0.0
 10
19.2323
 20
-6.7764
 30
0.0
 10
19.2323
 20
-6.7764
 30
0.0
 10
11.567
 20
-6.7764
 30
0.0
 10
11.567
 20
-6.7764
 30
0.0
  0
SPLINE
  5
56
330
1F
100
AcDbEntity
  8
AXIS
 62
   250
100
AcDbSpline
210
0.0
220
0.0
230
1.0
 70
    11
 71
     3
 72
    20
 73
    16
 74
     0
 42
0.0000000001
 43
0.0000000001
 40
0.0
 40
0.0
 40
0.0
 40
0.0
 40
0.2
 40
0.2
 40
0.2
 40
0.2
 40
0.4
 40
0.4
 40
0.4
 40
0.4
 40
0.6
 40
0.6
 40
0.6
 40
0.6
 40
1.0
 40
1.0
 40
1.0
 40
1.0
 10
-13.1049
 20
-11.0151
 30
0.0
 10
-13.1049
 20
-18.0379
 30
0.0
 10
-7.4118
 20
-23.731
 30
0.0
 10
-0.389
 20
-23.731
 30
0.0
 10
-0.389
 20
-23.731
 30
0.0
 10
6.6338
 20
-23.731
 30
0.0
 10
12.3269
 20
-18.0379
 30
0.0
 10
12.3269
 20
-11.0151
 30
0.0
 10
12.3269
 20
-11.0151
 30
0.0
 10
12.3269
 20
-3.9923
 30
0.0
 10
6.6338
 20
1.7009
 30
0.0
 10
-0.389
 20
1.7009
 30
0.0
 10
-0.389
 20
1.7009
 30
0.0
 10
-7.4118
 20
1.7009
 30
0.0
 10
-13.1049
 20
-3.9923
 30
0.0
 10
-13.1049
 20
-11.0151
 30
0.0
  0
SPLINE
  5
57
330
1F
100
AcDbEntity
  8
AXIS
 62
   250
100
AcDbSpline
210
0.0
220
0.0
230
1.0
 70
     8
 71
     3
 72
     8
 73
     4
 74
     0
 42
0.0000000001
 43
0.0000000001
 40
0.0
 40
0.0
 40
0.0
 40
0.0
 40
1.0
 40
1.0
 40
1.0
 40
1.0
 10
-2.7089
 20
-20.0469
 30
0.0
 10
-1.187
 20
-20.4378
 30
0.0
 10
0.4089
 20
-20.4378
 30
0.0
 10
1.9307
 20
-20.0469
 30
0.0
  0
SPLINE
  5
58
330
1F
100
AcDbEntity
  8
AXIS
 62
   250
100
AcDbSpline
210
0.0
220
0.0
230
1.0
 70
     8
 71
     3
 72
     8
 73
     4
 74
     0
 42
0.0000000001
 43
0.0000000001
 40
0.0
 40
0.0
 40
0.0
 40
0.0
 40
1.0
 40
1.0
 40
1.0
 40
1.0
 10
-9.4209
 20
-8.6953
 30
0.0
 10
-9.8118
 20
-10.2171
 30
0.0
 10
-9.8118
 20
-11.813
 30
0.0
 10
-9.4209
 20
-13.3349
 30
0.0
  0
SPLINE
  5
59
330
1F
100
AcDbEntity
  8
AXIS
 62
   250
100
AcDbSpline
210
0.0
220
0.0
230
1.0
 70
     8
 71
     3
 72
     8
 73
     4
 74
     0
 42
0.0000000001
 43
0.0000000001
 40
0.0
 40
0.0
 40
0.0
 40
0.0
 40
1.0
 40
1.0
 40
1.0
 40
1.0
 10
1.9307
 20
-1.9831
 30
0.0
 10
0.4089
 20
-1.5924
 30
0.0
 10
-1.187
 20
-1.5924
 30
0.0
 10
-2.7089
 20
-1.9831
 30
0.0
  0
SPLINE
  5
5A
330
1F
100
AcDbEntity
  8
AXIS
 62
   250
100
AcDbSpline
210
0.0
220
0.0
230
1.0
 70
    11
 71
     3
 72
    36
 73
    32
 74
     0
 42
0.0000000001
 43
0.0000000001
 40
0.0
 40
0.0
 40
0.0
 40
0.0
 40
0.1111111111111111
 40
0.1111111111111111
 40
0.1111111111111111
 40
0.1111111111111111
 40
0.2222222222222222
 40
0.2222222222222222
 40
0.2222222222222222
 40
0.2222222222222222
 40
0.3333333333333333
 40
0.3333333333333333
 40
0.3333333333333333
 40
0.3333333333333333
 40
0.4444444444444444
 40
0.4444444444444444
 40
0.4444444444444444
 40
0.4444444444444444
 40
0.5555555555555556
 40
0.5555555555555556
 40
0.5555555555555556
 40
0.5555555555555556
 40
0.6666666666666666
 40
0.6666666666666666
 40
0.6666666666666666
 40
0.6666666666666666
 40
0.7777777777777778
 40
0.7777777777777778
 40
0.7777777777777778
 40
0.7777777777777778
 40
1.0
 40
1.0
 40
1.0
 40
1.0
 10
-9.1875
 20
-1.9922
 30
0.0
 10
-9.1875
 20
-1.9922
 30
0.0
 10
8.4136
 20
-1.9922
 30
0.0
 10
8.4136
 20
-1.9922
 30
0.0
 10
8.4136
 20
-1.9922
 30
0.0
 10
8.5217
 20
-1.9922
 30
0.0
 10
8.6099
 20
-2.0741
 30
0.0
 10
8.6099
 20
-2.1744
 30
0.0
 10
8.6099
 20
-2.1744
 30
0.0
 10
8.6099
 20
-2.1744
 30
0.0
 10
8.6099
 20
-19.8344
 30
0.0
 10
8.6099
 20
-19.8344
 30
0.0
 10
8.6099
 20
-19.8344
 30
0.0
 10
8.6099
 20
-19.9347
 30
0.0
 10
8.5217
 20
-20.0166
 30
0.0
 10
8.4136
 20
-20.0166
 30
0.0
 10
8.4136
 20
-20.0166
 30
0.0
 10
8.4136
 20
-20.0166
 30
0.0
 10
-9.1875
 20
-20.0166
 30
0.0
 10
-9.1875
 20
-20.0166
 30
0.0
 10
-9.1875
 20
-20.0166
 30
0.0
 10
-9.2955
 20
-20.0166
 30
0.0
 10
-9.3838
 20
-19.9347
 30
0.0
 10
-9.3838
 20
-19.8344
 30
0.0
 10
-9.3838
 20
-19.8344
 30
0.0
 10
-9.3838
 20
-19.8344
 30
0.0
 10
-9.3838
 20
-2.1744
 30
0.0
 10
-9.3838
 20
-2.1744
 30
0.0
 10
-9.3838
 20
-2.1744
 30
0.0
 10
-9.3838
 20
-2.0741
 30
0.0
 10
-9.2955
 20
-1.9922
 30
0.0
 10
-9.1875
 20
-1.9922
 30
0.0
  0
SPLINE
  5
5B
330
1F
100
AcDbEntity
  8
AXIS
 62
   250
100
AcDbSpline
210
0.0
220
0.0
230
1.0
 70
    11
 71
     3
 72
    36
 73
    32
 74
     0
 42
0.0000000001
 43
0.0000000001
 40
0.0
 40
0.0
 40
0.0
 40
0.0
 40
0.1111111111111111
 40
0.1111111111111111
 40
0.1111111111111111
 40
0.1111111111111111
 40
0.2222222222222222
 40
0.2222222222222222
 40
0.2222222222222222
 40
0.2222222222222222
 40
0.3333333333333333
 40
0.3333333333333333
 40
0.3333333333333333
 40
0.3333333333333333
 40
0.4444444444444444
 40
0.4444444444444444
 40
0.4444444444444444
 40
0.4444444444444444
 40
0.5555555555555556
 40
0.5555555555555556
 40
0.5555555555555556
 40
0.5555555555555556
 40
0.6666666666666666
 40
0.6666666666666666
 40
0.6666666666666666
 40
0.6666666666666666
 40
0.7777777777777778
 40
0.7777777777777778
 40
0.7777777777777778
 40
0.7777777777777778
 40
1.0
 40
1.0
 40
1.0
 40
1.0
 10
8.2562
 20
-2.6999
 30
0.0
 10
8.2562
 20
-2.516
 30
0.0
 10
8.1291
 20
-2.366
 30
0.0
 10
7.9734
 20
-2.366
 30
0.0
 10
7.9734
 20
-2.366
 30
0.0
 10
7.9734
 20
-2.366
 30
0.0
 10
-8.7468
 20
-2.366
 30
0.0
 10
-8.7468
 20
-2.366
 30
0.0
 10
-8.7468
 20
-2.366
 30
0.0
 10
-8.9025
 20
-2.366
 30
0.0
 10
-9.0296
 20
-2.516
 30
0.0
 10
-9.0296
 20
-2.6999
 30
0.0
 10
-9.0296
 20
-2.6999
 30
0.0
 10
-9.0296
 20
-2.6999
 30
0.0
 10
-9.0296
 20
-19.326
 30
0.0
 10
-9.0296
 20
-19.326
 30
0.0
 10
-9.0296
 20
-19.326
 30
0.0
 10
-9.0296
 20
-19.5099
 30
0.0
 10
-8.9025
 20
-19.6599
 30
0.0
 10
-8.7468
 20
-19.6599
 30
0.0
 10
-8.7468
 20
-19.6599
 30
0.0
 10
-8.7468
 20
-19.6599
 30
0.0
 10
7.9734
 20
-19.6599
 30
0.0
 10
7.9734
 20
-19.6599
 30
0.0
 10
7.9734
 20
-19.6599
 30
0.0
 10
8.1291
 20
-19.6599
 30
0.0
 10
8.2562
 20
-19.5099
 30
0.0
 10
8.2562
 20
-19.326
 30
0.0
 10
8.2562
 20
-19.326
 30
0.0
 10
8.2562
 20
-19.326
 30
0.0
 10
8.2562
 20
-2.6999
 30
0.0
 10
8.2562
 20
-2.6999
 30
0.0
  0
SPLINE
  5
5C
330
1F
100
AcDbEntity
  8
AXIS
 62
   250
100
AcDbSpline
210
0.0
220
0.0
230
1.0
 70
    11
 71
     3
 72
    36
 73
    32
 74
     0
 42
0.0000000001
 43
0.0000000001
 40
0.0
 40
0.0
 40
0.0
 40
0.0
 40
0.1111111111111111
 40
0.1111111111111111
 40
0.1111111111111111
 40
0.1111111111111111
 40
0.2222222222222222
 40
0.2222222222222222
 40
0.2222222222222222
 40
0.2222222222222222
 40
0.3333333333333333
 40
0.3333333333333333
 40
0.3333333333333333
 40
0.3333333333333333
 40
0.4444444444444444
 40
0.4444444444444444
 40
0.4444444444444444
 40
0.4444444444444444
 40
0.5555555555555556
 40
0.5555555555555556
 40
0.5555555555555556
 40
0.5555555555555556
 40
0.6666666666666666
 40
0.6666666666666666
 40
0.6666666666666666
 40
0.6666666666666666
 40
0.7777777777777778
 40
0.7777777777777778
 40
0.7777777777777778
 40
0.7777777777777778
 40
1.0
 40
1.0
 40
1.0
 40
1.0
 10
-6.5072
 20
-4.1079
 30
0.0
 10
-6.5072
 20
-4.1079
 30
0.0
 10
-2.0132
 20
-4.1079
 30
0.0
 10
-2.0132
 20
-4.1079
 30
0.0
 10
-2.0132
 20
-4.1079
 30
0.0
 10
-1.5914
 20
-4.1079
 30
0.0
 10
-1.2464
 20
-4.4038
 30
0.0
 10
-1.2464
 20
-4.7656
 30
0.0
 10
-1.2464
 20
-4.7656
 30
0.0
 10
-1.2464
 20
-4.7656
 30
0.0
 10
-1.2464
 20
-4.7657
 30
0.0
 10
-1.2464
 20
-4.7657
 30
0.0
 10
-1.2464
 20
-4.7657
 30
0.0
 10
-1.2464
 20
-5.1275
 30
0.0
 10
-1.5914
 20
-5.4234
 30
0.0
 10
-2.0132
 20
-5.4234
 30
0.0
 10
-2.0132
 20
-5.4234
 30
0.0
 10
-2.0132
 20
-5.4234
 30
0.0
 10
-6.5072
 20
-5.4234
 30
0.0
 10
-6.5072
 20
-5.4234
 30
0.0
 10
-6.5072
 20
-5.4234
 30
0.0
 10
-6.929
 20
-5.4234
 30
0.0
 10
-7.274
 20
-5.1275
 30
0.0
 10
-7.274
 20
-4.7657
 30
0.0
 10
-7.274
 20
-4.7657
 30
0.0
 10
-7.274
 20
-4.7657
 30
0.0
 10
-7.274
 20
-4.7656
 30
0.0
 10
-7.274
 20
-4.7656
 30
0.0
 10
-7.274
 20
-4.7656
 30
0.0
 10
-7.274
 20
-4.4038
 30
0.0
 10
-6.929
 20
-4.1079
 30
0.0
 10
-6.5072
 20
-4.1079
 30
0.0
  0
SPLINE
  5
5D
330
1F
100
AcDbEntity
  8
AXIS
 62
   250
100
AcDbSpline
210
0.0
220
0.0
230
1.0
 70
    11
 71
     3
 72
    36
 73
    32
 74
     0
 42
0.0000000001
 43
0.0000000001
 40
0.0
 40
0.0
 40
0.0
 40
0.0
 40
0.1111111111111111
 40
0.1111111111111111
 40
0.1111111111111111
 40
0.1111111111111111
 40
0.2222222222222222
 40
0.2222222222222222
 40
0.2222222222222222
 40
0.2222222222222222
 40
0.3333333333333333
 40
0.3333333333333333
 40
0.3333333333333333
 40
0.3333333333333333
 40
0.4444444444444444
 40
0.4444444444444444
 40
0.4444444444444444
 40
0.4444444444444444
 40
0.5555555555555556
 40
0.5555555555555556
 40
0.5555555555555556
 40
0.5555555555555556
 40
0.6666666666666666
 40
0.6666666666666666
 40
0.6666666666666666
 40
0.6666666666666666
 40
0.7777777777777778
 40
0.7777777777777778
 40
0.7777777777777778
 40
0.7777777777777778
 40
1.0
 40
1.0
 40
1.0
 40
1.0
 10
-6.5282
 20
-8.8649
 30
0.0
 10
-6.5282
 20
-8.8649
 30
0.0
 10
-2.0342
 20
-8.8649
 30
0.0
 10
-2.0342
 20
-8.8649
 30
0.0
 10
-2.0342
 20
-8.8649
 30
0.0
 10
-1.6124
 20
-8.8649
 30
0.0
 10
-1.2674
 20
-9.1608
 30
0.0
 10
-1.2674
 20
-9.5226
 30
0.0
 10
-1.2674
 20
-9.5226
 30
0.0
 10
-1.2674
 20
-9.5226
 30
0.0
 10
-1.2674
 20
-9.5227
 30
0.0
 10
-1.2674
 20
-9.5227
 30
0.0
 10
-1.2674
 20
-9.5227
 30
0.0
 10
-1.2674
 20
-9.8845
 30
0.0
 10
-1.6124
 20
-10.1804
 30
0.0
 10
-2.0342
 20
-10.1804
 30
0.0
 10
-2.0342
 20
-10.1804
 30
0.0
 10
-2.0342
 20
-10.1804
 30
0.0
 10
-6.5282
 20
-10.1804
 30
0.0
 10
-6.5282
 20
-10.1804
 30
0.0
 10
-6.5282
 20
-10.1804
 30
0.0
 10
-6.95
 20
-10.1804
 30
0.0
 10
-7.295
 20
-9.8845
 30
0.0
 10
-7.295
 20
-9.5227
 30
0.0
 10
-7.295
 20
-9.5227
 30
0.0
 10
-7.295
 20
-9.5227
 30
0.0
 10
-7.295
 20
-9.5226
 30
0.0
 10
-7.295
 20
-9.5226
 30
0.0
 10
-7.295
 20
-9.5226
 30
0.0
 10
-7.295
 20
-9.1608
 30
0.0
 10
-6.95
 20
-8.8649
 30
0.0
 10
-6.5282
 20
-8.8649
 30
0.0
  0
SPLINE
  5
5E
330
1F
100
AcDbEntity
  8
AXIS
 62
   250
100
AcDbSpline
210
0.0
220
0.0
230
1.0
 70
    11
 71
     3
 72
    36
 73
    32
 74
     0
 42
0.0000000001
 43
0.0000000001
 40
0.0
 40
0.0
 40
0.0
 40
0.0
 40
0.1111111111111111
 40
0.1111111111111111
 40
0.1111111111111111
 40
0.1111111111111111
 40
0.2222222222222222
 40
0.2222222222222222
 40
0.2222222222222222
 40
0.2222222222222222
 40
0.3333333333333333
 40
0.3333333333333333
 40
0.3333333333333333
 40
0.3333333333333333
 40
0.4444444444444444
 40
0.4444444444444444
 40
0.4444444444444444
 40
0.4444444444444444
 40
0.5555555555555556
 40
0.5555555555555556
 40
0.5555555555555556
 40
0.5555555555555556
 40
0.6666666666666666
 40
0.6666666666666666
 40
0.6666666666666666
 40
0.6666666666666666
 40
0.7777777777777778
 40
0.7777777777777778
 40
0.7777777777777778
 40
0.7777777777777778
 40
1.0
 40
1.0
 40
1.0
 40
1.0
 10
-6.4862
 20
-6.4922
 30
0.0
 10
-6.4862
 20
-6.4922
 30
0.0
 10
-1.9922
 20
-6.4922
 30
0.0
 10
-1.9922
 20
-6.4922
 30
0.0
 10
-1.9922
 20
-6.4922
 30
0.0
 10
-1.5704
 20
-6.4922
 30
0.0
 10
-1.2254
 20
-6.7881
 30
0.0
 10
-1.2254
 20
-7.1499
 30
0.0
 10
-1.2254
 20
-7.1499
 30
0.0
 10
-1.2254
 20
-7.1499
 30
0.0
 10
-1.2254
 20
-7.15
 30
0.0
 10
-1.2254
 20
-7.15
 30
0.0
 10
-1.2254
 20
-7.15
 30
0.0
 10
-1.2254
 20
-7.5118
 30
0.0
 10
-1.5704
 20
-7.8077
 30
0.0
 10
-1.9922
 20
-7.8077
 30
0.0
 10
-1.9922
 20
-7.8077
 30
0.0
 10
-1.9922
 20
-7.8077
 30
0.0
 10
-6.4862
 20
-7.8077
 30
0.0
 10
-6.4862
 20
-7.8077
 30
0.0
 10
-6.4862
 20
-7.8077
 30
0.0
 10
-6.908
 20
-7.8077
 30
0.0
 10
-7.253
 20
-7.5118
 30
0.0
 10
-7.253
 20
-7.15
 30
0.0
 10
-7.253
 20
-7.15
 30
0.0
 10
-7.253
 20
-7.15
 30
0.0
 10
-7.253
 20
-7.1499
 30
0.0
 10
-7.253
 20
-7.1499
 30
0.0
 10
-7.253
 20
-7.1499
 30
0.0
 10
-7.253
 20
-6.7881
 30
0.0
 10
-6.908
 20
-6.4922
 30
0.0
 10
-6.4862
 20
-6.4922
 30
0.0
  0
SPLINE
  5
5F
330
1F
100
AcDbEntity
  8
AXIS
 62
   250
100
AcDbSpline
210
0.0
220
0.0
230
1.0
 70
    11
 71
     3
 72
    36
 73
    32
 74
     0
 42
0.0000000001
 43
0.0000000001
 40
0.0
 40
0.0
 40
0.0
 40
0.0
 40
0.1111111111111111
 40
0.1111111111111111
 40
0.1111111111111111
 40
0.1111111111111111
 40
0.2222222222222222
 40
0.2222222222222222
 40
0.2222222222222222
 40
0.2222222222222222
 40
0.3333333333333333
 40
0.3333333333333333
 40
0.3333333333333333
 40
0.3333333333333333
 40
0.4444444444444444
 40
0.4444444444444444
 40
0.4444444444444444
 40
0.4444444444444444
 40
0.5555555555555556
 40
0.5555555555555556
 40
0.5555555555555556
 40
0.5555555555555556
 40
0.6666666666666666
 40
0.6666666666666666
 40
0.6666666666666666
 40
0.6666666666666666
 40
0.7777777777777778
 40
0.7777777777777778
 40
0.7777777777777778
 40
0.7777777777777778
 40
1.0
 40
1.0
 40
1.0
 40
1.0
 10
-1.2523
 20
-12.6823
 30
0.0
 10
-1.2523
 20
-12.6823
 30
0.0
 10
-1.2523
 20
-17.1763
 30
0.0
 10
-1.2523
 20
-17.1763
 30
0.0
 10
-1.2523
 20
-17.1763
 30
0.0
 10
-1.2523
 20
-17.5981
 30
0.0
 10
-1.5482
 20
-17.9431
 30
0.0
 10
-1.91
 20
-17.9431
 30
0.0
 10
-1.91
 20
-17.9431
 30
0.0
 10
-1.91
 20
-17.9431
 30
0.0
 10
-1.9101
 20
-17.9431
 30
0.0
 10
-1.9101
 20
-17.9431
 30
0.0
 10
-1.9101
 20
-17.9431
 30
0.0
 10
-2.2719
 20
-17.9431
 30
0.0
 10
-2.5678
 20
-17.5981
 30
0.0
 10
-2.5678
 20
-17.1763
 30
0.0
 10
-2.5678
 20
-17.1763
 30
0.0
 10
-2.5678
 20
-17.1763
 30
0.0
 10
-2.5678
 20
-12.6823
 30
0.0
 10
-2.5678
 20
-12.6823
 30
0.0
 10
-2.5678
 20
-12.6823
 30
0.0
 10
-2.5678
 20
-12.2605
 30
0.0
 10
-2.2719
 20
-11.9155
 30
0.0
 10
-1.9101
 20
-11.9155
 30
0.0
 10
-1.9101
 20
-11.9155
 30
0.0
 10
-1.9101
 20
-11.9155
 30
0.0
 10
-1.91
 20
-11.9155
 30
0.0
 10
-1.91
 20
-11.9155
 30
0.0
 10
-1.91
 20
-11.9155
 30
0.0
 10
-1.5482
 20
-11.9155
 30
0.0
 10
-1.2523
 20
-12.2605
 30
0.0
 10
-1.2523
 20
-12.6823
 30
0.0
  0
SPLINE
  5
60
330
1F
100
AcDbEntity
  8
AXIS
 62
   250
100
AcDbSpline
210
0.0
220
0.0
230
1.0
 70
    11
 71
     3
 72
    36
 73
    32
 74
     0
 42
0.0000000001
 43
0.0000000001
 40
0.0
 40
0.0
 40
0.0
 40
0.0
 40
0.1111111111111111
 40
0.1111111111111111
 40
0.1111111111111111
 40
0.1111111111111111
 40
0.2222222222222222
 40
0.2222222222222222
 40
0.2222222222222222
 40
0.2222222222222222
 40
0.3333333333333333
 40
0.3333333333333333
 40
0.3333333333333333
 40
0.3333333333333333
 40
0.4444444444444444
 40
0.4444444444444444
 40
0.4444444444444444
 40
0.4444444444444444
 40
0.5555555555555556
 40
0.5555555555555556
 40
0.5555555555555556
 40
0.5555555555555556
 40
0.6666666666666666
 40
0.6666666666666666
 40
0.6666666666666666
 40
0.6666666666666666
 40
0.7777777777777778
 40
0.7777777777777778
 40
0.7777777777777778
 40
0.7777777777777778
 40
1.0
 40
1.0
 40
1.0
 40
1.0
 10
-6.0093
 20
-12.6613
 30
0.0
 10
-6.0093
 20
-12.6613
 30
0.0
 10
-6.0093
 20
-17.1553
 30
0.0
 10
-6.0093
 20
-17.1553
 30
0.0
 10
-6.0093
 20
-17.1553
 30
0.0
 10
-6.0093
 20
-17.5771
 30
0.0
 10
-6.3052
 20
-17.9221
 30
0.0
 10
-6.667
 20
-17.9221
 30
0.0
 10
-6.667
 20
-17.9221
 30
0.0
 10
-6.667
 20
-17.9221
 30
0.0
 10
-6.6671
 20
-17.9221
 30
0.0
 10
-6.6671
 20
-17.9221
 30
0.0
 10
-6.6671
 20
-17.9221
 30
0.0
 10
-7.0289
 20
-17.9221
 30
0.0
 10
-7.3248
 20
-17.5771
 30
0.0
 10
-7.3248
 20
-17.1553
 30
0.0
 10
-7.3248
 20
-17.1553
 30
0.0
 10
-7.3248
 20
-17.1553
 30
0.0
 10
-7.3248
 20
-12.6613
 30
0.0
 10
-7.3248
 20
-12.6613
 30
0.0
 10
-7.3248
 20
-12.6613
 30
0.0
 10
-7.3248
 20
-12.2395
 30
0.0
 10
-7.0289
 20
-11.8945
 30
0.0
 10
-6.6671
 20
-11.8945
 30
0.0
 10
-6.6671
 20
-11.8945
 30
0.0
 10
-6.6671
 20
-11.8945
 30
0.0
 10
-6.667
 20
-11.8945
 30
0.0
 10
-6.667
 20
-11.8945
 30
0.0
 10
-6.667
 20
-11.8945
 30
0.0
 10
-6.3052
 20
-11.8945
 30
0.0
 10
-6.0093
 20
-12.2395
 30
0.0
 10
-6.0093
 20
-12.6613
 30
0.0
  0
SPLINE
  5
61
330
1F
100
AcDbEntity
  8
AXIS
 62
   250
100
AcDbSpline
210
0.0
220
0.0
230
1.0
 70
    11
 71
     3
 72
    36
 73
    32
 74
     0
 42
0.0000000001
 43
0.0000000001
 40
0.0
 40
0.0
 40
0.0
 40
0.0
 40
0.1111111111111111
 40
0.1111111111111111
 40
0.1111111111111111
 40
0.1111111111111111
 40
0.2222222222222222
 40
0.2222222222222222
 40
0.2222222222222222
 40
0.2222222222222222
 40
0.3333333333333333
 40
0.3333333333333333
 40
0.3333333333333333
 40
0.3333333333333333
 40
0.4444444444444444
 40
0.4444444444444444
 40
0.4444444444444444
 40
0.4444444444444444
 40
0.5555555555555556
 40
0.5555555555555556
 40
0.5555555555555556
 40
0.5555555555555556
 40
0.6666666666666666
 40
0.6666666666666666
 40
0.6666666666666666
 40
0.6666666666666666
 40
0.7777777777777778
 40
0.7777777777777778
 40
0.7777777777777778
 40
0.7777777777777778
 40
1.0
 40
1.0
 40
1.0
 40
1.0
 10
-3.6366
 20
-12.7033
 30
0.0
 10
-3.6366
 20
-12.7033
 30
0.0
 10
-3.6366
 20
-17.1973
 30
0.0
 10
-3.6366
 20
-17.1973
 30
0.0
 10
-3.6366
 20
-17.1973
 30
0.0
 10
-3.6366
 20
-17.6191
 30
0.0
 10
-3.9325
 20
-17.9641
 30
0.0
 10
-4.2943
 20
-17.9641
 30
0.0
 10
-4.2943
 20
-17.9641
 30
0.0
 10
-4.2943
 20
-17.9641
 30
0.0
 10
-4.2944
 20
-17.9641
 30
0.0
 10
-4.2944
 20
-17.9641
 30
0.0
 10
-4.2944
 20
-17.9641
 30
0.0
 10
-4.6562
 20
-17.9641
 30
0.0
 10
-4.9521
 20
-17.6191
 30
0.0
 10
-4.9521
 20
-17.1973
 30
0.0
 10
-4.9521
 20
-17.1973
 30
0.0
 10
-4.9521
 20
-17.1973
 30
0.0
 10
-4.9521
 20
-12.7033
 30
0.0
 10
-4.9521
 20
-12.7033
 30
0.0
 10
-4.9521
 20
-12.7033
 30
0.0
 10
-4.9521
 20
-12.2815
 30
0.0
 10
-4.6562
 20
-11.9365
 30
0.0
 10
-4.2944
 20
-11.9365
 30
0.0
 10
-4.2944
 20
-11.9365
 30
0.0
 10
-4.2944
 20
-11.9365
 30
0.0
 10
-4.2943
 20
-11.9365
 30
0.0
 10
-4.2943
 20
-11.9365
 30
0.0
 10
-4.2943
 20
-11.9365
 30
0.0
 10
-3.9325
 20
-11.9365
 30
0.0
 10
-3.6366
 20
-12.2815
 30
0.0
 10
-3.6366
 20
-12.7033
 30
0.0
  0
SPLINE
  5
62
330
1F
100
AcDbEntity
  8
AXIS
 62
   250
100
AcDbSpline
210
0.0
220
0.0
230
1.0
 70
    11
 71
     3
 72
    36
 73
    32
 74
     0
 42
0.0000000001
 43
0.0000000001
 40
0.0
 40
0.0
 40
0.0
 40
0.0
 40
0.1111111111111111
 40
0.1111111111111111
 40
0.1111111111111111
 40
0.1111111111111111
 40
0.2222222222222222
 40
0.2222222222222222
 40
0.2222222222222222
 40
0.2222222222222222
 40
0.3333333333333333
 40
0.3333333333333333
 40
0.3333333333333333
 40
0.3333333333333333
 40
0.4444444444444444
 40
0.4444444444444444
 40
0.4444444444444444
 40
0.4444444444444444
 40
0.5555555555555556
 40
0.5555555555555556
 40
0.5555555555555556
 40
0.5555555555555556
 40
0.6666666666666666
 40
0.6666666666666666
 40
0.6666666666666666
 40
0.6666666666666666
 40
0.7777777777777778
 40
0.7777777777777778
 40
0.7777777777777778
 40
0.7777777777777778
 40
1.0
 40
1.0
 40
1.0
 40
1.0
 10
1.2654
 20
-11.8936
 30
0.0
 10
1.2654
 20
-11.8936
 30
0.0
 10
5.7594
 20
-11.8936
 30
0.0
 10
5.7594
 20
-11.8936
 30
0.0
 10
5.7594
 20
-11.8936
 30
0.0
 10
6.1812
 20
-11.8936
 30
0.0
 10
6.5262
 20
-12.1895
 30
0.0
 10
6.5262
 20
-12.5513
 30
0.0
 10
6.5262
 20
-12.5513
 30
0.0
 10
6.5262
 20
-12.5513
 30
0.0
 10
6.5262
 20
-12.5514
 30
0.0
 10
6.5262
 20
-12.5514
 30
0.0
 10
6.5262
 20
-12.5514
 30
0.0
 10
6.5262
 20
-12.9132
 30
0.0
 10
6.1812
 20
-13.2091
 30
0.0
 10
5.7594
 20
-13.2091
 30
0.0
 10
5.7594
 20
-13.2091
 30
0.0
 10
5.7594
 20
-13.2091
 30
0.0
 10
1.2654
 20
-13.2091
 30
0.0
 10
1.2654
 20
-13.2091
 30
0.0
 10
1.2654
 20
-13.2091
 30
0.0
 10
0.8436
 20
-13.2091
 30
0.0
 10
0.4986
 20
-12.9132
 30
0.0
 10
0.4986
 20
-12.5514
 30
0.0
 10
0.4986
 20
-12.5514
 30
0.0
 10
0.4986
 20
-12.5514
 30
0.0
 10
0.4986
 20
-12.5513
 30
0.0
 10
0.4986
 20
-12.5513
 30
0.0
 10
0.4986
 20
-12.5513
 30
0.0
 10
0.4986
 20
-12.1895
 30
0.0
 10
0.8436
 20
-11.8936
 30
0.0
 10
1.2654
 20
-11.8936
 30
0.0
  0
SPLINE
  5
63
330
1F
100
AcDbEntity
  8
AXIS
 62
   250
100
AcDbSpline
210
0.0
220
0.0
230
1.0
 70
    11
 71
     3
 72
    36
 73
    32
 74
     0
 42
0.0000000001
 43
0.0000000001
 40
0.0
 40
0.0
 40
0.0
 40
0.0
 40
0.1111111111111111
 40
0.1111111111111111
 40
0.1111111111111111
 40
0.1111111111111111
 40
0.2222222222222222
 40
0.2222222222222222
 40
0.2222222222222222
 40
0.2222222222222222
 40
0.3333333333333333
 40
0.3333333333333333
 40
0.3333333333333333
 40
0.3333333333333333
 40
0.4444444444444444
 40
0.4444444444444444
 40
0.4444444444444444
 40
0.4444444444444444
 40
0.5555555555555556
 40
0.5555555555555556
 40
0.5555555555555556
 40
0.5555555555555556
 40
0.6666666666666666
 40
0.6666666666666666
 40
0.6666666666666666
 40
0.6666666666666666
 40
0.7777777777777778
 40
0.7777777777777778
 40
0.7777777777777778
 40
0.7777777777777778
 40
1.0
 40
1.0
 40
1.0
 40
1.0
 10
1.2444
 20
-16.6506
 30
0.0
 10
1.2444
 20
-16.6506
 30
0.0
 10
5.7384
 20
-16.6506
 30
0.0
 10
5.7384
 20
-16.6506
 30
0.0
 10
5.7384
 20
-16.6506
 30
0.0
 10
6.1602
 20
-16.6506
 30
0.0
 10
6.5052
 20
-16.9465
 30
0.0
 10
6.5052
 20
-17.3083
 30
0.0
 10
6.5052
 20
-17.3083
 30
0.0
 10
6.5052
 20
-17.3083
 30
0.0
 10
6.5052
 20
-17.3084
 30
0.0
 10
6.5052
 20
-17.3084
 30
0.0
 10
6.5052
 20
-17.3084
 30
0.0
 10
6.5052
 20
-17.6702
 30
0.0
 10
6.1602
 20
-17.9661
 30
0.0
 10
5.7384
 20
-17.9661
 30
0.0
 10
5.7384
 20
-17.9661
 30
0.0
 10
5.7384
 20
-17.9661
 30
0.0
 10
1.2444
 20
-17.9661
 30
0.0
 10
1.2444
 20
-17.9661
 30
0.0
 10
1.2444
 20
-17.9661
 30
0.0
 10
0.8226
 20
-17.9661
 30
0.0
 10
0.4776
 20
-17.6702
 30
0.0
 10
0.4776
 20
-17.3084
 30
0.0
 10
0.4776
 20
-17.3084
 30
0.0
 10
0.4776
 20
-17.3084
 30
0.0
 10
0.4776
 20
-17.3083
 30
0.0
 10
0.4776
 20
-17.3083
 30
0.0
 10
0.4776
 20
-17.3083
 30
0.0
 10
0.4776
 20
-16.9465
 30
0.0
 10
0.8226
 20
-16.6506
 30
0.0
 10
1.2444
 20
-16.6506
 30
0.0
  0
SPLINE
  5
64
330
1F
100
AcDbEntity
  8
AXIS
 62
   250
100
AcDbSpline
210
0.0
220
0.0
230
1.0
 70
    11
 71
     3
 72
    36
 73
    32
 74
     0
 42
0.0000000001
 43
0.0000000001
 40
0.0
 40
0.0
 40
0.0
 40
0.0
 40
0.1111111111111111
 40
0.1111111111111111
 40
0.1111111111111111
 40
0.1111111111111111
 40
0.2222222222222222
 40
0.2222222222222222
 40
0.2222222222222222
 40
0.2222222222222222
 40
0.3333333333333333
 40
0.3333333333333333
 40
0.3333333333333333
 40
0.3333333333333333
 40
0.4444444444444444
 40
0.4444444444444444
 40
0.4444444444444444
 40
0.4444444444444444
 40
0.5555555555555556
 40
0.5555555555555556
 40
0.5555555555555556
 40
0.5555555555555556
 40
0.6666666666666666
 40
0.6666666666666666
 40
0.6666666666666666
 40
0.6666666666666666
 40
0.7777777777777778
 40
0.7777777777777778
 40
0.7777777777777778
 40
0.7777777777777778
 40
1.0
 40
1.0
 40
1.0
 40
1.0
 10
1.2864
 20
-14.2779
 30
0.0
 10
1.2864
 20
-14.2779
 30
0.0
 10
5.7804
 20
-14.2779
 30
0.0
 10
5.7804
 20
-14.2779
 30
0.0
 10
5.7804
 20
-14.2779
 30
0.0
 10
6.2022
 20
-14.2779
 30
0.0
 10
6.5472
 20
-14.5738
 30
0.0
 10
6.5472
 20
-14.9356
 30
0.0
 10
6.5472
 20
-14.9356
 30
0.0
 10
6.5472
 20
-14.9356
 30
0.0
 10
6.5472
 20
-14.9357
 30
0.0
 10
6.5472
 20
-14.9357
 30
0.0
 10
6.5472
 20
-14.9357
 30
0.0
 10
6.5472
 20
-15.2975
 30
0.0
 10
6.2022
 20
-15.5934
 30
0.0
 10
5.7804
 20
-15.5934
 30
0.0
 10
5.7804
 20
-15.5934
 30
0.0
 10
5.7804
 20
-15.5934
 30
0.0
 10
1.2864
 20
-15.5934
 30
0.0
 10
1.2864
 20
-15.5934
 30
0.0
 10
1.2864
 20
-15.5934
 30
0.0
 10
0.8646
 20
-15.5934
 30
0.0
 10
0.5196
 20
-15.2975
 30
0.0
 10
0.5196
 20
-14.9357
 30
0.0
 10
0.5196
 20
-14.9357
 30
0.0
 10
0.5196
 20
-14.9357
 30
0.0
 10
0.5196
 20
-14.9356
 30
0.0
 10
0.5196
 20
-14.9356
 30
0.0
 10
0.5196
 20
-14.9356
 30
0.0
 10
0.5196
 20
-14.5738
 30
0.0
 10
0.8646
 20
-14.2779
 30
0.0
 10
1.2864
 20
-14.2779
 30
0.0
  0
SPLINE
  5
65
330
1F
100
AcDbEntity
  8
AXIS
 62
   250
100
AcDbSpline
210
0.0
220
0.0
230
1.0
 70
    11
 71
     3
 72
    36
 73
    32
 74
     0
 42
0.0000000001
 43
0.0000000001
 40
0.0
 40
0.0
 40
0.0
 40
0.0
 40
0.1111111111111111
 40
0.1111111111111111
 40
0.1111111111111111
 40
0.1111111111111111
 40
0.2222222222222222
 40
0.2222222222222222
 40
0.2222222222222222
 40
0.2222222222222222
 40
0.3333333333333333
 40
0.3333333333333333
 40
0.3333333333333333
 40
0.3333333333333333
 40
0.4444444444444444
 40
0.4444444444444444
 40
0.4444444444444444
 40
0.4444444444444444
 40
0.5555555555555556
 40
0.5555555555555556
 40
0.5555555555555556
 40
0.5555555555555556
 40
0.6666666666666666
 40
0.6666666666666666
 40
0.6666666666666666
 40
0.6666666666666666
 40
0.7777777777777778
 40
0.7777777777777778
 40
0.7777777777777778
 40
0.7777777777777778
 40
1.0
 40
1.0
 40
1.0
 40
1.0
 10
6.5527
 20
-4.8396
 30
0.0
 10
6.5527
 20
-4.8396
 30
0.0
 10
6.5527
 20
-9.3336
 30
0.0
 10
6.5527
 20
-9.3336
 30
0.0
 10
6.5527
 20
-9.3336
 30
0.0
 10
6.5527
 20
-9.7554
 30
0.0
 10
6.2568
 20
-10.1004
 30
0.0
 10
5.895
 20
-10.1004
 30
0.0
 10
5.895
 20
-10.1004
 30
0.0
 10
5.895
 20
-10.1004
 30
0.0
 10
5.8949
 20
-10.1004
 30
0.0
 10
5.8949
 20
-10.1004
 30
0.0
 10
5.8949
 20
-10.1004
 30
0.0
 10
5.5331
 20
-10.1004
 30
0.0
 10
5.2372
 20
-9.7554
 30
0.0
 10
5.2372
 20
-9.3336
 30
0.0
 10
5.2372
 20
-9.3336
 30
0.0
 10
5.2372
 20
-9.3336
 30
0.0
 10
5.2372
 20
-4.8396
 30
0.0
 10
5.2372
 20
-4.8396
 30
0.0
 10
5.2372
 20
-4.8396
 30
0.0
 10
5.2372
 20
-4.4178
 30
0.0
 10
5.5331
 20
-4.0728
 30
0.0
 10
5.8949
 20
-4.0728
 30
0.0
 10
5.8949
 20
-4.0728
 30
0.0
 10
5.8949
 20
-4.0728
 30
0.0
 10
5.895
 20
-4.0728
 30
0.0
 10
5.895
 20
-4.0728
 30
0.0
 10
5.895
 20
-4.0728
 30
0.0
 10
6.2568
 20
-4.0728
 30
0.0
 10
6.5527
 20
-4.4178
 30
0.0
 10
6.5527
 20
-4.8396
 30
0.0
  0
SPLINE
  5
66
330
1F
100
AcDbEntity
  8
AXIS
 62
   250
100
AcDbSpline
210
0.0
220
0.0
230
1.0
 70
    11
 71
     3
 72
    36
 73
    32
 74
     0
 42
0.0000000001
 43
0.0000000001
 40
0.0
 40
0.0
 40
0.0
 40
0.0
 40
0.1111111111111111
 40
0.1111111111111111
 40
0.1111111111111111
 40
0.1111111111111111
 40
0.2222222222222222
 40
0.2222222222222222
 40
0.2222222222222222
 40
0.2222222222222222
 40
0.3333333333333333
 40
0.3333333333333333
 40
0.3333333333333333
 40
0.3333333333333333
 40
0.4444444444444444
 40
0.4444444444444444
 40
0.4444444444444444
 40
0.4444444444444444
 40
0.5555555555555556
 40
0.5555555555555556
 40
0.5555555555555556
 40
0.5555555555555556
 40
0.6666666666666666
 40
0.6666666666666666
 40
0.6666666666666666
 40
0.6666666666666666
 40
0.7777777777777778
 40
0.7777777777777778
 40
0.7777777777777778
 40
0.7777777777777778
 40
1.0
 40
1.0
 40
1.0
 40
1.0
 10
1.7957
 20
-4.8186
 30
0.0
 10
1.7957
 20
-4.8186
 30
0.0
 10
1.7957
 20
-9.3126
 30
0.0
 10
1.7957
 20
-9.3126
 30
0.0
 10
1.7957
 20
-9.3126
 30
0.0
 10
1.7957
 20
-9.7344
 30
0.0
 10
1.4998
 20
-10.0794
 30
0.0
 10
1.138
 20
-10.0794
 30
0.0
 10
1.138
 20
-10.0794
 30
0.0
 10
1.138
 20
-10.0794
 30
0.0
 10
1.1379
 20
-10.0794
 30
0.0
 10
1.1379
 20
-10.0794
 30
0.0
 10
1.1379
 20
-10.0794
 30
0.0
 10
0.7761
 20
-10.0794
 30
0.0
 10
0.4802
 20
-9.7344
 30
0.0
 10
0.4802
 20
-9.3126
 30
0.0
 10
0.4802
 20
-9.3126
 30
0.0
 10
0.4802
 20
-9.3126
 30
0.0
 10
0.4802
 20
-4.8186
 30
0.0
 10
0.4802
 20
-4.8186
 30
0.0
 10
0.4802
 20
-4.8186
 30
0.0
 10
0.4802
 20
-4.3968
 30
0.0
 10
0.7761
 20
-4.0518
 30
0.0
 10
1.1379
 20
-4.0518
 30
0.0
 10
1.1379
 20
-4.0518
 30
0.0
 10
1.1379
 20
-4.0518
 30
0.0
 10
1.138
 20
-4.0518
 30
0.0
 10
1.138
 20
-4.0518
 30
0.0
 10
1.138
 20
-4.0518
 30
0.0
 10
1.4998
 20
-4.0518
 30
0.0
 10
1.7957
 20
-4.3968
 30
0.0
 10
1.7957
 20
-4.8186
 30
0.0
  0
SPLINE
  5
67
330
1F
100
AcDbEntity
  8
AXIS
 62
   250
100
AcDbSpline
210
0.0
220
0.0
230
1.0
 70
    11
 71
     3
 72
    36
 73
    32
 74
     0
 42
0.0000000001
 43
0.0000000001
 40
0.0
 40
0.0
 40
0.0
 40
0.0
 40
0.1111111111111111
 40
0.1111111111111111
 40
0.1111111111111111
 40
0.1111111111111111
 40
0.2222222222222222
 40
0.2222222222222222
 40
0.2222222222222222
 40
0.2222222222222222
 40
0.3333333333333333
 40
0.3333333333333333
 40
0.3333333333333333
 40
0.3333333333333333
 40
0.4444444444444444
 40
0.4444444444444444
 40
0.4444444444444444
 40
0.4444444444444444
 40
0.5555555555555556
 40
0.5555555555555556
 40
0.5555555555555556
 40
0.5555555555555556
 40
0.6666666666666666
 40
0.6666666666666666
 40
0.6666666666666666
 40
0.6666666666666666
 40
0.7777777777777778
 40
0.7777777777777778
 40
0.7777777777777778
 40
0.7777777777777778
 40
1.0
 40
1.0
 40
1.0
 40
1.0
 10
4.1684
 20
-4.8606
 30
0.0
 10
4.1684
 20
-4.8606
 30
0.0
 10
4.1684
 20
-9.3546
 30
0.0
 10
4.1684
 20
-9.3546
 30
0.0
 10
4.1684
 20
-9.3546
 30
0.0
 10
4.1684
 20
-9.7764
 30
0.0
 10
3.8725
 20
-10.1214
 30
0.0
 10
3.5107
 20
-10.1214
 30
0.0
 10
3.5107
 20
-10.1214
 30
0.0
 10
3.5107
 20
-10.1214
 30
0.0
 10
3.5106
 20
-10.1214
 30
0.0
 10
3.5106
 20
-10.1214
 30
0.0
 10
3.5106
 20
-10.1214
 30
0.0
 10
3.1488
 20
-10.1214
 30
0.0
 10
2.8529
 20
-9.7764
 30
0.0
 10
2.8529
 20
-9.3546
 30
0.0
 10
2.8529
 20
-9.3546
 30
0.0
 10
2.8529
 20
-9.3546
 30
0.0
 10
2.8529
 20
-4.8606
 30
0.0
 10
2.8529
 20
-4.8606
 30
0.0
 10
2.8529
 20
-4.8606
 30
0.0
 10
2.8529
 20
-4.4388
 30
0.0
 10
3.1488
 20
-4.0938
 30
0.0
 10
3.5106
 20
-4.0938
 30
0.0
 10
3.5106
 20
-4.0938
 30
0.0
 10
3.5106
 20
-4.0938
 30
0.0
 10
3.5107
 20
-4.0938
 30
0.0
 10
3.5107
 20
-4.0938
 30
0.0
 10
3.5107
 20
-4.0938
 30
0.0
 10
3.8725
 20
-4.0938
 30
0.0
 10
4.1684
 20
-4.4388
 30
0.0
 10
4.1684
 20
-4.8606
 30
0.0
  0
SPLINE
  5
68
330
1F
100
AcDbEntity
  8
AXIS
 62
   250
100
AcDbSpline
210
0.0
220
0.0
230
1.0
 70
     8
 71
     3
 72
     8
 73
     4
 74
     0
 42
0.0000000001
 43
0.0000000001
 40
0.0
 40
0.0
 40
0.0
 40
0.0
 40
1.0
 40
1.0
 40
1.0
 40
1.0
 10
-5.1614
 20
-4.1893
 30
0.0
 10
-5.6237
 20
-4.5124
 30
0.0
 10
-6.0521
 20
-4.8819
 30
0.0
 10
-6.4398
 20
-5.2918
 30
0.0
  0
SPLINE
  5
69
330
1F
100
AcDbEntity
  8
AXIS
 62
   250
100
AcDbSpline
210
0.0
220
0.0
230
1.0
 70
     8
 71
     3
 72
     8
 73
     4
 74
     0
 42
0.0000000001
 43
0.0000000001
 40
0.0
 40
0.0
 40
0.0
 40
0.0
 40
1.0
 40
1.0
 40
1.0
 40
1.0
 10
5.156
 20
-13.093
 30
0.0
 10
5.2899
 20
-12.7358
 30
0.0
 10
5.3889
 20
-12.3668
 30
0.0
 10
5.4517
 20
-11.9905
 30
0.0
  0
SPLINE
  5
6A
330
1F
100
AcDbEntity
  8
AXIS
 62
   250
100
AcDbSpline
210
0.0
220
0.0
230
1.0
 70
     8
 71
     3
 72
     8
 73
     4
 74
     0
 42
0.0000000001
 43
0.0000000001
 40
0.0
 40
0.0
 40
0.0
 40
0.0
 40
1.0
 40
1.0
 40
1.0
 40
1.0
 10
-5.9342
 20
-8.9371
 30
0.0
 10
-6.0681
 20
-9.2942
 30
0.0
 10
-6.167
 20
-9.6634
 30
0.0
 10
-6.2298
 20
-10.0396
 30
0.0
  0
SPLINE
  5
6B
330
1F
100
AcDbEntity
  8
AXIS
 62
   250
100
AcDbSpline
210
0.0
220
0.0
230
1.0
 70
     8
 71
     3
 72
     8
 73
     4
 74
     0
 42
0.0000000001
 43
0.0000000001
 40
0.0
 40
0.0
 40
0.0
 40
0.0
 40
1.0
 40
1.0
 40
1.0
 40
1.0
 10
4.0637
 20
-8.7185
 30
0.0
 10
3.7857
 20
-8.1795
 30
0.0
 10
3.4119
 20
-7.6953
 30
0.0
 10
2.9608
 20
-7.2898
 30
0.0
  0
SPLINE
  5
6C
330
1F
100
AcDbEntity
  8
AXIS
 62
   250
100
AcDbSpline
210
0.0
220
0.0
230
1.0
 70
     8
 71
     3
 72
     8
 73
     4
 74
     0
 42
0.0000000001
 43
0.0000000001
 40
0.0
 40
0.0
 40
0.0
 40
0.0
 40
1.0
 40
1.0
 40
1.0
 40
1.0
 10
1.6887
 20
-6.4562
 30
0.0
 10
1.3361
 20
-6.2955
 30
0.0
 10
0.966
 20
-6.1762
 30
0.0
 10
0.5859
 20
-6.1008
 30
0.0
  0
SPLINE
  5
6D
330
1F
100
AcDbEntity
  8
AXIS
 62
   250
100
AcDbSpline
210
0.0
220
0.0
230
1.0
 70
     8
 71
     3
 72
     8
 73
     4
 74
     0
 42
0.0000000001
 43
0.0000000001
 40
0.0
 40
0.0
 40
0.0
 40
0.0
 40
1.0
 40
1.0
 40
1.0
 40
1.0
 10
-2.6889
 20
-6.564
 30
0.0
 10
-3.2269
 20
-6.8422
 30
0.0
 10
-3.7098
 20
-7.2153
 30
0.0
 10
-4.1147
 20
-7.6656
 30
0.0
  0
SPLINE
  5
6E
330
1F
100
AcDbEntity
  8
AXIS
 62
   250
100
AcDbSpline
210
0.0
220
0.0
230
1.0
 70
     8
 71
     3
 72
     8
 73
     4
 74
     0
 42
0.0000000001
 43
0.0000000001
 40
0.0
 40
0.0
 40
0.0
 40
0.0
 40
1.0
 40
1.0
 40
1.0
 40
1.0
 10
-4.9478
 20
-8.9373
 30
0.0
 10
-5.1084
 20
-9.2899
 30
0.0
 10
-5.2276
 20
-9.6598
 30
0.0
 10
-5.3031
 20
-10.0399
 30
0.0
  0
SPLINE
  5
6F
330
1F
100
AcDbEntity
  8
AXIS
 62
   250
100
AcDbSpline
210
0.0
220
0.0
230
1.0
 70
     8
 71
     3
 72
     8
 73
     4
 74
     0
 42
0.0000000001
 43
0.0000000001
 40
0.0
 40
0.0
 40
0.0
 40
0.0
 40
1.0
 40
1.0
 40
1.0
 40
1.0
 10
-4.8416
 20
-13.3117
 30
0.0
 10
-4.5636
 20
-13.8507
 30
0.0
 10
-4.19
 20
-14.3348
 30
0.0
 10
-3.739
 20
-14.7404
 30
0.0
  0
SPLINE
  5
70
330
1F
100
AcDbEntity
  8
AXIS
 62
   250
100
AcDbSpline
210
0.0
220
0.0
230
1.0
 70
     8
 71
     3
 72
     8
 73
     4
 74
     0
 42
0.0000000001
 43
0.0000000001
 40
0.0
 40
0.0
 40
0.0
 40
0.0
 40
1.0
 40
1.0
 40
1.0
 40
1.0
 10
-2.4666
 20
-15.574
 30
0.0
 10
-2.1142
 20
-15.7346
 30
0.0
 10
-1.7442
 20
-15.8538
 30
0.0
 10
-1.3639
 20
-15.9294
 30
0.0
  0
SPLINE
  5
71
330
1F
100
AcDbEntity
  8
AXIS
 62
   250
100
AcDbSpline
210
0.0
220
0.0
230
1.0
 70
     8
 71
     3
 72
     8
 73
     4
 74
     0
 42
0.0000000001
 43
0.0000000001
 40
0.0
 40
0.0
 40
0.0
 40
0.0
 40
1.0
 40
1.0
 40
1.0
 40
1.0
 10
1.9107
 20
-15.4661
 30
0.0
 10
2.4487
 20
-15.1879
 30
0.0
 10
2.9319
 20
-14.8147
 30
0.0
 10
3.3368
 20
-14.3645
 30
0.0
  0
SPLINE
  5
72
330
1F
100
AcDbEntity
  8
AXIS
 62
   250
100
AcDbSpline
210
0.0
220
0.0
230
1.0
 70
     8
 71
     3
 72
     8
 73
     4
 74
     0
 42
0.0000000001
 43
0.0000000001
 40
0.0
 40
0.0
 40
0.0
 40
0.0
 40
1.0
 40
1.0
 40
1.0
 40
1.0
 10
4.1699
 20
-13.0928
 30
0.0
 10
4.3305
 20
-12.7403
 30
0.0
 10
4.4498
 20
-12.3704
 30
0.0
 10
4.5252
 20
-11.9905
 30
0.0
  0
SPLINE
  5
73
330
1F
100
AcDbEntity
  8
AXIS
 62
   250
100
AcDbSpline
210
0.0
220
0.0
230
1.0
 70
    24
 71
     3
 72
     8
 73
     4
 74
     0
 42
0.0000000001
 43
0.0000000001
 40
0.0
 40
0.0
 40
0.0
 40
0.0
 40
1.0
 40
1.0
 40
1.0
 40
1.0
 10
-3.7927
 20
-5.293
 30
0.0
 10
-3.7927
 20
-5.293
 30
0.0
 10
-4.6054
 20
-4.406
 30
0.0
 10
-4.6054
 20
-4.406
 30
0.0
  0
SPLINE
  5
74
330
1F
100
AcDbEntity
  8
AXIS
 62
   250
100
AcDbSpline
210
0.0
220
0.0
230
1.0
 70
    24
 71
     3
 72
     8
 73
     4
 74
     0
 42
0.0000000001
 43
0.0000000001
 40
0.0
 40
0.0
 40
0.0
 40
0.0
 40
1.0
 40
1.0
 40
1.0
 40
1.0
 10
5.529
 20
-15.4657
 30
0.0
 10
5.529
 20
-15.4657
 30
0.0
 10
4.519
 20
-14.3635
 30
0.0
 10
4.519
 20
-14.3635
 30
0.0
  0
SPLINE
  5
75
330
1F
100
AcDbEntity
  8
AXIS
 62
   250
100
AcDbSpline
210
0.0
220
0.0
230
1.0
 70
    24
 71
     3
 72
     8
 73
     4
 74
     0
 42
0.0000000001
 43
0.0000000001
 40
0.0
 40
0.0
 40
0.0
 40
0.0
 40
1.0
 40
1.0
 40
1.0
 40
1.0
 10
5.3332
 20
-7.6114
 30
0.0
 10
5.3332
 20
-7.6114
 30
0.0
 10
6.22
 20
-6.7988
 30
0.0
 10
6.22
 20
-6.7988
 30
0.0
  0
SPLINE
  5
76
330
1F
100
AcDbEntity
  8
AXIS
 62
   250
100
AcDbSpline
210
0.0
220
0.0
230
1.0
 70
    24
 71
     3
 72
     8
 73
     4
 74
     0
 42
0.0000000001
 43
0.0000000001
 40
0.0
 40
0.0
 40
0.0
 40
0.0
 40
1.0
 40
1.0
 40
1.0
 40
1.0
 10
-4.8397
 20
-16.9328
 30
0.0
 10
-4.8397
 20
-16.9328
 30
0.0
 10
-3.7375
 20
-15.9231
 30
0.0
 10
-3.7375
 20
-15.9231
 30
0.0
  0
SPLINE
  5
77
330
1F
100
AcDbEntity
  8
AXIS
 62
   250
100
AcDbSpline
210
0.0
220
0.0
230
1.0
 70
    24
 71
     3
 72
     8
 73
     4
 74
     0
 42
0.0000000001
 43
0.0000000001
 40
0.0
 40
0.0
 40
0.0
 40
0.0
 40
1.0
 40
1.0
 40
1.0
 40
1.0
 10
-6.1111
 20
-14.4187
 30
0.0
 10
-6.1111
 20
-14.4187
 30
0.0
 10
-6.9981
 20
-15.2314
 30
0.0
 10
-6.9981
 20
-15.2314
 30
0.0
  0
SPLINE
  5
78
330
1F
100
AcDbEntity
  8
AXIS
 62
   250
100
AcDbSpline
210
0.0
220
0.0
230
1.0
 70
    24
 71
     3
 72
     8
 73
     4
 74
     0
 42
0.0000000001
 43
0.0000000001
 40
0.0
 40
0.0
 40
0.0
 40
0.0
 40
1.0
 40
1.0
 40
1.0
 40
1.0
 10
4.0615
 20
-5.0972
 30
0.0
 10
4.0615
 20
-5.0972
 30
0.0
 10
2.9596
 20
-6.107
 30
0.0
 10
2.9596
 20
-6.107
 30
0.0
  0
SPLINE
  5
79
330
1F
100
AcDbEntity
  8
AXIS
 62
   250
100
AcDbSpline
210
0.0
220
0.0
230
1.0
 70
    24
 71
     3
 72
     8
 73
     4
 74
     0
 42
0.0000000001
 43
0.0000000001
 40
0.0
 40
0.0
 40
0.0
 40
0.0
 40
1.0
 40
1.0
 40
1.0
 40
1.0
 10
3.0146
 20
-16.7371
 30
0.0
 10
3.0146
 20
-16.7371
 30
0.0
 10
3.8272
 20
-17.6241
 30
0.0
 10
3.8272
 20
-17.6241
 30
0.0
  0
SPLINE
  5
7A
330
1F
100
AcDbEntity
  8
AXIS
 62
   250
100
AcDbSpline
210
0.0
220
0.0
230
1.0
 70
    24
 71
     3
 72
     8
 73
     4
 74
     0
 42
0.0000000001
 43
0.0000000001
 40
0.0
 40
0.0
 40
0.0
 40
0.0
 40
1.0
 40
1.0
 40
1.0
 40
1.0
 10
-6.3068
 20
-6.5645
 30
0.0
 10
-6.3068
 20
-6.5645
 30
0.0
 10
-5.2971
 20
-7.6666
 30
0.0
 10
-5.2971
 20
-7.6666
 30
0.0
  0
SPLINE
  5
7B
330
1F
100
AcDbEntity
  8
AXIS
 62
   250
100
AcDbSpline
210
0.0
220
0.0
230
1.0
 70
     8
 71
     3
 72
     8
 73
     4
 74
     0
 42
0.0000000001
 43
0.0000000001
 40
0.0
 40
0.0
 40
0.0
 40
0.0
 40
1.0
 40
1.0
 40
1.0
 40
1.0
 10
6.2191
 20
-9.9275
 30
0.0
 10
6.0828
 20
-9.0997
 30
0.0
 10
5.7923
 20
-8.3051
 30
0.0
 10
5.3628
 20
-7.5847
 30
0.0
  0
SPLINE
  5
7C
330
1F
100
AcDbEntity
  8
AXIS
 62
   250
100
AcDbSpline
210
0.0
220
0.0
230
1.0
 70
     8
 71
     3
 72
     8
 73
     4
 74
     0
 42
0.0000000001
 43
0.0000000001
 40
0.0
 40
0.0
 40
0.0
 40
0.0
 40
1.0
 40
1.0
 40
1.0
 40
1.0
 10
3.5294
 20
-5.584
 30
0.0
 10
3.3463
 20
-5.4518
 30
0.0
 10
3.1563
 20
-5.3289
 30
0.0
 10
2.9604
 20
-5.2159
 30
0.0
  0
SPLINE
  5
7D
330
1F
100
AcDbEntity
  8
AXIS
 62
   250
100
AcDbSpline
210
0.0
220
0.0
230
1.0
 70
     8
 71
     3
 72
     8
 73
     4
 74
     0
 42
0.0000000001
 43
0.0000000001
 40
0.0
 40
0.0
 40
0.0
 40
0.0
 40
1.0
 40
1.0
 40
1.0
 40
1.0
 10
1.6803
 20
-4.6457
 30
0.0
 10
1.3594
 20
-4.5416
 30
0.0
 10
1.0313
 20
-4.4617
 30
0.0
 10
0.6983
 20
-4.4069
 30
0.0
  0
SPLINE
  5
7E
330
1F
100
AcDbEntity
  8
AXIS
 62
   250
100
AcDbSpline
210
0.0
220
0.0
230
1.0
 70
     8
 71
     3
 72
     8
 73
     4
 74
     0
 42
0.0000000001
 43
0.0000000001
 40
0.0
 40
0.0
 40
0.0
 40
0.0
 40
1.0
 40
1.0
 40
1.0
 40
1.0
 10
-1.4763
 20
-4.4069
 30
0.0
 10
-2.3042
 20
-4.5432
 30
0.0
 10
-3.0992
 20
-4.8337
 30
0.0
 10
-3.8197
 20
-5.2634
 30
0.0
  0
SPLINE
  5
7F
330
1F
100
AcDbEntity
  8
AXIS
 62
   250
100
AcDbSpline
210
0.0
220
0.0
230
1.0
 70
     8
 71
     3
 72
     8
 73
     4
 74
     0
 42
0.0000000001
 43
0.0000000001
 40
0.0
 40
0.0
 40
0.0
 40
0.0
 40
1.0
 40
1.0
 40
1.0
 40
1.0
 10
-5.8199
 20
-7.0962
 30
0.0
 10
-5.9522
 20
-7.2797
 30
0.0
 10
-6.0753
 20
-7.4701
 30
0.0
 10
-6.1885
 20
-7.6659
 30
0.0
  0
SPLINE
  5
80
330
1F
100
AcDbEntity
  8
AXIS
 62
   250
100
AcDbSpline
210
0.0
220
0.0
230
1.0
 70
     8
 71
     3
 72
     8
 73
     4
 74
     0
 42
0.0000000001
 43
0.0000000001
 40
0.0
 40
0.0
 40
0.0
 40
0.0
 40
1.0
 40
1.0
 40
1.0
 40
1.0
 10
-6.7586
 20
-8.9465
 30
0.0
 10
-6.8626
 20
-9.267
 30
0.0
 10
-6.9424
 20
-9.5947
 30
0.0
 10
-6.9971
 20
-9.9273
 30
0.0
  0
SPLINE
  5
81
330
1F
100
AcDbEntity
  8
AXIS
 62
   250
100
AcDbSpline
210
0.0
220
0.0
230
1.0
 70
     8
 71
     3
 72
     8
 73
     4
 74
     0
 42
0.0000000001
 43
0.0000000001
 40
0.0
 40
0.0
 40
0.0
 40
0.0
 40
1.0
 40
1.0
 40
1.0
 40
1.0
 10
5.9805
 20
-13.0837
 30
0.0
 10
6.0847
 20
-12.7632
 30
0.0
 10
6.1643
 20
-12.4354
 30
0.0
 10
6.2191
 20
-12.1029
 30
0.0
  0
SPLINE
  5
82
330
1F
100
AcDbEntity
  8
AXIS
 62
   250
100
AcDbSpline
210
0.0
220
0.0
230
1.0
 70
     8
 71
     3
 72
     8
 73
     4
 74
     0
 42
0.0000000001
 43
0.0000000001
 40
0.0
 40
0.0
 40
0.0
 40
0.0
 40
1.0
 40
1.0
 40
1.0
 40
1.0
 10
5.0418
 20
-14.9338
 30
0.0
 10
5.1742
 20
-14.7504
 30
0.0
 10
5.2973
 20
-14.5602
 30
0.0
 10
5.4106
 20
-14.3644
 30
0.0
  0
SPLINE
  5
83
330
1F
100
AcDbEntity
  8
AXIS
 62
   250
100
AcDbSpline
210
0.0
220
0.0
230
1.0
 70
     8
 71
     3
 72
     8
 73
     4
 74
     0
 42
0.0000000001
 43
0.0000000001
 40
0.0
 40
0.0
 40
0.0
 40
0.0
 40
1.0
 40
1.0
 40
1.0
 40
1.0
 10
0.6983
 20
-17.6232
 30
0.0
 10
1.5263
 20
-17.4872
 30
0.0
 10
2.3211
 20
-17.1965
 30
0.0
 10
3.0415
 20
-16.7667
 30
0.0
  0
SPLINE
  5
84
330
1F
100
AcDbEntity
  8
AXIS
 62
   250
100
AcDbSpline
210
0.0
220
0.0
230
1.0
 70
     8
 71
     3
 72
     8
 73
     4
 74
     0
 42
0.0000000001
 43
0.0000000001
 40
0.0
 40
0.0
 40
0.0
 40
0.0
 40
1.0
 40
1.0
 40
1.0
 40
1.0
 10
-2.4581
 20
-17.3844
 30
0.0
 10
-2.1374
 20
-17.4886
 30
0.0
 10
-1.8092
 20
-17.5684
 30
0.0
 10
-1.4763
 20
-17.6232
 30
0.0
  0
SPLINE
  5
85
330
1F
100
AcDbEntity
  8
AXIS
 62
   250
100
AcDbSpline
210
0.0
220
0.0
230
1.0
 70
     8
 71
     3
 72
     8
 73
     4
 74
     0
 42
0.0000000001
 43
0.0000000001
 40
0.0
 40
0.0
 40
0.0
 40
0.0
 40
1.0
 40
1.0
 40
1.0
 40
1.0
 10
-4.3076
 20
-16.4461
 30
0.0
 10
-4.1242
 20
-16.5784
 30
0.0
 10
-3.9342
 20
-16.7013
 30
0.0
 10
-3.7385
 20
-16.8143
 30
0.0
  0
SPLINE
  5
86
330
1F
100
AcDbEntity
  8
AXIS
 62
   250
100
AcDbSpline
210
0.0
220
0.0
230
1.0
 70
     8
 71
     3
 72
     8
 73
     4
 74
     0
 42
0.0000000001
 43
0.0000000001
 40
0.0
 40
0.0
 40
0.0
 40
0.0
 40
1.0
 40
1.0
 40
1.0
 40
1.0
 10
-6.9971
 20
-12.1027
 30
0.0
 10
-6.861
 20
-12.9304
 30
0.0
 10
-6.5705
 20
-13.725
 30
0.0
 10
-6.1409
 20
-14.4455
 30
0.0
  0
SPLINE
  5
87
330
1F
100
AcDbEntity
  8
AXIS
 62
   250
100
AcDbSpline
210
0.0
220
0.0
230
1.0
 70
     8
 71
     3
 72
     8
 73
     4
 74
     0
 42
0.0000000001
 43
0.0000000001
 40
0.0
 40
0.0
 40
0.0
 40
0.0
 40
1.0
 40
1.0
 40
1.0
 40
1.0
 10
-6.233
 20
-6.646
 30
0.0
 10
-6.4658
 20
-6.9574
 30
0.0
 10
-6.6735
 20
-7.287
 30
0.0
 10
-6.8538
 20
-7.6315
 30
0.0
  0
SPLINE
  5
88
330
1F
100
AcDbEntity
  8
AXIS
 62
   250
100
AcDbSpline
210
0.0
220
0.0
230
1.0
 70
     8
 71
     3
 72
     8
 73
     4
 74
     0
 42
0.0000000001
 43
0.0000000001
 40
0.0
 40
0.0
 40
0.0
 40
0.0
 40
1.0
 40
1.0
 40
1.0
 40
1.0
 10
-2.9704
 20
-4.1902
 30
0.0
 10
-3.4101
 20
-4.3565
 30
0.0
 10
-3.8326
 20
-4.565
 30
0.0
 10
-4.2322
 20
-4.8126
 30
0.0
  0
SPLINE
  5
89
330
1F
100
AcDbEntity
  8
AXIS
 62
   250
100
AcDbSpline
210
0.0
220
0.0
230
1.0
 70
     8
 71
     3
 72
     8
 73
     4
 74
     0
 42
0.0000000001
 43
0.0000000001
 40
0.0
 40
0.0
 40
0.0
 40
0.0
 40
1.0
 40
1.0
 40
1.0
 40
1.0
 10
3.9805
 20
-5.1714
 30
0.0
 10
3.6688
 20
-4.9385
 30
0.0
 10
3.3392
 20
-4.7307
 30
0.0
 10
2.9945
 20
-4.5504
 30
0.0
  0
SPLINE
  5
8A
330
1F
100
AcDbEntity
  8
AXIS
 62
   250
100
AcDbSpline
210
0.0
220
0.0
230
1.0
 70
     8
 71
     3
 72
     8
 73
     4
 74
     0
 42
0.0000000001
 43
0.0000000001
 40
0.0
 40
0.0
 40
0.0
 40
0.0
 40
1.0
 40
1.0
 40
1.0
 40
1.0
 10
-7.2156
 20
-13.5912
 30
0.0
 10
-7.0491
 20
-14.0329
 30
0.0
 10
-6.8401
 20
-14.4572
 30
0.0
 10
-6.5914
 20
-14.8586
 30
0.0
  0
SPLINE
  5
8B
330
1F
100
AcDbEntity
  8
AXIS
 62
   250
100
AcDbSpline
210
0.0
220
0.0
230
1.0
 70
     8
 71
     3
 72
     8
 73
     4
 74
     0
 42
0.0000000001
 43
0.0000000001
 40
0.0
 40
0.0
 40
0.0
 40
0.0
 40
1.0
 40
1.0
 40
1.0
 40
1.0
 10
-4.7583
 20
-16.8588
 30
0.0
 10
-4.4467
 20
-17.0918
 30
0.0
 10
-4.1171
 20
-17.2995
 30
0.0
 10
-3.7726
 20
-17.48
 30
0.0
  0
SPLINE
  5
8C
330
1F
100
AcDbEntity
  8
AXIS
 62
   250
100
AcDbSpline
210
0.0
220
0.0
230
1.0
 70
     8
 71
     3
 72
     8
 73
     4
 74
     0
 42
0.0000000001
 43
0.0000000001
 40
0.0
 40
0.0
 40
0.0
 40
0.0
 40
1.0
 40
1.0
 40
1.0
 40
1.0
 10
5.4549
 20
-15.3843
 30
0.0
 10
5.6877
 20
-15.0727
 30
0.0
 10
5.8953
 20
-14.7431
 30
0.0
 10
6.0758
 20
-14.3986
 30
0.0
  0
SPLINE
  5
8D
330
1F
100
AcDbEntity
  8
AXIS
 62
   250
100
AcDbSpline
210
0.0
220
0.0
230
1.0
 70
     8
 71
     3
 72
     8
 73
     4
 74
     0
 42
0.0000000001
 43
0.0000000001
 40
0.0
 40
0.0
 40
0.0
 40
0.0
 40
1.0
 40
1.0
 40
1.0
 40
1.0
 10
-7.2147
 20
-14.8748
 30
0.0
 10
-6.9081
 20
-15.4171
 30
0.0
 10
-6.5382
 20
-15.9206
 30
0.0
 10
-6.1126
 20
-16.3752
 30
0.0
  0
SPLINE
  5
8E
330
1F
100
AcDbEntity
  8
AXIS
 62
   250
100
AcDbSpline
210
0.0
220
0.0
230
1.0
 70
     8
 71
     3
 72
     8
 73
     4
 74
     0
 42
0.0000000001
 43
0.0000000001
 40
0.0
 40
0.0
 40
0.0
 40
0.0
 40
1.0
 40
1.0
 40
1.0
 40
1.0
 10
-4.2488
 20
-4.1895
 30
0.0
 10
-4.7909
 20
-4.4958
 30
0.0
 10
-5.2946
 20
-4.866
 30
0.0
 10
-5.749
 20
-5.2916
 30
0.0
  0
SPLINE
  5
8F
330
1F
100
AcDbEntity
  8
AXIS
 62
   250
100
AcDbSpline
210
0.0
220
0.0
230
1.0
 70
     8
 71
     3
 72
     8
 73
     4
 74
     0
 42
0.0000000001
 43
0.0000000001
 40
0.0
 40
0.0
 40
0.0
 40
0.0
 40
1.0
 40
1.0
 40
1.0
 40
1.0
 10
3.4709
 20
-17.8409
 30
0.0
 10
4.0129
 20
-17.5343
 30
0.0
 10
4.5164
 20
-17.1644
 30
0.0
 10
4.9711
 20
-16.7386
 30
0.0
  0
SPLINE
  5
90
330
1F
100
AcDbEntity
  8
AXIS
 62
   250
100
AcDbSpline
210
0.0
220
0.0
230
1.0
 70
     8
 71
     3
 72
     8
 73
     4
 74
     0
 42
0.0000000001
 43
0.0000000001
 40
0.0
 40
0.0
 40
0.0
 40
0.0
 40
1.0
 40
1.0
 40
1.0
 40
1.0
 10
6.4367
 20
-7.1554
 30
0.0
 10
6.1302
 20
-6.6133
 30
0.0
 10
5.7603
 20
-6.1096
 30
0.0
 10
5.3344
 20
-5.6552
 30
0.0
  0
SPLINE
  5
91
330
1F
100
AcDbEntity
  8
AXIS
 62
   250
100
AcDbSpline
210
0.0
220
0.0
230
1.0
 70
     8
 71
     3
 72
     8
 73
     4
 74
     0
 42
0.0000000001
 43
0.0000000001
 40
0.0
 40
0.0
 40
0.0
 40
0.0
 40
1.0
 40
1.0
 40
1.0
 40
1.0
 10
4.0197
 20
-4.5303
 30
0.0
 10
3.8424
 20
-4.4096
 30
0.0
 10
3.6599
 20
-4.2965
 30
0.0
 10
3.4731
 20
-4.1906
 30
0.0
  0
SPLINE
  5
92
330
1F
100
AcDbEntity
  8
AXIS
 62
   250
100
AcDbSpline
210
0.0
220
0.0
230
1.0
 70
     8
 71
     3
 72
     8
 73
     4
 74
     0
 42
0.0000000001
 43
0.0000000001
 40
0.0
 40
0.0
 40
0.0
 40
0.0
 40
1.0
 40
1.0
 40
1.0
 40
1.0
 10
-6.8738
 20
-6.6065
 30
0.0
 10
-6.9945
 20
-6.784
 30
0.0
 10
-7.1077
 20
-6.9663
 30
0.0
 10
-7.2135
 20
-7.1529
 30
0.0
  0
SPLINE
  5
93
330
1F
100
AcDbEntity
  8
AXIS
 62
   250
100
AcDbSpline
210
0.0
220
0.0
230
1.0
 70
     8
 71
     3
 72
     8
 73
     4
 74
     0
 42
0.0000000001
 43
0.0000000001
 40
0.0
 40
0.0
 40
0.0
 40
0.0
 40
1.0
 40
1.0
 40
1.0
 40
1.0
 10
-7.2147
 20
-15.7876
 30
0.0
 10
-6.8917
 20
-16.2497
 30
0.0
 10
-6.5223
 20
-16.678
 30
0.0
 10
-6.1128
 20
-17.0654
 30
0.0
  0
SPLINE
  5
94
330
1F
100
AcDbEntity
  8
AXIS
 62
   250
100
AcDbSpline
210
0.0
220
0.0
230
1.0
 70
     8
 71
     3
 72
     8
 73
     4
 74
     0
 42
0.0000000001
 43
0.0000000001
 40
0.0
 40
0.0
 40
0.0
 40
0.0
 40
1.0
 40
1.0
 40
1.0
 40
1.0
 10
4.3832
 20
-17.8409
 30
0.0
 10
4.8458
 20
-17.5177
 30
0.0
 10
5.2739
 20
-17.1483
 30
0.0
 10
5.6618
 20
-16.7383
 30
0.0
  0
SPLINE
  5
95
330
1F
100
AcDbEntity
  8
AXIS
 62
   250
100
AcDbSpline
210
0.0
220
0.0
230
1.0
 70
     8
 71
     3
 72
     8
 73
     4
 74
     0
 42
0.0000000001
 43
0.0000000001
 40
0.0
 40
0.0
 40
0.0
 40
0.0
 40
1.0
 40
1.0
 40
1.0
 40
1.0
 10
6.4367
 20
-6.2425
 30
0.0
 10
6.1136
 20
-5.7804
 30
0.0
 10
5.7444
 20
-5.3522
 30
0.0
 10
5.3346
 20
-4.9648
 30
0.0
  0
SPLINE
  5
96
330
1F
100
AcDbEntity
  8
AXIS
  6
NEW_LINE1
 62
   250
100
AcDbSpline
210
0.0
220
0.0
230
1.0
 70
    24
 71
     3
 72
     8
 73
     4
 74
     0
 42
0.0000000001
 43
0.0000000001
 40
0.0
 40
0.0
 40
0.0
 40
0.0
 40
1.0
 40
1.0
 40
1.0
 40
1.0
 10
-0.3217
 20
2.3232
 30
0.0
 10
-0.3217
 20
2.3232
 30
0.0
 10
-0.3217
 20
-24.8086
 30
0.0
 10
-0.3217
 20
-24.8086
 30
0.0
  0
SPLINE
  5
98
330
1F
100
AcDbEntity
  8
AXIS
  6
NEW_LINE2
 62
   250
100
AcDbSpline
210
0.0
220
0.0
230
1.0
 70
    24
 71
     3
 72
     8
 73
     4
 74
     0
 42
0.0000000001
 43
0.0000000001
 40
0.0
 40
0.0
 40
0.0
 40
0.0
 40
1.0
 40
1.0
 40
1.0
 40
1.0
 10
20.6434
 20
-11.0072
 30
0.0
 10
20.6434
 20
-11.0072
 30
0.0
 10
-14.5775
 20
-11.0072
 30
0.0
 10
-14.5775
 20
-11.0072
 30
0.0
  0
SPLINE
  5
9A
330
1F
100
AcDbEntity
  8
AXIS
 62
   250
100
AcDbSpline
210
0.0
220
0.0
230
1.0
 70
    24
 71
     3
 72
     8
 73
     4
 74
     0
 42
0.0000000001
 43
0.0000000001
 40
0.0
 40
0.0
 40
0.0
 40
0.0
 40
1.0
 40
1.0
 40
1.0
 40
1.0
 10
19.022
 20
5.1844
 30
0.0
 10
19.022
 20
5.1844
 30
0.0
 10
19.3187
 20
13.6799
 30
0.0
 10
19.3187
 20
13.6799
 30
0.0
  0
SPLINE
  5
9B
330
1F
100
AcDbEntity
  8
AXIS
 62
   250
100
AcDbSpline
210
0.0
220
0.0
230
1.0
 70
     8
 71
     3
 72
     8
 73
     4
 74
     0
 42
0.0000000001
 43
0.0000000001
 40
0.0
 40
0.0
 40
0.0
 40
0.0
 40
1.0
 40
1.0
 40
1.0
 40
1.0
 10
5.6252
 20
5.6498
 30
0.0
 10
5.6432
 20
5.6498
 30
0.0
 10
5.6612
 20
5.65
 30
0.0
 10
5.6792
 20
5.6504
 30
0.0
  0
SPLINE
  5
9C
330
1F
100
AcDbEntity
  8
AXIS
 62
   250
100
AcDbSpline
210
0.0
220
0.0
230
1.0
 70
    24
 71
     3
 72
     8
 73
     4
 74
     0
 42
0.0000000001
 43
0.0000000001
 40
0.0
 40
0.0
 40
0.0
 40
0.0
 40
1.0
 40
1.0
 40
1.0
 40
1.0
 10
5.6252
 20
5.6498
 30
0.0
 10
5.6252
 20
5.6498
 30
0.0
 10
5.6792
 20
5.6504
 30
0.0
 10
5.6792
 20
5.6504
 30
0.0
  0
SPLINE
  5
9D
330
1F
100
AcDbEntity
  8
AXIS
 62
   250
100
AcDbSpline
210
0.0
220
0.0
230
1.0
 70
     8
 71
     3
 72
    40
 73
    36
 74
     0
 42
0.0000000001
 43
0.0000000001
 40
0.0
 40
0.0
 40
0.0
 40
0.0
 40
0.1
 40
0.1
 40
0.1
 40
0.1
 40
0.2
 40
0.2
 40
0.2
 40
0.2
 40
0.3
 40
0.3
 40
0.3
 40
0.3
 40
0.4
 40
0.4
 40
0.4
 40
0.4
 40
0.5
 40
0.5
 40
0.5
 40
0.5
 40
0.6
 40
0.6
 40
0.6
 40
0.6
 40
0.7
 40
0.7
 40
0.7
 40
0.7
 40
0.8
 40
0.8
 40
0.8
 40
0.8
 40
1.0
 40
1.0
 40
1.0
 40
1.0
 10
-9.2893
 20
14.8265
 30
0.0
 10
-9.2893
 20
14.8265
 30
0.0
 10
-9.2096
 20
9.5464
 30
0.0
 10
-9.1853
 20
8.1555
 30
0.0
 10
-9.1853
 20
8.1555
 30
0.0
 10
-9.161
 20
6.7646
 30
0.0
 10
-8.0266
 20
5.6498
 30
0.0
 10
-6.6355
 20
5.6498
 30
0.0
 10
-6.6355
 20
5.6498
 30
0.0
 10
-5.2444
 20
5.6498
 30
0.0
 10
6.5634
 20
5.5931
 30
0.0
 10
6.5634
 20
5.5931
 30
0.0
 10
6.5634
 20
5.5931
 30
0.0
 10
6.5634
 20
5.5931
 30
0.0
 10
19.015
 20
5.1426
 30
0.0
 10
19.015
 20
5.1426
 30
0.0
 10
19.015
 20
5.1426
 30
0.0
 10
19.015
 20
5.1426
 30
0.0
 10
19.6896
 20
5.3678
 30
0.0
 10
19.6896
 20
5.3678
 30
0.0
 10
19.6896
 20
5.3678
 30
0.0
 10
19.6896
 20
5.3678
 30
0.0
 10
20.0269
 20
13.3626
 30
0.0
 10
20.0269
 20
13.3626
 30
0.0
 10
20.0269
 20
13.3626
 30
0.0
 10
20.0269
 20
13.3626
 30
0.0
 10
19.2961
 20
13.6441
 30
0.0
 10
19.2961
 20
13.6441
 30
0.0
 10
19.2961
 20
13.6441
 30
0.0
 10
19.2961
 20
13.6441
 30
0.0
 10
8.306
 20
14.0101
 30
0.0
 10
8.306
 20
14.0101
 30
0.0
 10
8.306
 20
14.0101
 30
0.0
 10
8.306
 20
14.0101
 30
0.0
 10
8.3341
 20
14.8265
 30
0.0
 10
8.3341
 20
14.8265
 30
0.0
  0
SPLINE
  5
9E
330
1F
100
AcDbEntity
  8
AXIS
 62
   250
100
AcDbSpline
210
0.0
220
0.0
230
1.0
 70
    11
 71
     3
 72
    60
 73
    56
 74
     0
 42
0.0000000001
 43
0.0000000001
 40
0.0
 40
0.0
 40
0.0
 40
0.0
 40
0.0666666666666667
 40
0.0666666666666667
 40
0.0666666666666667
 40
0.0666666666666667
 40
0.1333333333333333
 40
0.1333333333333333
 40
0.1333333333333333
 40
0.1333333333333333
 40
0.2
 40
0.2
 40
0.2
 40
0.2
 40
0.2666666666666667
 40
0.2666666666666667
 40
0.2666666666666667
 40
0.2666666666666667
 40
0.3333333333333333
 40
0.3333333333333333
 40
0.3333333333333333
 40
0.3333333333333333
 40
0.4
 40
0.4
 40
0.4
 40
0.4
 40
0.4666666666666667
 40
0.4666666666666667
 40
0.4666666666666667
 40
0.4666666666666667
 40
0.5333333333333333
 40
0.5333333333333333
 40
0.5333333333333333
 40
0.5333333333333333
 40
0.6
 40
0.6
 40
0.6
 40
0.6
 40
0.6666666666666666
 40
0.6666666666666666
 40
0.6666666666666666
 40
0.6666666666666666
 40
0.7333333333333333
 40
0.7333333333333333
 40
0.7333333333333333
 40
0.7333333333333333
 40
0.8
 40
0.8
 40
0.8
 40
0.8
 40
0.8666666666666667
 40
0.8666666666666667
 40
0.8666666666666667
 40
0.8666666666666667
 40
1.0
 40
1.0
 40
1.0
 40
1.0
 10
8.3121
 20
14.8799
 30
0.0
 10
8.3121
 20
14.8799
 30
0.0
 10
12.0681
 20
14.9768
 30
0.0
 10
12.0681
 20
14.9768
 30
0.0
 10
12.0681
 20
14.9768
 30
0.0
 10
12.0681
 20
14.9768
 30
0.0
 10
12.2132
 20
15.0414
 30
0.0
 10
12.2132
 20
15.0414
 30
0.0
 10
12.2132
 20
15.0414
 30
0.0
 10
12.2132
 20
15.0414
 30
0.0
 10
12.2401
 20
15.2136
 30
0.0
 10
12.2401
 20
15.2136
 30
0.0
 10
12.2401
 20
15.2136
 30
0.0
 10
12.2401
 20
15.2136
 30
0.0
 10
12.0735
 20
15.3535
 30
0.0
 10
12.0735
 20
15.3535
 30
0.0
 10
12.0735
 20
15.3535
 30
0.0
 10
12.0735
 20
15.3535
 30
0.0
 10
8.8455
 20
15.4092
 30
0.0
 10
8.8455
 20
15.4092
 30
0.0
 10
8.8455
 20
15.4092
 30
0.0
 10
8.8455
 20
15.4092
 30
0.0
 10
-9.8558
 20
15.4092
 30
0.0
 10
-9.8558
 20
15.4092
 30
0.0
 10
-9.8558
 20
15.4092
 30
0.0
 10
-9.8558
 20
15.4092
 30
0.0
 10
-13.0788
 20
15.3302
 30
0.0
 10
-13.0788
 20
15.3302
 30
0.0
 10
-13.0788
 20
15.3302
 30
0.0
 10
-13.0788
 20
15.3302
 30
0.0
 10
-13.1868
 20
15.3135
 30
0.0
 10
-13.1868
 20
15.3135
 30
0.0
 10
-13.1868
 20
15.3135
 30
0.0
 10
-13.1868
 20
15.3135
 30
0.0
 10
-13.2366
 20
15.2387
 30
0.0
 10
-13.2366
 20
15.2387
 30
0.0
 10
-13.2366
 20
15.2387
 30
0.0
 10
-13.2366
 20
15.2387
 30
0.0
 10
-13.2615
 20
15.1305
 30
0.0
 10
-13.2615
 20
15.1305
 30
0.0
 10
-13.2615
 20
15.1305
 30
0.0
 10
-13.2615
 20
15.1305
 30
0.0
 10
-13.2283
 20
15.0474
 30
0.0
 10
-13.2283
 20
15.0474
 30
0.0
 10
-13.2283
 20
15.0474
 30
0.0
 10
-13.2283
 20
15.0474
 30
0.0
 10
-13.1121
 20
14.9725
 30
0.0
 10
-13.1121
 20
14.9725
 30
0.0
 10
-13.1121
 20
14.9725
 30
0.0
 10
-13.1121
 20
14.9725
 30
0.0
 10
-9.33
 20
14.9208
 30
0.0
 10
-9.33
 20
14.9208
 30
0.0
 10
-9.33
 20
14.9208
 30
0.0
 10
-9.33
 20
14.9208
 30
0.0
 10
8.3121
 20
14.8799
 30
0.0
 10
8.3121
 20
14.8799
 30
0.0
  0
SPLINE
  5
9F
330
1F
100
AcDbEntity
  8
AXIS
 62
   250
100
AcDbSpline
210
0.0
220
0.0
230
1.0
 70
     8
 71
     3
 72
    16
 73
    12
 74
     0
 42
0.0000000001
 43
0.0000000001
 40
0.0
 40
0.0
 40
0.0
 40
0.0
 40
0.25
 40
0.25
 40
0.25
 40
0.25
 40
0.5
 40
0.5
 40
0.5
 40
0.5
 40
1.0
 40
1.0
 40
1.0
 40
1.0
 10
-9.8733
 20
15.4133
 30
0.0
 10
-9.8733
 20
15.4133
 30
0.0
 10
-9.8558
 20
16.8706
 30
0.0
 10
-9.8558
 20
16.8706
 30
0.0
 10
-9.8558
 20
16.8706
 30
0.0
 10
-9.8558
 20
16.8706
 30
0.0
 10
8.8455
 20
16.8706
 30
0.0
 10
8.8455
 20
16.8706
 30
0.0
 10
8.8455
 20
16.8706
 30
0.0
 10
8.8455
 20
16.8706
 30
0.0
 10
8.8323
 20
15.4069
 30
0.0
 10
8.8323
 20
15.4069
 30
0.0
  0
SPLINE
  5
A0
330
1F
100
AcDbEntity
  8
AXIS
 62
   250
100
AcDbSpline
210
0.0
220
0.0
230
1.0
 70
    24
 71
     3
 72
     8
 73
     4
 74
     0
 42
0.0000000001
 43
0.0000000001
 40
0.0
 40
0.0
 40
0.0
 40
0.0
 40
1.0
 40
1.0
 40
1.0
 40
1.0
 10
19.941
 20
5.0905
 30
0.0
 10
19.941
 20
5.0905
 30
0.0
 10
24.3692
 20
4.8849
 30
0.0
 10
24.3692
 20
4.8849
 30
0.0
  0
SPLINE
  5
A1
330
1F
100
AcDbEntity
  8
AXIS
 62
   250
100
AcDbSpline
210
0.0
220
0.0
230
1.0
 70
    24
 71
     3
 72
     8
 73
     4
 74
     0
 42
0.0000000001
 43
0.0000000001
 40
0.0
 40
0.0
 40
0.0
 40
0.0
 40
1.0
 40
1.0
 40
1.0
 40
1.0
 10
24.1532
 20
17.0413
 30
0.0
 10
24.1532
 20
17.0413
 30
0.0
 10
23.6031
 20
1.2861
 30
0.0
 10
23.6031
 20
1.2861
 30
0.0
  0
SPLINE
  5
A2
330
1F
100
AcDbEntity
  8
AXIS
 62
   250
100
AcDbSpline
210
0.0
220
0.0
230
1.0
 70
    24
 71
     3
 72
     8
 73
     4
 74
     0
 42
0.0000000001
 43
0.0000000001
 40
0.0
 40
0.0
 40
0.0
 40
0.0
 40
1.0
 40
1.0
 40
1.0
 40
1.0
 10
-8.1324
 20
5.57
 30
0.0
 10
-8.1324
 20
5.57
 30
0.0
 10
-22.1704
 20
5.57
 30
0.0
 10
-22.1704
 20
5.57
 30
0.0
  0
SPLINE
  5
A3
330
1F
100
AcDbEntity
  8
AXIS
 62
   250
100
AcDbSpline
210
0.0
220
0.0
230
1.0
 70
    24
 71
     3
 72
     8
 73
     4
 74
     0
 42
0.0000000001
 43
0.0000000001
 40
0.0
 40
0.0
 40
0.0
 40
0.0
 40
1.0
 40
1.0
 40
1.0
 40
1.0
 10
-16.603
 20
16.7461
 30
0.0
 10
-16.603
 20
16.7461
 30
0.0
 10
-16.603
 20
5.8836
 30
0.0
 10
-16.603
 20
5.8836
 30
0.0
  0
SPLINE
  5
A4
330
1F
100
AcDbEntity
  8
AXIS
 62
   250
100
AcDbSpline
210
0.0
220
0.0
230
1.0
 70
    24
 71
     3
 72
     8
 73
     4
 74
     0
 42
0.0000000001
 43
0.0000000001
 40
0.0
 40
0.0
 40
0.0
 40
0.0
 40
1.0
 40
1.0
 40
1.0
 40
1.0
 10
-13.2916
 20
15.9862
 30
0.0
 10
-13.2916
 20
15.9862
 30
0.0
 10
-13.2916
 20
27.7484
 30
0.0
 10
-13.2916
 20
27.7484
 30
0.0
  0
SPLINE
  5
A5
330
1F
100
AcDbEntity
  8
AXIS
 62
   250
100
AcDbSpline
210
0.0
220
0.0
230
1.0
 70
    24
 71
     3
 72
     8
 73
     4
 74
     0
 42
0.0000000001
 43
0.0000000001
 40
0.0
 40
0.0
 40
0.0
 40
0.0
 40
1.0
 40
1.0
 40
1.0
 40
1.0
 10
12.2183
 20
15.6939
 30
0.0
 10
12.2183
 20
15.6939
 30
0.0
 10
12.2183
 20
27.6602
 30
0.0
 10
12.2183
 20
27.6602
 30
0.0
  0
SPLINE
  5
A6
330
1F
100
AcDbEntity
  8
AXIS
 62
   250
100
AcDbSpline
210
0.0
220
0.0
230
1.0
 70
    24
 71
     3
 72
     8
 73
     4
 74
     0
 42
0.0000000001
 43
0.0000000001
 40
0.0
 40
0.0
 40
0.0
 40
0.0
 40
1.0
 40
1.0
 40
1.0
 40
1.0
 10
11.2065
 20
26.701
 30
0.0
 10
11.2065
 20
26.701
 30
0.0
 10
-12.3652
 20
26.701
 30
0.0
 10
-12.3652
 20
26.701
 30
0.0
  0
SPLINE
  5
A7
330
1F
100
AcDbEntity
  8
AXIS
 62
   250
100
AcDbSpline
210
0.0
220
0.0
230
1.0
 70
    24
 71
     3
 72
     8
 73
     4
 74
     0
 42
0.0000000001
 43
0.0000000001
 40
0.0
 40
0.0
 40
0.0
 40
0.0
 40
1.0
 40
1.0
 40
1.0
 40
1.0
 10
-9.7793
 20
25.0952
 30
0.0
 10
-9.7793
 20
25.0952
 30
0.0
 10
-22.2304
 20
25.0952
 30
0.0
 10
-22.2304
 20
25.0952
 30
0.0
  0
SPLINE
  5
A8
330
1F
100
AcDbEntity
  8
AXIS
 62
   250
100
AcDbSpline
210
0.0
220
0.0
230
1.0
 70
    24
 71
     3
 72
     8
 73
     4
 74
     0
 42
0.0000000001
 43
0.0000000001
 40
0.0
 40
0.0
 40
0.0
 40
0.0
 40
1.0
 40
1.0
 40
1.0
 40
1.0
 10
-9.8783
 20
16.9587
 30
0.0
 10
-9.8783
 20
16.9587
 30
0.0
 10
-17.3161
 20
16.9587
 30
0.0
 10
-17.3161
 20
16.9587
 30
0.0
  0
SPLINE
  5
A9
330
1F
100
AcDbEntity
  8
AXIS
 62
   250
100
AcDbSpline
210
0.0
220
0.0
230
1.0
 70
    24
 71
     3
 72
     8
 73
     4
 74
     0
 42
0.0000000001
 43
0.0000000001
 40
0.0
 40
0.0
 40
0.0
 40
0.0
 40
1.0
 40
1.0
 40
1.0
 40
1.0
 10
20.3433
 20
13.6115
 30
0.0
 10
20.3433
 20
13.6115
 30
0.0
 10
24.8096
 20
13.4333
 30
0.0
 10
24.8096
 20
13.4333
 30
0.0
  0
SPLINE
  5
AA
330
1F
100
AcDbEntity
  8
AXIS
 62
   250
100
AcDbSpline
210
0.0
220
0.0
230
1.0
 70
    11
 71
     3
 72
    80
 73
    76
 74
     0
 42
0.0000000001
 43
0.0000000001
 40
0.0
 40
0.0
 40
0.0
 40
0.0
 40
0.05
 40
0.05
 40
0.05
 40
0.05
 40
0.1
 40
0.1
 40
0.1
 40
0.1
 40
0.15
 40
0.15
 40
0.15
 40
0.15
 40
0.2
 40
0.2
 40
0.2
 40
0.2
 40
0.25
 40
0.25
 40
0.25
 40
0.25
 40
0.3
 40
0.3
 40
0.3
 40
0.3
 40
0.35
 40
0.35
 40
0.35
 40
0.35
 40
0.4
 40
0.4
 40
0.4
 40
0.4
 40
0.45
 40
0.45
 40
0.45
 40
0.45
 40
0.5
 40
0.5
 40
0.5
 40
0.5
 40
0.55
 40
0.55
 40
0.55
 40
0.55
 40
0.6
 40
0.6
 40
0.6
 40
0.6
 40
0.65
 40
0.65
 40
0.65
 40
0.65
 40
0.7
 40
0.7
 40
0.7
 40
0.7
 40
0.75
 40
0.75
 40
0.75
 40
0.75
 40
0.8
 40
0.8
 40
0.8
 40
0.8
 40
0.85
 40
0.85
 40
0.85
 40
0.85
 40
0.9
 40
0.9
 40
0.9
 40
0.9
 40
1.0
 40
1.0
 40
1.0
 40
1.0
 10
-18.5136
 20
11.5067
 30
0.0
 10
-18.5136
 20
11.5067
 30
0.0
 10
-18.4943
 20
11.2603
 30
0.0
 10
-18.4943
 20
11.2603
 30
0.0
 10
-18.4943
 20
11.2603
 30
0.0
 10
-18.5917
 20
11.2382
 30
0.0
 10
-18.6627
 20
11.2071
 30
0.0
 10
-18.7064
 20
11.1667
 30
0.0
 10
-18.7064
 20
11.1667
 30
0.0
 10
-18.7775
 20
11.0994
 30
0.0
 10
-18.8128
 20
11.0166
 30
0.0
 10
-18.8128
 20
10.9183
 30
0.0
 10
-18.8128
 20
10.9183
 30
0.0
 10
-18.8128
 20
10.8393
 30
0.0
 10
-18.7906
 20
10.7702
 30
0.0
 10
-18.7464
 20
10.7104
 30
0.0
 10
-18.7464
 20
10.7104
 30
0.0
 10
-18.6895
 20
10.6323
 30
0.0
 10
-18.6063
 20
10.5707
 30
0.0
 10
-18.4971
 20
10.5256
 30
0.0
 10
-18.4971
 20
10.5256
 30
0.0
 10
-18.388
 20
10.4809
 30
0.0
 10
-18.2323
 20
10.4574
 30
0.0
 10
-18.0301
 20
10.4555
 30
0.0
 10
-18.0301
 20
10.4555
 30
0.0
 10
-18.1208
 20
10.5152
 30
0.0
 10
-18.1886
 20
10.5881
 30
0.0
 10
-18.2328
 20
10.6747
 30
0.0
 10
-18.2328
 20
10.6747
 30
0.0
 10
-18.2765
 20
10.7607
 30
0.0
 10
-18.2986
 20
10.8515
 30
0.0
 10
-18.2986
 20
10.9461
 30
0.0
 10
-18.2986
 20
10.9461
 30
0.0
 10
-18.2986
 20
11.1116
 30
0.0
 10
-18.238
 20
11.2523
 30
0.0
 10
-18.1161
 20
11.3685
 30
0.0
 10
-18.1161
 20
11.3685
 30
0.0
 10
-17.9943
 20
11.4846
 30
0.0
 10
-17.8372
 20
11.543
 30
0.0
 10
-17.6444
 20
11.543
 30
0.0
 10
-17.6444
 20
11.543
 30
0.0
 10
-17.5174
 20
11.543
 30
0.0
 10
-17.3998
 20
11.5152
 30
0.0
 10
-17.2906
 20
11.4606
 30
0.0
 10
-17.2906
 20
11.4606
 30
0.0
 10
-17.182
 20
11.4061
 30
0.0
 10
-17.0983
 20
11.3308
 30
0.0
 10
-17.0404
 20
11.2353
 30
0.0
 10
-17.0404
 20
11.2353
 30
0.0
 10
-16.9826
 20
11.1399
 30
0.0
 10
-16.9539
 20
11.0317
 30
0.0
 10
-16.9539
 20
10.9103
 30
0.0
 10
-16.9539
 20
10.9103
 30
0.0
 10
-16.9539
 20
10.7034
 30
0.0
 10
-17.0296
 20
10.535
 30
0.0
 10
-17.182
 20
10.4047
 30
0.0
 10
-17.182
 20
10.4047
 30
0.0
 10
-17.3339
 20
10.2739
 30
0.0
 10
-17.5846
 20
10.209
 30
0.0
 10
-17.9336
 20
10.209
 30
0.0
 10
-17.9336
 20
10.209
 30
0.0
 10
-18.324
 20
10.209
 30
0.0
 10
-18.6077
 20
10.281
 30
0.0
 10
-18.785
 20
10.4254
 30
0.0
 10
-18.785
 20
10.4254
 30
0.0
 10
-18.9393
 20
10.551
 30
0.0
 10
-19.0169
 20
10.7203
 30
0.0
 10
-19.0169
 20
10.9338
 30
0.0
 10
-19.0169
 20
10.9338
 30
0.0
 10
-19.0169
 20
11.0924
 30
0.0
 10
-18.9722
 20
11.2226
 30
0.0
 10
-18.8828
 20
11.3242
 30
0.0
 10
-18.8828
 20
11.3242
 30
0.0
 10
-18.7939
 20
11.4258
 30
0.0
 10
-18.6707
 20
11.4865
 30
0.0
 10
-18.5136
 20
11.5067
 30
0.0
  0
SPLINE
  5
AB
330
1F
100
AcDbEntity
  8
AXIS
 62
   250
100
AcDbSpline
210
0.0
220
0.0
230
1.0
 70
    11
 71
     3
 72
    40
 73
    36
 74
     0
 42
0.0000000001
 43
0.0000000001
 40
0.0
 40
0.0
 40
0.0
 40
0.0
 40
0.1
 40
0.1
 40
0.1
 40
0.1
 40
0.2
 40
0.2
 40
0.2
 40
0.2
 40
0.3
 40
0.3
 40
0.3
 40
0.3
 40
0.4
 40
0.4
 40
0.4
 40
0.4
 40
0.5
 40
0.5
 40
0.5
 40
0.5
 40
0.6
 40
0.6
 40
0.6
 40
0.6
 40
0.7
 40
0.7
 40
0.7
 40
0.7
 40
0.8
 40
0.8
 40
0.8
 40
0.8
 40
1.0
 40
1.0
 40
1.0
 40
1.0
 10
-17.643
 20
10.494
 30
0.0
 10
-17.5573
 20
10.494
 30
0.0
 10
-17.4755
 20
10.5124
 30
0.0
 10
-17.3974
 20
10.5486
 30
0.0
 10
-17.3974
 20
10.5486
 30
0.0
 10
-17.3193
 20
10.5848
 30
0.0
 10
-17.2601
 20
10.6356
 30
0.0
 10
-17.2192
 20
10.7005
 30
0.0
 10
-17.2192
 20
10.7005
 30
0.0
 10
-17.1782
 20
10.7659
 30
0.0
 10
-17.1575
 20
10.8346
 30
0.0
 10
-17.1575
 20
10.9061
 30
0.0
 10
-17.1575
 20
10.9061
 30
0.0
 10
-17.1575
 20
11.011
 30
0.0
 10
-17.1999
 20
11.1008
 30
0.0
 10
-17.2845
 20
11.1761
 30
0.0
 10
-17.2845
 20
11.1761
 30
0.0
 10
-17.3692
 20
11.2513
 30
0.0
 10
-17.484
 20
11.289
 30
0.0
 10
-17.6288
 20
11.289
 30
0.0
 10
-17.6288
 20
11.289
 30
0.0
 10
-17.7685
 20
11.289
 30
0.0
 10
-17.8786
 20
11.2518
 30
0.0
 10
-17.959
 20
11.1775
 30
0.0
 10
-17.959
 20
11.1775
 30
0.0
 10
-18.0395
 20
11.1032
 30
0.0
 10
-18.0795
 20
11.0096
 30
0.0
 10
-18.0795
 20
10.8967
 30
0.0
 10
-18.0795
 20
10.8967
 30
0.0
 10
-18.0795
 20
10.7843
 30
0.0
 10
-18.0395
 20
10.6892
 30
0.0
 10
-17.959
 20
10.6112
 30
0.0
 10
-17.959
 20
10.6112
 30
0.0
 10
-17.8786
 20
10.5331
 30
0.0
 10
-17.7732
 20
10.494
 30
0.0
 10
-17.643
 20
10.494
 30
0.0
  0
SPLINE
  5
AC
330
1F
100
AcDbEntity
  8
AXIS
 62
   250
100
AcDbSpline
210
0.0
220
0.0
230
1.0
 70
    11
 71
     3
 72
    80
 73
    76
 74
     0
 42
0.0000000001
 43
0.0000000001
 40
0.0
 40
0.0
 40
0.0
 40
0.0
 40
0.05
 40
0.05
 40
0.05
 40
0.05
 40
0.1
 40
0.1
 40
0.1
 40
0.1
 40
0.15
 40
0.15
 40
0.15
 40
0.15
 40
0.2
 40
0.2
 40
0.2
 40
0.2
 40
0.25
 40
0.25
 40
0.25
 40
0.25
 40
0.3
 40
0.3
 40
0.3
 40
0.3
 40
0.35
 40
0.35
 40
0.35
 40
0.35
 40
0.4
 40
0.4
 40
0.4
 40
0.4
 40
0.45
 40
0.45
 40
0.45
 40
0.45
 40
0.5
 40
0.5
 40
0.5
 40
0.5
 40
0.55
 40
0.55
 40
0.55
 40
0.55
 40
0.6
 40
0.6
 40
0.6
 40
0.6
 40
0.65
 40
0.65
 40
0.65
 40
0.65
 40
0.7
 40
0.7
 40
0.7
 40
0.7
 40
0.75
 40
0.75
 40
0.75
 40
0.75
 40
0.8
 40
0.8
 40
0.8
 40
0.8
 40
0.85
 40
0.85
 40
0.85
 40
0.85
 40
0.9
 40
0.9
 40
0.9
 40
0.9
 40
1.0
 40
1.0
 40
1.0
 40
1.0
 10
-18.5136
 20
13.0763
 30
0.0
 10
-18.5136
 20
13.0763
 30
0.0
 10
-18.4943
 20
12.8299
 30
0.0
 10
-18.4943
 20
12.8299
 30
0.0
 10
-18.4943
 20
12.8299
 30
0.0
 10
-18.5917
 20
12.8078
 30
0.0
 10
-18.6627
 20
12.7767
 30
0.0
 10
-18.7064
 20
12.7363
 30
0.0
 10
-18.7064
 20
12.7363
 30
0.0
 10
-18.7775
 20
12.669
 30
0.0
 10
-18.8128
 20
12.5862
 30
0.0
 10
-18.8128
 20
12.4879
 30
0.0
 10
-18.8128
 20
12.4879
 30
0.0
 10
-18.8128
 20
12.4089
 30
0.0
 10
-18.7906
 20
12.3398
 30
0.0
 10
-18.7464
 20
12.28
 30
0.0
 10
-18.7464
 20
12.28
 30
0.0
 10
-18.6895
 20
12.2019
 30
0.0
 10
-18.6063
 20
12.1403
 30
0.0
 10
-18.4971
 20
12.0952
 30
0.0
 10
-18.4971
 20
12.0952
 30
0.0
 10
-18.388
 20
12.0505
 30
0.0
 10
-18.2323
 20
12.027
 30
0.0
 10
-18.0301
 20
12.0251
 30
0.0
 10
-18.0301
 20
12.0251
 30
0.0
 10
-18.1208
 20
12.0848
 30
0.0
 10
-18.1886
 20
12.1577
 30
0.0
 10
-18.2328
 20
12.2443
 30
0.0
 10
-18.2328
 20
12.2443
 30
0.0
 10
-18.2765
 20
12.3303
 30
0.0
 10
-18.2986
 20
12.4211
 30
0.0
 10
-18.2986
 20
12.5157
 30
0.0
 10
-18.2986
 20
12.5157
 30
0.0
 10
-18.2986
 20
12.6812
 30
0.0
 10
-18.238
 20
12.8219
 30
0.0
 10
-18.1161
 20
12.9381
 30
0.0
 10
-18.1161
 20
12.9381
 30
0.0
 10
-17.9943
 20
13.0542
 30
0.0
 10
-17.8372
 20
13.1126
 30
0.0
 10
-17.6444
 20
13.1126
 30
0.0
 10
-17.6444
 20
13.1126
 30
0.0
 10
-17.5174
 20
13.1126
 30
0.0
 10
-17.3998
 20
13.0848
 30
0.0
 10
-17.2906
 20
13.0302
 30
0.0
 10
-17.2906
 20
13.0302
 30
0.0
 10
-17.182
 20
12.9757
 30
0.0
 10
-17.0983
 20
12.9004
 30
0.0
 10
-17.0404
 20
12.8049
 30
0.0
 10
-17.0404
 20
12.8049
 30
0.0
 10
-16.9826
 20
12.7095
 30
0.0
 10
-16.9539
 20
12.6013
 30
0.0
 10
-16.9539
 20
12.4799
 30
0.0
 10
-16.9539
 20
12.4799
 30
0.0
 10
-16.9539
 20
12.273
 30
0.0
 10
-17.0296
 20
12.1046
 30
0.0
 10
-17.182
 20
11.9743
 30
0.0
 10
-17.182
 20
11.9743
 30
0.0
 10
-17.3339
 20
11.8435
 30
0.0
 10
-17.5846
 20
11.7786
 30
0.0
 10
-17.9336
 20
11.7786
 30
0.0
 10
-17.9336
 20
11.7786
 30
0.0
 10
-18.324
 20
11.7786
 30
0.0
 10
-18.6077
 20
11.8506
 30
0.0
 10
-18.785
 20
11.995
 30
0.0
 10
-18.785
 20
11.995
 30
0.0
 10
-18.9393
 20
12.1206
 30
0.0
 10
-19.0169
 20
12.2899
 30
0.0
 10
-19.0169
 20
12.5034
 30
0.0
 10
-19.0169
 20
12.5034
 30
0.0
 10
-19.0169
 20
12.662
 30
0.0
 10
-18.9722
 20
12.7922
 30
0.0
 10
-18.8828
 20
12.8938
 30
0.0
 10
-18.8828
 20
12.8938
 30
0.0
 10
-18.7939
 20
12.9954
 30
0.0
 10
-18.6707
 20
13.0561
 30
0.0
 10
-18.5136
 20
13.0763
 30
0.0
  0
SPLINE
  5
AD
330
1F
100
AcDbEntity
  8
AXIS
 62
   250
100
AcDbSpline
210
0.0
220
0.0
230
1.0
 70
    11
 71
     3
 72
    40
 73
    36
 74
     0
 42
0.0000000001
 43
0.0000000001
 40
0.0
 40
0.0
 40
0.0
 40
0.0
 40
0.1
 40
0.1
 40
0.1
 40
0.1
 40
0.2
 40
0.2
 40
0.2
 40
0.2
 40
0.3
 40
0.3
 40
0.3
 40
0.3
 40
0.4
 40
0.4
 40
0.4
 40
0.4
 40
0.5
 40
0.5
 40
0.5
 40
0.5
 40
0.6
 40
0.6
 40
0.6
 40
0.6
 40
0.7
 40
0.7
 40
0.7
 40
0.7
 40
0.8
 40
0.8
 40
0.8
 40
0.8
 40
1.0
 40
1.0
 40
1.0
 40
1.0
 10
-17.643
 20
12.0636
 30
0.0
 10
-17.5573
 20
12.0636
 30
0.0
 10
-17.4755
 20
12.082
 30
0.0
 10
-17.3974
 20
12.1182
 30
0.0
 10
-17.3974
 20
12.1182
 30
0.0
 10
-17.3193
 20
12.1544
 30
0.0
 10
-17.2601
 20
12.2052
 30
0.0
 10
-17.2192
 20
12.2701
 30
0.0
 10
-17.2192
 20
12.2701
 30
0.0
 10
-17.1782
 20
12.3355
 30
0.0
 10
-17.1575
 20
12.4042
 30
0.0
 10
-17.1575
 20
12.4757
 30
0.0
 10
-17.1575
 20
12.4757
 30
0.0
 10
-17.1575
 20
12.5806
 30
0.0
 10
-17.1999
 20
12.6704
 30
0.0
 10
-17.2845
 20
12.7457
 30
0.0
 10
-17.2845
 20
12.7457
 30
0.0
 10
-17.3692
 20
12.8209
 30
0.0
 10
-17.484
 20
12.8586
 30
0.0
 10
-17.6288
 20
12.8586
 30
0.0
 10
-17.6288
 20
12.8586
 30
0.0
 10
-17.7685
 20
12.8586
 30
0.0
 10
-17.8786
 20
12.8214
 30
0.0
 10
-17.959
 20
12.7471
 30
0.0
 10
-17.959
 20
12.7471
 30
0.0
 10
-18.0395
 20
12.6728
 30
0.0
 10
-18.0795
 20
12.5792
 30
0.0
 10
-18.0795
 20
12.4663
 30
0.0
 10
-18.0795
 20
12.4663
 30
0.0
 10
-18.0795
 20
12.3539
 30
0.0
 10
-18.0395
 20
12.2588
 30
0.0
 10
-17.959
 20
12.1808
 30
0.0
 10
-17.959
 20
12.1808
 30
0.0
 10
-17.8786
 20
12.1027
 30
0.0
 10
-17.7732
 20
12.0636
 30
0.0
 10
-17.643
 20
12.0636
 30
0.0
  0
SPLINE
  5
AE
330
1F
100
AcDbEntity
  8
AXIS
 62
   250
100
AcDbSpline
210
0.0
220
0.0
230
1.0
 70
    11
 71
     3
 72
   116
 73
   112
 74
     0
 42
0.0000000001
 43
0.0000000001
 40
0.0
 40
0.0
 40
0.0
 40
0.0
 40
0.0344827586206897
 40
0.0344827586206897
 40
0.0344827586206897
 40
0.0344827586206897
 40
0.0689655172413793
 40
0.0689655172413793
 40
0.0689655172413793
 40
0.0689655172413793
 40
0.103448275862069
 40
0.103448275862069
 40
0.103448275862069
 40
0.103448275862069
 40
0.1379310344827586
 40
0.1379310344827586
 40
0.1379310344827586
 40
0.1379310344827586
 40
0.1724137931034483
 40
0.1724137931034483
 40
0.1724137931034483
 40
0.1724137931034483
 40
0.2068965517241379
 40
0.2068965517241379
 40
0.2068965517241379
 40
0.2068965517241379
 40
0.2413793103448276
 40
0.2413793103448276
 40
0.2413793103448276
 40
0.2413793103448276
 40
0.2758620689655172
 40
0.2758620689655172
 40
0.2758620689655172
 40
0.2758620689655172
 40
0.3103448275862069
 40
0.3103448275862069
 40
0.3103448275862069
 40
0.3103448275862069
 40
0.3448275862068966
 40
0.3448275862068966
 40
0.3448275862068966
 40
0.3448275862068966
 40
0.3793103448275862
 40
0.3793103448275862
 40
0.3793103448275862
 40
0.3793103448275862
 40
0.4137931034482759
 40
0.4137931034482759
 40
0.4137931034482759
 40
0.4137931034482759
 40
0.4482758620689655
 40
0.4482758620689655
 40
0.4482758620689655
 40
0.4482758620689655
 40
0.4827586206896552
 40
0.4827586206896552
 40
0.4827586206896552
 40
0.4827586206896552
 40
0.5172413793103449
 40
0.5172413793103449
 40
0.5172413793103449
 40
0.5172413793103449
 40
0.5517241379310345
 40
0.5517241379310345
 40
0.5517241379310345
 40
0.5517241379310345
 40
0.5862068965517241
 40
0.5862068965517241
 40
0.5862068965517241
 40
0.5862068965517241
 40
0.6206896551724138
 40
0.6206896551724138
 40
0.6206896551724138
 40
0.6206896551724138
 40
0.6551724137931034
 40
0.6551724137931034
 40
0.6551724137931034
 40
0.6551724137931034
 40
0.6896551724137931
 40
0.6896551724137931
 40
0.6896551724137931
 40
0.6896551724137931
 40
0.7241379310344828
 40
0.7241379310344828
 40
0.7241379310344828
 40
0.7241379310344828
 40
0.7586206896551724
 40
0.7586206896551724
 40
0.7586206896551724
 40
0.7586206896551724
 40
0.7931034482758621
 40
0.7931034482758621
 40
0.7931034482758621
 40
0.7931034482758621
 40
0.8275862068965517
 40
0.8275862068965517
 40
0.8275862068965517
 40
0.8275862068965517
 40
0.8620689655172413
 40
0.8620689655172413
 40
0.8620689655172413
 40
0.8620689655172413
 40
0.896551724137931
 40
0.896551724137931
 40
0.896551724137931
 40
0.896551724137931
 40
0.9310344827586207
 40
0.9310344827586207
 40
0.9310344827586207
 40
0.9310344827586207
 40
1.0
 40
1.0
 40
1.0
 40
1.0
 10
-22.781
 20
4.6836
 30
0.0
 10
-22.781
 20
4.6836
 30
0.0
 10
-24.2443
 20
4.6836
 30
0.0
 10
-24.2443
 20
4.6836
 30
0.0
 10
-24.2443
 20
4.6836
 30
0.0
 10
-24.2443
 20
4.6836
 30
0.0
 10
-24.2443
 20
4.9051
 30
0.0
 10
-24.2443
 20
4.9051
 30
0.0
 10
-24.2443
 20
4.9051
 30
0.0
 10
-24.2443
 20
4.9051
 30
0.0
 10
-24.0392
 20
4.9051
 30
0.0
 10
-24.0392
 20
4.9051
 30
0.0
 10
-24.0392
 20
4.9051
 30
0.0
 10
-24.1107
 20
4.9512
 30
0.0
 10
-24.1686
 20
5.0124
 30
0.0
 10
-24.2119
 20
5.0886
 30
0.0
 10
-24.2119
 20
5.0886
 30
0.0
 10
-24.2556
 20
5.1648
 30
0.0
 10
-24.2777
 20
5.2518
 30
0.0
 10
-24.2777
 20
5.3491
 30
0.0
 10
-24.2777
 20
5.3491
 30
0.0
 10
-24.2777
 20
5.4573
 30
0.0
 10
-24.2551
 20
5.5462
 30
0.0
 10
-24.21
 20
5.6154
 30
0.0
 10
-24.21
 20
5.6154
 30
0.0
 10
-24.1648
 20
5.685
 30
0.0
 10
-24.1023
 20
5.7339
 30
0.0
 10
-24.0214
 20
5.7621
 30
0.0
 10
-24.0214
 20
5.7621
 30
0.0
 10
-24.1921
 20
5.8783
 30
0.0
 10
-24.2777
 20
6.0288
 30
0.0
 10
-24.2777
 20
6.2141
 30
0.0
 10
-24.2777
 20
6.2141
 30
0.0
 10
-24.2777
 20
6.3595
 30
0.0
 10
-24.2373
 20
6.471
 30
0.0
 10
-24.1568
 20
6.549
 30
0.0
 10
-24.1568
 20
6.549
 30
0.0
 10
-24.0764
 20
6.6271
 30
0.0
 10
-23.9527
 20
6.6662
 30
0.0
 10
-23.7857
 20
6.6662
 30
0.0
 10
-23.7857
 20
6.6662
 30
0.0
 10
-23.7857
 20
6.6662
 30
0.0
 10
-22.781
 20
6.6662
 30
0.0
 10
-22.781
 20
6.6662
 30
0.0
 10
-22.781
 20
6.6662
 30
0.0
 10
-22.781
 20
6.6662
 30
0.0
 10
-22.781
 20
6.4197
 30
0.0
 10
-22.781
 20
6.4197
 30
0.0
 10
-22.781
 20
6.4197
 30
0.0
 10
-22.781
 20
6.4197
 30
0.0
 10
-23.7029
 20
6.4197
 30
0.0
 10
-23.7029
 20
6.4197
 30
0.0
 10
-23.7029
 20
6.4197
 30
0.0
 10
-23.8022
 20
6.4197
 30
0.0
 10
-23.8737
 20
6.4117
 30
0.0
 10
-23.9174
 20
6.3957
 30
0.0
 10
-23.9174
 20
6.3957
 30
0.0
 10
-23.9607
 20
6.3792
 30
0.0
 10
-23.996
 20
6.3501
 30
0.0
 10
-24.0228
 20
6.3082
 30
0.0
 10
-24.0228
 20
6.3082
 30
0.0
 10
-24.0491
 20
6.2659
 30
0.0
 10
-24.0627
 20
6.216
 30
0.0
 10
-24.0627
 20
6.1591
 30
0.0
 10
-24.0627
 20
6.1591
 30
0.0
 10
-24.0627
 20
6.0561
 30
0.0
 10
-24.0284
 20
5.971
 30
0.0
 10
-23.9597
 20
5.9028
 30
0.0
 10
-23.9597
 20
5.9028
 30
0.0
 10
-23.8915
 20
5.835
 30
0.0
 10
-23.7819
 20
5.8007
 30
0.0
 10
-23.6314
 20
5.8007
 30
0.0
 10
-23.6314
 20
5.8007
 30
0.0
 10
-23.6314
 20
5.8007
 30
0.0
 10
-22.781
 20
5.8007
 30
0.0
 10
-22.781
 20
5.8007
 30
0.0
 10
-22.781
 20
5.8007
 30
0.0
 10
-22.781
 20
5.8007
 30
0.0
 10
-22.781
 20
5.5528
 30
0.0
 10
-22.781
 20
5.5528
 30
0.0
 10
-22.781
 20
5.5528
 30
0.0
 10
-22.781
 20
5.5528
 30
0.0
 10
-23.7316
 20
5.5528
 30
0.0
 10
-23.7316
 20
5.5528
 30
0.0
 10
-23.7316
 20
5.5528
 30
0.0
 10
-23.8421
 20
5.5528
 30
0.0
 10
-23.9249
 20
5.5326
 30
0.0
 10
-23.98
 20
5.4921
 30
0.0
 10
-23.98
 20
5.4921
 30
0.0
 10
-24.035
 20
5.4517
 30
0.0
 10
-24.0627
 20
5.3858
 30
0.0
 10
-24.0627
 20
5.2936
 30
0.0
 10
-24.0627
 20
5.2936
 30
0.0
 10
-24.0627
 20
5.224
 30
0.0
 10
-24.0444
 20
5.1596
 30
0.0
 10
-24.0072
 20
5.1003
 30
0.0
 10
-24.0072
 20
5.1003
 30
0.0
 10
-23.9706
 20
5.041
 30
0.0
 10
-23.9169
 20
4.9978
 30
0.0
 10
-23.8464
 20
4.9714
 30
0.0
 10
-23.8464
 20
4.9714
 30
0.0
 10
-23.7754
 20
4.9446
 30
0.0
 10
-23.6733
 20
4.9314
 30
0.0
 10
-23.5402
 20
4.9314
 30
0.0
 10
-23.5402
 20
4.9314
 30
0.0
 10
-23.5402
 20
4.9314
 30
0.0
 10
-22.781
 20
4.9314
 30
0.0
 10
-22.781
 20
4.9314
 30
0.0
 10
-22.781
 20
4.9314
 30
0.0
 10
-22.781
 20
4.9314
 30
0.0
 10
-22.781
 20
4.6836
 30
0.0
 10
-22.781
 20
4.6836
 30
0.0
  0
SPLINE
  5
AF
330
1F
100
AcDbEntity
  8
AXIS
 62
   250
100
AcDbSpline
210
0.0
220
0.0
230
1.0
 70
    11
 71
     3
 72
    20
 73
    16
 74
     0
 42
0.0000000001
 43
0.0000000001
 40
0.0
 40
0.0
 40
0.0
 40
0.0
 40
0.2
 40
0.2
 40
0.2
 40
0.2
 40
0.4
 40
0.4
 40
0.4
 40
0.4
 40
0.6
 40
0.6
 40
0.6
 40
0.6
 40
1.0
 40
1.0
 40
1.0
 40
1.0
 10
-24.5157
 20
7.0354
 30
0.0
 10
-24.5157
 20
7.0354
 30
0.0
 10
-24.8012
 20
7.0354
 30
0.0
 10
-24.8012
 20
7.0354
 30
0.0
 10
-24.8012
 20
7.0354
 30
0.0
 10
-24.8012
 20
7.0354
 30
0.0
 10
-24.8012
 20
7.2838
 30
0.0
 10
-24.8012
 20
7.2838
 30
0.0
 10
-24.8012
 20
7.2838
 30
0.0
 10
-24.8012
 20
7.2838
 30
0.0
 10
-24.5157
 20
7.2838
 30
0.0
 10
-24.5157
 20
7.2838
 30
0.0
 10
-24.5157
 20
7.2838
 30
0.0
 10
-24.5157
 20
7.2838
 30
0.0
 10
-24.5157
 20
7.0354
 30
0.0
 10
-24.5157
 20
7.0354
 30
0.0
  0
SPLINE
  5
B0
330
1F
100
AcDbEntity
  8
AXIS
 62
   250
100
AcDbSpline
210
0.0
220
0.0
230
1.0
 70
    11
 71
     3
 72
    20
 73
    16
 74
     0
 42
0.0000000001
 43
0.0000000001
 40
0.0
 40
0.0
 40
0.0
 40
0.0
 40
0.2
 40
0.2
 40
0.2
 40
0.2
 40
0.4
 40
0.4
 40
0.4
 40
0.4
 40
0.6
 40
0.6
 40
0.6
 40
0.6
 40
1.0
 40
1.0
 40
1.0
 40
1.0
 10
-22.781
 20
7.0354
 30
0.0
 10
-22.781
 20
7.0354
 30
0.0
 10
-24.2443
 20
7.0354
 30
0.0
 10
-24.2443
 20
7.0354
 30
0.0
 10
-24.2443
 20
7.0354
 30
0.0
 10
-24.2443
 20
7.0354
 30
0.0
 10
-24.2443
 20
7.2838
 30
0.0
 10
-24.2443
 20
7.2838
 30
0.0
 10
-24.2443
 20
7.2838
 30
0.0
 10
-24.2443
 20
7.2838
 30
0.0
 10
-22.781
 20
7.2838
 30
0.0
 10
-22.781
 20
7.2838
 30
0.0
 10
-22.781
 20
7.2838
 30
0.0
 10
-22.781
 20
7.2838
 30
0.0
 10
-22.781
 20
7.0354
 30
0.0
 10
-22.781
 20
7.0354
 30
0.0
  0
SPLINE
  5
B1
330
1F
100
AcDbEntity
  8
AXIS
 62
   250
100
AcDbSpline
210
0.0
220
0.0
230
1.0
 70
    11
 71
     3
 72
    76
 73
    72
 74
     0
 42
0.0000000001
 43
0.0000000001
 40
0.0
 40
0.0
 40
0.0
 40
0.0
 40
0.0526315789473684
 40
0.0526315789473684
 40
0.0526315789473684
 40
0.0526315789473684
 40
0.1052631578947368
 40
0.1052631578947368
 40
0.1052631578947368
 40
0.1052631578947368
 40
0.1578947368421053
 40
0.1578947368421053
 40
0.1578947368421053
 40
0.1578947368421053
 40
0.2105263157894737
 40
0.2105263157894737
 40
0.2105263157894737
 40
0.2105263157894737
 40
0.2631578947368421
 40
0.2631578947368421
 40
0.2631578947368421
 40
0.2631578947368421
 40
0.3157894736842105
 40
0.3157894736842105
 40
0.3157894736842105
 40
0.3157894736842105
 40
0.3684210526315789
 40
0.3684210526315789
 40
0.3684210526315789
 40
0.3684210526315789
 40
0.4210526315789473
 40
0.4210526315789473
 40
0.4210526315789473
 40
0.4210526315789473
 40
0.4736842105263158
 40
0.4736842105263158
 40
0.4736842105263158
 40
0.4736842105263158
 40
0.5263157894736842
 40
0.5263157894736842
 40
0.5263157894736842
 40
0.5263157894736842
 40
0.5789473684210527
 40
0.5789473684210527
 40
0.5789473684210527
 40
0.5789473684210527
 40
0.631578947368421
 40
0.631578947368421
 40
0.631578947368421
 40
0.631578947368421
 40
0.6842105263157895
 40
0.6842105263157895
 40
0.6842105263157895
 40
0.6842105263157895
 40
0.7368421052631579
 40
0.7368421052631579
 40
0.7368421052631579
 40
0.7368421052631579
 40
0.7894736842105263
 40
0.7894736842105263
 40
0.7894736842105263
 40
0.7894736842105263
 40
0.8421052631578947
 40
0.8421052631578947
 40
0.8421052631578947
 40
0.8421052631578947
 40
0.8947368421052632
 40
0.8947368421052632
 40
0.8947368421052632
 40
0.8947368421052632
 40
1.0
 40
1.0
 40
1.0
 40
1.0
 10
-22.781
 20
7.6615
 30
0.0
 10
-22.781
 20
7.6615
 30
0.0
 10
-24.2443
 20
7.6615
 30
0.0
 10
-24.2443
 20
7.6615
 30
0.0
 10
-24.2443
 20
7.6615
 30
0.0
 10
-24.2443
 20
7.6615
 30
0.0
 10
-24.2443
 20
7.8844
 30
0.0
 10
-24.2443
 20
7.8844
 30
0.0
 10
-24.2443
 20
7.8844
 30
0.0
 10
-24.2443
 20
7.8844
 30
0.0
 10
-24.0364
 20
7.8844
 30
0.0
 10
-24.0364
 20
7.8844
 30
0.0
 10
-24.0364
 20
7.8844
 30
0.0
 10
-24.1973
 20
7.9921
 30
0.0
 10
-24.2777
 20
8.1474
 30
0.0
 10
-24.2777
 20
8.3501
 30
0.0
 10
-24.2777
 20
8.3501
 30
0.0
 10
-24.2777
 20
8.4385
 30
0.0
 10
-24.2617
 20
8.5194
 30
0.0
 10
-24.2302
 20
8.5933
 30
0.0
 10
-24.2302
 20
8.5933
 30
0.0
 10
-24.1982
 20
8.6676
 30
0.0
 10
-24.1568
 20
8.7226
 30
0.0
 10
-24.1051
 20
8.7593
 30
0.0
 10
-24.1051
 20
8.7593
 30
0.0
 10
-24.0538
 20
8.7965
 30
0.0
 10
-23.9927
 20
8.8219
 30
0.0
 10
-23.9221
 20
8.8369
 30
0.0
 10
-23.9221
 20
8.8369
 30
0.0
 10
-23.876
 20
8.8458
 30
0.0
 10
-23.7956
 20
8.8506
 30
0.0
 10
-23.6808
 20
8.8506
 30
0.0
 10
-23.6808
 20
8.8506
 30
0.0
 10
-23.6808
 20
8.8506
 30
0.0
 10
-22.781
 20
8.8506
 30
0.0
 10
-22.781
 20
8.8506
 30
0.0
 10
-22.781
 20
8.8506
 30
0.0
 10
-22.781
 20
8.8506
 30
0.0
 10
-22.781
 20
8.6022
 30
0.0
 10
-22.781
 20
8.6022
 30
0.0
 10
-22.781
 20
8.6022
 30
0.0
 10
-22.781
 20
8.6022
 30
0.0
 10
-23.6714
 20
8.6022
 30
0.0
 10
-23.6714
 20
8.6022
 30
0.0
 10
-23.6714
 20
8.6022
 30
0.0
 10
-23.7721
 20
8.6022
 30
0.0
 10
-23.8478
 20
8.5928
 30
0.0
 10
-23.8981
 20
8.5735
 30
0.0
 10
-23.8981
 20
8.5735
 30
0.0
 10
-23.948
 20
8.5542
 30
0.0
 10
-23.988
 20
8.5199
 30
0.0
 10
-24.0176
 20
8.471
 30
0.0
 10
-24.0176
 20
8.471
 30
0.0
 10
-24.0477
 20
8.4216
 30
0.0
 10
-24.0627
 20
8.3642
 30
0.0
 10
-24.0627
 20
8.2979
 30
0.0
 10
-24.0627
 20
8.2979
 30
0.0
 10
-24.0627
 20
8.192
 30
0.0
 10
-24.0289
 20
8.1013
 30
0.0
 10
-23.9621
 20
8.0241
 30
0.0
 10
-23.9621
 20
8.0241
 30
0.0
 10
-23.8948
 20
7.9474
 30
0.0
 10
-23.7678
 20
7.9093
 30
0.0
 10
-23.5802
 20
7.9093
 30
0.0
 10
-23.5802
 20
7.9093
 30
0.0
 10
-23.5802
 20
7.9093
 30
0.0
 10
-22.781
 20
7.9093
 30
0.0
 10
-22.781
 20
7.9093
 30
0.0
 10
-22.781
 20
7.9093
 30
0.0
 10
-22.781
 20
7.9093
 30
0.0
 10
-22.781
 20
7.6615
 30
0.0
 10
-22.781
 20
7.6615
 30
0.0
  0
SPLINE
  5
B2
330
1F
100
AcDbEntity
  8
AXIS
 62
   250
100
AcDbSpline
210
0.0
220
0.0
230
1.0
 70
    11
 71
     3
 72
    68
 73
    64
 74
     0
 42
0.0000000001
 43
0.0000000001
 40
0.0
 40
0.0
 40
0.0
 40
0.0
 40
0.0588235294117647
 40
0.0588235294117647
 40
0.0588235294117647
 40
0.0588235294117647
 40
0.1176470588235294
 40
0.1176470588235294
 40
0.1176470588235294
 40
0.1176470588235294
 40
0.1764705882352941
 40
0.1764705882352941
 40
0.1764705882352941
 40
0.1764705882352941
 40
0.2352941176470588
 40
0.2352941176470588
 40
0.2352941176470588
 40
0.2352941176470588
 40
0.2941176470588235
 40
0.2941176470588235
 40
0.2941176470588235
 40
0.2941176470588235
 40
0.3529411764705883
 40
0.3529411764705883
 40
0.3529411764705883
 40
0.3529411764705883
 40
0.4117647058823529
 40
0.4117647058823529
 40
0.4117647058823529
 40
0.4117647058823529
 40
0.4705882352941176
 40
0.4705882352941176
 40
0.4705882352941176
 40
0.4705882352941176
 40
0.5294117647058824
 40
0.5294117647058824
 40
0.5294117647058824
 40
0.5294117647058824
 40
0.5882352941176471
 40
0.5882352941176471
 40
0.5882352941176471
 40
0.5882352941176471
 40
0.6470588235294118
 40
0.6470588235294118
 40
0.6470588235294118
 40
0.6470588235294118
 40
0.7058823529411765
 40
0.7058823529411765
 40
0.7058823529411765
 40
0.7058823529411765
 40
0.7647058823529411
 40
0.7647058823529411
 40
0.7647058823529411
 40
0.7647058823529411
 40
0.8235294117647058
 40
0.8235294117647058
 40
0.8235294117647058
 40
0.8235294117647058
 40
0.8823529411764706
 40
0.8823529411764706
 40
0.8823529411764706
 40
0.8823529411764706
 40
1.0
 40
1.0
 40
1.0
 40
1.0
 10
-23.8765
 20
10.328
 30
0.0
 10
-23.9141
 20
10.2249
 30
0.0
 10
-23.9677
 20
10.1487
 30
0.0
 10
-24.0378
 20
10.0989
 30
0.0
 10
-24.0378
 20
10.0989
 30
0.0
 10
-24.1074
 20
10.0495
 30
0.0
 10
-24.1912
 20
10.0246
 30
0.0
 10
-24.2885
 20
10.0246
 30
0.0
 10
-24.2885
 20
10.0246
 30
0.0
 10
-24.4357
 20
10.0246
 30
0.0
 10
-24.559
 20
10.0773
 30
0.0
 10
-24.6592
 20
10.1831
 30
0.0
 10
-24.6592
 20
10.1831
 30
0.0
 10
-24.7594
 20
10.2889
 30
0.0
 10
-24.8097
 20
10.4291
 30
0.0
 10
-24.8097
 20
10.6045
 30
0.0
 10
-24.8097
 20
10.6045
 30
0.0
 10
-24.8097
 20
10.7809
 30
0.0
 10
-24.7584
 20
10.923
 30
0.0
 10
-24.6559
 20
11.0307
 30
0.0
 10
-24.6559
 20
11.0307
 30
0.0
 10
-24.5533
 20
11.1379
 30
0.0
 10
-24.4287
 20
11.1916
 30
0.0
 10
-24.2815
 20
11.1916
 30
0.0
 10
-24.2815
 20
11.1916
 30
0.0
 10
-24.1879
 20
11.1916
 30
0.0
 10
-24.1065
 20
11.1671
 30
0.0
 10
-24.0369
 20
11.1182
 30
0.0
 10
-24.0369
 20
11.1182
 30
0.0
 10
-23.9677
 20
11.0688
 30
0.0
 10
-23.9141
 20
10.9945
 30
0.0
 10
-23.8765
 20
10.8943
 30
0.0
 10
-23.8765
 20
10.8943
 30
0.0
 10
-23.836
 20
11.018
 30
0.0
 10
-23.7711
 20
11.1125
 30
0.0
 10
-23.6808
 20
11.1774
 30
0.0
 10
-23.6808
 20
11.1774
 30
0.0
 10
-23.591
 20
11.2419
 30
0.0
 10
-23.4833
 20
11.2743
 30
0.0
 10
-23.3586
 20
11.2743
 30
0.0
 10
-23.3586
 20
11.2743
 30
0.0
 10
-23.1855
 20
11.2743
 30
0.0
 10
-23.0406
 20
11.2132
 30
0.0
 10
-22.9231
 20
11.0914
 30
0.0
 10
-22.9231
 20
11.0914
 30
0.0
 10
-22.8055
 20
10.9691
 30
0.0
 10
-22.7467
 20
10.8082
 30
0.0
 10
-22.7467
 20
10.6088
 30
0.0
 10
-22.7467
 20
10.6088
 30
0.0
 10
-22.7467
 20
10.4093
 30
0.0
 10
-22.8055
 20
10.2489
 30
0.0
 10
-22.9235
 20
10.1266
 30
0.0
 10
-22.9235
 20
10.1266
 30
0.0
 10
-23.0416
 20
10.0043
 30
0.0
 10
-23.1888
 20
9.9432
 30
0.0
 10
-23.3652
 20
9.9432
 30
0.0
 10
-23.3652
 20
9.9432
 30
0.0
 10
-23.4964
 20
9.9432
 30
0.0
 10
-23.6065
 20
9.9766
 30
0.0
 10
-23.6954
 20
10.0434
 30
0.0
 10
-23.6954
 20
10.0434
 30
0.0
 10
-23.7838
 20
10.1097
 30
0.0
 10
-23.8445
 20
10.2047
 30
0.0
 10
-23.8765
 20
10.328
 30
0.0
  0
SPLINE
  5
B3
330
1F
100
AcDbEntity
  8
AXIS
 62
   250
100
AcDbSpline
210
0.0
220
0.0
230
1.0
 70
    11
 71
     3
 72
    36
 73
    32
 74
     0
 42
0.0000000001
 43
0.0000000001
 40
0.0
 40
0.0
 40
0.0
 40
0.0
 40
0.1111111111111111
 40
0.1111111111111111
 40
0.1111111111111111
 40
0.1111111111111111
 40
0.2222222222222222
 40
0.2222222222222222
 40
0.2222222222222222
 40
0.2222222222222222
 40
0.3333333333333333
 40
0.3333333333333333
 40
0.3333333333333333
 40
0.3333333333333333
 40
0.4444444444444444
 40
0.4444444444444444
 40
0.4444444444444444
 40
0.4444444444444444
 40
0.5555555555555556
 40
0.5555555555555556
 40
0.5555555555555556
 40
0.5555555555555556
 40
0.6666666666666666
 40
0.6666666666666666
 40
0.6666666666666666
 40
0.6666666666666666
 40
0.7777777777777778
 40
0.7777777777777778
 40
0.7777777777777778
 40
0.7777777777777778
 40
1.0
 40
1.0
 40
1.0
 40
1.0
 10
-24.297
 20
10.2781
 30
0.0
 10
-24.2015
 20
10.2781
 30
0.0
 10
-24.1234
 20
10.3091
 30
0.0
 10
-24.0627
 20
10.3703
 30
0.0
 10
-24.0627
 20
10.3703
 30
0.0
 10
-24.0021
 20
10.4319
 30
0.0
 10
-23.9715
 20
10.5119
 30
0.0
 10
-23.9715
 20
10.6102
 30
0.0
 10
-23.9715
 20
10.6102
 30
0.0
 10
-23.9715
 20
10.7057
 30
0.0
 10
-24.0016
 20
10.7842
 30
0.0
 10
-24.0618
 20
10.8454
 30
0.0
 10
-24.0618
 20
10.8454
 30
0.0
 10
-24.122
 20
10.9065
 30
0.0
 10
-24.1959
 20
10.9366
 30
0.0
 10
-24.2829
 20
10.9366
 30
0.0
 10
-24.2829
 20
10.9366
 30
0.0
 10
-24.3741
 20
10.9366
 30
0.0
 10
-24.4503
 20
10.9056
 30
0.0
 10
-24.5124
 20
10.8425
 30
0.0
 10
-24.5124
 20
10.8425
 30
0.0
 10
-24.5745
 20
10.7795
 30
0.0
 10
-24.6056
 20
10.7014
 30
0.0
 10
-24.6056
 20
10.6074
 30
0.0
 10
-24.6056
 20
10.6074
 30
0.0
 10
-24.6056
 20
10.5128
 30
0.0
 10
-24.575
 20
10.4343
 30
0.0
 10
-24.5148
 20
10.3717
 30
0.0
 10
-24.5148
 20
10.3717
 30
0.0
 10
-24.4541
 20
10.3091
 30
0.0
 10
-24.3812
 20
10.2781
 30
0.0
 10
-24.297
 20
10.2781
 30
0.0
  0
SPLINE
  5
B4
330
1F
100
AcDbEntity
  8
AXIS
 62
   250
100
AcDbSpline
210
0.0
220
0.0
230
1.0
 70
    11
 71
     3
 72
    40
 73
    36
 74
     0
 42
0.0000000001
 43
0.0000000001
 40
0.0
 40
0.0
 40
0.0
 40
0.0
 40
0.1
 40
0.1
 40
0.1
 40
0.1
 40
0.2
 40
0.2
 40
0.2
 40
0.2
 40
0.3
 40
0.3
 40
0.3
 40
0.3
 40
0.4
 40
0.4
 40
0.4
 40
0.4
 40
0.5
 40
0.5
 40
0.5
 40
0.5
 40
0.6
 40
0.6
 40
0.6
 40
0.6
 40
0.7
 40
0.7
 40
0.7
 40
0.7
 40
0.8
 40
0.8
 40
0.8
 40
0.8
 40
1.0
 40
1.0
 40
1.0
 40
1.0
 10
-23.3638
 20
10.1981
 30
0.0
 10
-23.2932
 20
10.1981
 30
0.0
 10
-23.2246
 20
10.2151
 30
0.0
 10
-23.1587
 20
10.2485
 30
0.0
 10
-23.1587
 20
10.2485
 30
0.0
 10
-23.0924
 20
10.2819
 30
0.0
 10
-23.0411
 20
10.3317
 30
0.0
 10
-23.0049
 20
10.398
 30
0.0
 10
-23.0049
 20
10.398
 30
0.0
 10
-22.9687
 20
10.4644
 30
0.0
 10
-22.9503
 20
10.5354
 30
0.0
 10
-22.9503
 20
10.6116
 30
0.0
 10
-22.9503
 20
10.6116
 30
0.0
 10
-22.9503
 20
10.7301
 30
0.0
 10
-22.9884
 20
10.828
 30
0.0
 10
-23.0651
 20
10.9051
 30
0.0
 10
-23.0651
 20
10.9051
 30
0.0
 10
-23.1413
 20
10.9822
 30
0.0
 10
-23.2382
 20
11.0208
 30
0.0
 10
-23.3558
 20
11.0208
 30
0.0
 10
-23.3558
 20
11.0208
 30
0.0
 10
-23.4753
 20
11.0208
 30
0.0
 10
-23.574
 20
10.9813
 30
0.0
 10
-23.6521
 20
10.9018
 30
0.0
 10
-23.6521
 20
10.9018
 30
0.0
 10
-23.7302
 20
10.8223
 30
0.0
 10
-23.7692
 20
10.7226
 30
0.0
 10
-23.7692
 20
10.6031
 30
0.0
 10
-23.7692
 20
10.6031
 30
0.0
 10
-23.7692
 20
10.4865
 30
0.0
 10
-23.7307
 20
10.39
 30
0.0
 10
-23.6535
 20
10.3134
 30
0.0
 10
-23.6535
 20
10.3134
 30
0.0
 10
-23.5759
 20
10.2367
 30
0.0
 10
-23.4795
 20
10.1981
 30
0.0
 10
-23.3638
 20
10.1981
 30
0.0
  0
SPLINE
  5
B5
330
1F
100
AcDbEntity
  8
AXIS
 62
   250
100
AcDbSpline
210
0.0
220
0.0
230
1.0
 70
    11
 71
     3
 72
    52
 73
    48
 74
     0
 42
0.0000000001
 43
0.0000000001
 40
0.0
 40
0.0
 40
0.0
 40
0.0
 40
0.0769230769230769
 40
0.0769230769230769
 40
0.0769230769230769
 40
0.0769230769230769
 40
0.1538461538461539
 40
0.1538461538461539
 40
0.1538461538461539
 40
0.1538461538461539
 40
0.2307692307692308
 40
0.2307692307692308
 40
0.2307692307692308
 40
0.2307692307692308
 40
0.3076923076923077
 40
0.3076923076923077
 40
0.3076923076923077
 40
0.3076923076923077
 40
0.3846153846153846
 40
0.3846153846153846
 40
0.3846153846153846
 40
0.3846153846153846
 40
0.4615384615384616
 40
0.4615384615384616
 40
0.4615384615384616
 40
0.4615384615384616
 40
0.5384615384615384
 40
0.5384615384615384
 40
0.5384615384615384
 40
0.5384615384615384
 40
0.6153846153846154
 40
0.6153846153846154
 40
0.6153846153846154
 40
0.6153846153846154
 40
0.6923076923076923
 40
0.6923076923076923
 40
0.6923076923076923
 40
0.6923076923076923
 40
0.7692307692307693
 40
0.7692307692307693
 40
0.7692307692307693
 40
0.7692307692307693
 40
0.8461538461538461
 40
0.8461538461538461
 40
0.8461538461538461
 40
0.8461538461538461
 40
1.0
 40
1.0
 40
1.0
 40
1.0
 10
-23.7772
 20
11.5156
 30
0.0
 10
-24.0162
 20
11.5156
 30
0.0
 10
-24.2086
 20
11.5401
 30
0.0
 10
-24.3539
 20
11.5895
 30
0.0
 10
-24.3539
 20
11.5895
 30
0.0
 10
-24.4997
 20
11.6384
 30
0.0
 10
-24.6121
 20
11.7118
 30
0.0
 10
-24.6912
 20
11.8087
 30
0.0
 10
-24.6912
 20
11.8087
 30
0.0
 10
-24.7702
 20
11.9056
 30
0.0
 10
-24.8097
 20
12.0274
 30
0.0
 10
-24.8097
 20
12.1741
 30
0.0
 10
-24.8097
 20
12.1741
 30
0.0
 10
-24.8097
 20
12.2828
 30
0.0
 10
-24.7876
 20
12.3778
 30
0.0
 10
-24.7438
 20
12.4596
 30
0.0
 10
-24.7438
 20
12.4596
 30
0.0
 10
-24.7006
 20
12.5415
 30
0.0
 10
-24.6375
 20
12.6088
 30
0.0
 10
-24.5552
 20
12.6624
 30
0.0
 10
-24.5552
 20
12.6624
 30
0.0
 10
-24.4729
 20
12.7155
 30
0.0
 10
-24.3727
 20
12.7574
 30
0.0
 10
-24.2547
 20
12.7875
 30
0.0
 10
-24.2547
 20
12.7875
 30
0.0
 10
-24.1366
 20
12.8181
 30
0.0
 10
-23.9776
 20
12.8331
 30
0.0
 10
-23.7772
 20
12.8331
 30
0.0
 10
-23.7772
 20
12.8331
 30
0.0
 10
-23.5402
 20
12.8331
 30
0.0
 10
-23.3492
 20
12.8087
 30
0.0
 10
-23.2034
 20
12.7602
 30
0.0
 10
-23.2034
 20
12.7602
 30
0.0
 10
-23.0576
 20
12.7113
 30
0.0
 10
-22.9452
 20
12.6384
 30
0.0
 10
-22.8657
 20
12.5415
 30
0.0
 10
-22.8657
 20
12.5415
 30
0.0
 10
-22.7862
 20
12.4446
 30
0.0
 10
-22.7467
 20
12.3223
 30
0.0
 10
-22.7467
 20
12.1741
 30
0.0
 10
-22.7467
 20
12.1741
 30
0.0
 10
-22.7467
 20
11.9794
 30
0.0
 10
-22.8163
 20
11.8265
 30
0.0
 10
-22.956
 20
11.7155
 30
0.0
 10
-22.956
 20
11.7155
 30
0.0
 10
-23.1239
 20
11.5824
 30
0.0
 10
-23.3981
 20
11.5156
 30
0.0
 10
-23.7772
 20
11.5156
 30
0.0
  0
SPLINE
  5
B6
330
1F
100
AcDbEntity
  8
AXIS
 62
   250
100
AcDbSpline
210
0.0
220
0.0
230
1.0
 70
    11
 71
     3
 72
    36
 73
    32
 74
     0
 42
0.0000000001
 43
0.0000000001
 40
0.0
 40
0.0
 40
0.0
 40
0.0
 40
0.1111111111111111
 40
0.1111111111111111
 40
0.1111111111111111
 40
0.1111111111111111
 40
0.2222222222222222
 40
0.2222222222222222
 40
0.2222222222222222
 40
0.2222222222222222
 40
0.3333333333333333
 40
0.3333333333333333
 40
0.3333333333333333
 40
0.3333333333333333
 40
0.4444444444444444
 40
0.4444444444444444
 40
0.4444444444444444
 40
0.4444444444444444
 40
0.5555555555555556
 40
0.5555555555555556
 40
0.5555555555555556
 40
0.5555555555555556
 40
0.6666666666666666
 40
0.6666666666666666
 40
0.6666666666666666
 40
0.6666666666666666
 40
0.7777777777777778
 40
0.7777777777777778
 40
0.7777777777777778
 40
0.7777777777777778
 40
1.0
 40
1.0
 40
1.0
 40
1.0
 10
-23.7772
 20
11.7706
 30
0.0
 10
-23.4456
 20
11.7706
 30
0.0
 10
-23.225
 20
11.8096
 30
0.0
 10
-23.115
 20
11.8872
 30
0.0
 10
-23.115
 20
11.8872
 30
0.0
 10
-23.0054
 20
11.9648
 30
0.0
 10
-22.9503
 20
12.0603
 30
0.0
 10
-22.9503
 20
12.1741
 30
0.0
 10
-22.9503
 20
12.1741
 30
0.0
 10
-22.9503
 20
12.2884
 30
0.0
 10
-23.0058
 20
12.3839
 30
0.0
 10
-23.1159
 20
12.4615
 30
0.0
 10
-23.1159
 20
12.4615
 30
0.0
 10
-23.226
 20
12.5391
 30
0.0
 10
-23.4466
 20
12.5782
 30
0.0
 10
-23.7772
 20
12.5782
 30
0.0
 10
-23.7772
 20
12.5782
 30
0.0
 10
-24.1098
 20
12.5782
 30
0.0
 10
-24.3309
 20
12.5391
 30
0.0
 10
-24.44
 20
12.4615
 30
0.0
 10
-24.44
 20
12.4615
 30
0.0
 10
-24.5496
 20
12.3839
 30
0.0
 10
-24.6041
 20
12.2875
 30
0.0
 10
-24.6041
 20
12.1718
 30
0.0
 10
-24.6041
 20
12.1718
 30
0.0
 10
-24.6041
 20
12.0575
 30
0.0
 10
-24.5557
 20
11.9667
 30
0.0
 10
-24.4593
 20
11.8985
 30
0.0
 10
-24.4593
 20
11.8985
 30
0.0
 10
-24.3365
 20
11.8134
 30
0.0
 10
-24.1088
 20
11.7706
 30
0.0
 10
-23.7772
 20
11.7706
 30
0.0
  0
SPLINE
  5
B7
330
1F
100
AcDbEntity
  8
AXIS
 62
   250
100
AcDbSpline
210
0.0
220
0.0
230
1.0
 70
    11
 71
     3
 72
    20
 73
    16
 74
     0
 42
0.0000000001
 43
0.0000000001
 40
0.0
 40
0.0
 40
0.0
 40
0.0
 40
0.2
 40
0.2
 40
0.2
 40
0.2
 40
0.4
 40
0.4
 40
0.4
 40
0.4
 40
0.6
 40
0.6
 40
0.6
 40
0.6
 40
1.0
 40
1.0
 40
1.0
 40
1.0
 10
-23.3873
 20
13.8416
 30
0.0
 10
-23.3873
 20
13.8416
 30
0.0
 10
-23.6366
 20
13.8416
 30
0.0
 10
-23.6366
 20
13.8416
 30
0.0
 10
-23.6366
 20
13.8416
 30
0.0
 10
-23.6366
 20
13.8416
 30
0.0
 10
-23.6366
 20
14.604
 30
0.0
 10
-23.6366
 20
14.604
 30
0.0
 10
-23.6366
 20
14.604
 30
0.0
 10
-23.6366
 20
14.604
 30
0.0
 10
-23.3873
 20
14.604
 30
0.0
 10
-23.3873
 20
14.604
 30
0.0
 10
-23.3873
 20
14.604
 30
0.0
 10
-23.3873
 20
14.604
 30
0.0
 10
-23.3873
 20
13.8416
 30
0.0
 10
-23.3873
 20
13.8416
 30
0.0
  0
SPLINE
  5
B8
330
1F
100
AcDbEntity
  8
AXIS
 62
   250
100
AcDbSpline
210
0.0
220
0.0
230
1.0
 70
    11
 71
     3
 72
   116
 73
   112
 74
     0
 42
0.0000000001
 43
0.0000000001
 40
0.0
 40
0.0
 40
0.0
 40
0.0
 40
0.0344827586206897
 40
0.0344827586206897
 40
0.0344827586206897
 40
0.0344827586206897
 40
0.0689655172413793
 40
0.0689655172413793
 40
0.0689655172413793
 40
0.0689655172413793
 40
0.103448275862069
 40
0.103448275862069
 40
0.103448275862069
 40
0.103448275862069
 40
0.1379310344827586
 40
0.1379310344827586
 40
0.1379310344827586
 40
0.1379310344827586
 40
0.1724137931034483
 40
0.1724137931034483
 40
0.1724137931034483
 40
0.1724137931034483
 40
0.2068965517241379
 40
0.2068965517241379
 40
0.2068965517241379
 40
0.2068965517241379
 40
0.2413793103448276
 40
0.2413793103448276
 40
0.2413793103448276
 40
0.2413793103448276
 40
0.2758620689655172
 40
0.2758620689655172
 40
0.2758620689655172
 40
0.2758620689655172
 40
0.3103448275862069
 40
0.3103448275862069
 40
0.3103448275862069
 40
0.3103448275862069
 40
0.3448275862068966
 40
0.3448275862068966
 40
0.3448275862068966
 40
0.3448275862068966
 40
0.3793103448275862
 40
0.3793103448275862
 40
0.3793103448275862
 40
0.3793103448275862
 40
0.4137931034482759
 40
0.4137931034482759
 40
0.4137931034482759
 40
0.4137931034482759
 40
0.4482758620689655
 40
0.4482758620689655
 40
0.4482758620689655
 40
0.4482758620689655
 40
0.4827586206896552
 40
0.4827586206896552
 40
0.4827586206896552
 40
0.4827586206896552
 40
0.5172413793103449
 40
0.5172413793103449
 40
0.5172413793103449
 40
0.5172413793103449
 40
0.5517241379310345
 40
0.5517241379310345
 40
0.5517241379310345
 40
0.5517241379310345
 40
0.5862068965517241
 40
0.5862068965517241
 40
0.5862068965517241
 40
0.5862068965517241
 40
0.6206896551724138
 40
0.6206896551724138
 40
0.6206896551724138
 40
0.6206896551724138
 40
0.6551724137931034
 40
0.6551724137931034
 40
0.6551724137931034
 40
0.6551724137931034
 40
0.6896551724137931
 40
0.6896551724137931
 40
0.6896551724137931
 40
0.6896551724137931
 40
0.7241379310344828
 40
0.7241379310344828
 40
0.7241379310344828
 40
0.7241379310344828
 40
0.7586206896551724
 40
0.7586206896551724
 40
0.7586206896551724
 40
0.7586206896551724
 40
0.7931034482758621
 40
0.7931034482758621
 40
0.7931034482758621
 40
0.7931034482758621
 40
0.8275862068965517
 40
0.8275862068965517
 40
0.8275862068965517
 40
0.8275862068965517
 40
0.8620689655172413
 40
0.8620689655172413
 40
0.8620689655172413
 40
0.8620689655172413
 40
0.896551724137931
 40
0.896551724137931
 40
0.896551724137931
 40
0.896551724137931
 40
0.9310344827586207
 40
0.9310344827586207
 40
0.9310344827586207
 40
0.9310344827586207
 40
1.0
 40
1.0
 40
1.0
 40
1.0
 10
-22.781
 20
15.6624
 30
0.0
 10
-22.781
 20
15.6624
 30
0.0
 10
-24.2443
 20
15.6624
 30
0.0
 10
-24.2443
 20
15.6624
 30
0.0
 10
-24.2443
 20
15.6624
 30
0.0
 10
-24.2443
 20
15.6624
 30
0.0
 10
-24.2443
 20
15.8839
 30
0.0
 10
-24.2443
 20
15.8839
 30
0.0
 10
-24.2443
 20
15.8839
 30
0.0
 10
-24.2443
 20
15.8839
 30
0.0
 10
-24.0392
 20
15.8839
 30
0.0
 10
-24.0392
 20
15.8839
 30
0.0
 10
-24.0392
 20
15.8839
 30
0.0
 10
-24.1107
 20
15.93
 30
0.0
 10
-24.1686
 20
15.9912
 30
0.0
 10
-24.2119
 20
16.0674
 30
0.0
 10
-24.2119
 20
16.0674
 30
0.0
 10
-24.2556
 20
16.1436
 30
0.0
 10
-24.2777
 20
16.2306
 30
0.0
 10
-24.2777
 20
16.3279
 30
0.0
 10
-24.2777
 20
16.3279
 30
0.0
 10
-24.2777
 20
16.4361
 30
0.0
 10
-24.2551
 20
16.525
 30
0.0
 10
-24.21
 20
16.5942
 30
0.0
 10
-24.21
 20
16.5942
 30
0.0
 10
-24.1648
 20
16.6638
 30
0.0
 10
-24.1023
 20
16.7127
 30
0.0
 10
-24.0214
 20
16.7409
 30
0.0
 10
-24.0214
 20
16.7409
 30
0.0
 10
-24.1921
 20
16.8571
 30
0.0
 10
-24.2777
 20
17.0076
 30
0.0
 10
-24.2777
 20
17.1929
 30
0.0
 10
-24.2777
 20
17.1929
 30
0.0
 10
-24.2777
 20
17.3383
 30
0.0
 10
-24.2373
 20
17.4498
 30
0.0
 10
-24.1568
 20
17.5278
 30
0.0
 10
-24.1568
 20
17.5278
 30
0.0
 10
-24.0764
 20
17.6059
 30
0.0
 10
-23.9527
 20
17.645
 30
0.0
 10
-23.7857
 20
17.645
 30
0.0
 10
-23.7857
 20
17.645
 30
0.0
 10
-23.7857
 20
17.645
 30
0.0
 10
-22.781
 20
17.645
 30
0.0
 10
-22.781
 20
17.645
 30
0.0
 10
-22.781
 20
17.645
 30
0.0
 10
-22.781
 20
17.645
 30
0.0
 10
-22.781
 20
17.3985
 30
0.0
 10
-22.781
 20
17.3985
 30
0.0
 10
-22.781
 20
17.3985
 30
0.0
 10
-22.781
 20
17.3985
 30
0.0
 10
-23.7029
 20
17.3985
 30
0.0
 10
-23.7029
 20
17.3985
 30
0.0
 10
-23.7029
 20
17.3985
 30
0.0
 10
-23.8022
 20
17.3985
 30
0.0
 10
-23.8737
 20
17.3905
 30
0.0
 10
-23.9174
 20
17.3745
 30
0.0
 10
-23.9174
 20
17.3745
 30
0.0
 10
-23.9607
 20
17.358
 30
0.0
 10
-23.996
 20
17.3289
 30
0.0
 10
-24.0228
 20
17.287
 30
0.0
 10
-24.0228
 20
17.287
 30
0.0
 10
-24.0491
 20
17.2447
 30
0.0
 10
-24.0627
 20
17.1948
 30
0.0
 10
-24.0627
 20
17.1379
 30
0.0
 10
-24.0627
 20
17.1379
 30
0.0
 10
-24.0627
 20
17.0349
 30
0.0
 10
-24.0284
 20
16.9498
 30
0.0
 10
-23.9597
 20
16.8816
 30
0.0
 10
-23.9597
 20
16.8816
 30
0.0
 10
-23.8915
 20
16.8138
 30
0.0
 10
-23.7819
 20
16.7795
 30
0.0
 10
-23.6314
 20
16.7795
 30
0.0
 10
-23.6314
 20
16.7795
 30
0.0
 10
-23.6314
 20
16.7795
 30
0.0
 10
-22.781
 20
16.7795
 30
0.0
 10
-22.781
 20
16.7795
 30
0.0
 10
-22.781
 20
16.7795
 30
0.0
 10
-22.781
 20
16.7795
 30
0.0
 10
-22.781
 20
16.5316
 30
0.0
 10
-22.781
 20
16.5316
 30
0.0
 10
-22.781
 20
16.5316
 30
0.0
 10
-22.781
 20
16.5316
 30
0.0
 10
-23.7316
 20
16.5316
 30
0.0
 10
-23.7316
 20
16.5316
 30
0.0
 10
-23.7316
 20
16.5316
 30
0.0
 10
-23.8421
 20
16.5316
 30
0.0
 10
-23.9249
 20
16.5114
 30
0.0
 10
-23.98
 20
16.4709
 30
0.0
 10
-23.98
 20
16.4709
 30
0.0
 10
-24.035
 20
16.4305
 30
0.0
 10
-24.0627
 20
16.3646
 30
0.0
 10
-24.0627
 20
16.2724
 30
0.0
 10
-24.0627
 20
16.2724
 30
0.0
 10
-24.0627
 20
16.2028
 30
0.0
 10
-24.0444
 20
16.1384
 30
0.0
 10
-24.0072
 20
16.0791
 30
0.0
 10
-24.0072
 20
16.0791
 30
0.0
 10
-23.9706
 20
16.0198
 30
0.0
 10
-23.9169
 20
15.9766
 30
0.0
 10
-23.8464
 20
15.9502
 30
0.0
 10
-23.8464
 20
15.9502
 30
0.0
 10
-23.7754
 20
15.9234
 30
0.0
 10
-23.6733
 20
15.9102
 30
0.0
 10
-23.5402
 20
15.9102
 30
0.0
 10
-23.5402
 20
15.9102
 30
0.0
 10
-23.5402
 20
15.9102
 30
0.0
 10
-22.781
 20
15.9102
 30
0.0
 10
-22.781
 20
15.9102
 30
0.0
 10
-22.781
 20
15.9102
 30
0.0
 10
-22.781
 20
15.9102
 30
0.0
 10
-22.781
 20
15.6624
 30
0.0
 10
-22.781
 20
15.6624
 30
0.0
  0
SPLINE
  5
B9
330
1F
100
AcDbEntity
  8
AXIS
 62
   250
100
AcDbSpline
210
0.0
220
0.0
230
1.0
 70
    11
 71
     3
 72
   112
 73
   108
 74
     0
 42
0.0000000001
 43
0.0000000001
 40
0.0
 40
0.0
 40
0.0
 40
0.0
 40
0.0357142857142857
 40
0.0357142857142857
 40
0.0357142857142857
 40
0.0357142857142857
 40
0.0714285714285714
 40
0.0714285714285714
 40
0.0714285714285714
 40
0.0714285714285714
 40
0.1071428571428571
 40
0.1071428571428571
 40
0.1071428571428571
 40
0.1071428571428571
 40
0.1428571428571428
 40
0.1428571428571428
 40
0.1428571428571428
 40
0.1428571428571428
 40
0.1785714285714286
 40
0.1785714285714286
 40
0.1785714285714286
 40
0.1785714285714286
 40
0.2142857142857143
 40
0.2142857142857143
 40
0.2142857142857143
 40
0.2142857142857143
 40
0.25
 40
0.25
 40
0.25
 40
0.25
 40
0.2857142857142857
 40
0.2857142857142857
 40
0.2857142857142857
 40
0.2857142857142857
 40
0.3214285714285715
 40
0.3214285714285715
 40
0.3214285714285715
 40
0.3214285714285715
 40
0.3571428571428572
 40
0.3571428571428572
 40
0.3571428571428572
 40
0.3571428571428572
 40
0.3928571428571428
 40
0.3928571428571428
 40
0.3928571428571428
 40
0.3928571428571428
 40
0.4285714285714285
 40
0.4285714285714285
 40
0.4285714285714285
 40
0.4285714285714285
 40
0.4642857142857143
 40
0.4642857142857143
 40
0.4642857142857143
 40
0.4642857142857143
 40
0.5
 40
0.5
 40
0.5
 40
0.5
 40
0.5357142857142857
 40
0.5357142857142857
 40
0.5357142857142857
 40
0.5357142857142857
 40
0.5714285714285714
 40
0.5714285714285714
 40
0.5714285714285714
 40
0.5714285714285714
 40
0.6071428571428571
 40
0.6071428571428571
 40
0.6071428571428571
 40
0.6071428571428571
 40
0.6428571428571429
 40
0.6428571428571429
 40
0.6428571428571429
 40
0.6428571428571429
 40
0.6785714285714286
 40
0.6785714285714286
 40
0.6785714285714286
 40
0.6785714285714286
 40
0.7142857142857143
 40
0.7142857142857143
 40
0.7142857142857143
 40
0.7142857142857143
 40
0.75
 40
0.75
 40
0.75
 40
0.75
 40
0.7857142857142857
 40
0.7857142857142857
 40
0.7857142857142857
 40
0.7857142857142857
 40
0.8214285714285714
 40
0.8214285714285714
 40
0.8214285714285714
 40
0.8214285714285714
 40
0.8571428571428571
 40
0.8571428571428571
 40
0.8571428571428571
 40
0.8571428571428571
 40
0.8928571428571429
 40
0.8928571428571429
 40
0.8928571428571429
 40
0.8928571428571429
 40
0.9285714285714286
 40
0.9285714285714286
 40
0.9285714285714286
 40
0.9285714285714286
 40
1.0
 40
1.0
 40
1.0
 40
1.0
 10
-22.9616
 20
18.9681
 30
0.0
 10
-22.8835
 20
18.8759
 30
0.0
 10
-22.8285
 20
18.7875
 30
0.0
 10
-22.7961
 20
18.7028
 30
0.0
 10
-22.7961
 20
18.7028
 30
0.0
 10
-22.7641
 20
18.6177
 30
0.0
 10
-22.7481
 20
18.5264
 30
0.0
 10
-22.7481
 20
18.4291
 30
0.0
 10
-22.7481
 20
18.4291
 30
0.0
 10
-22.7481
 20
18.2682
 30
0.0
 10
-22.7871
 20
18.145
 30
0.0
 10
-22.8657
 20
18.0584
 30
0.0
 10
-22.8657
 20
18.0584
 30
0.0
 10
-22.9442
 20
17.9723
 30
0.0
 10
-23.0449
 20
17.9291
 30
0.0
 10
-23.1667
 20
17.9291
 30
0.0
 10
-23.1667
 20
17.9291
 30
0.0
 10
-23.2387
 20
17.9291
 30
0.0
 10
-23.304
 20
17.9451
 30
0.0
 10
-23.3633
 20
17.978
 30
0.0
 10
-23.3633
 20
17.978
 30
0.0
 10
-23.4226
 20
18.0104
 30
0.0
 10
-23.4701
 20
18.0532
 30
0.0
 10
-23.5058
 20
18.1059
 30
0.0
 10
-23.5058
 20
18.1059
 30
0.0
 10
-23.5416
 20
18.1591
 30
0.0
 10
-23.5689
 20
18.2183
 30
0.0
 10
-23.5872
 20
18.2847
 30
0.0
 10
-23.5872
 20
18.2847
 30
0.0
 10
-23.5999
 20
18.3331
 30
0.0
 10
-23.6126
 20
18.4065
 30
0.0
 10
-23.6244
 20
18.5048
 30
0.0
 10
-23.6244
 20
18.5048
 30
0.0
 10
-23.6484
 20
18.7052
 30
0.0
 10
-23.6766
 20
18.8529
 30
0.0
 10
-23.71
 20
18.9474
 30
0.0
 10
-23.71
 20
18.9474
 30
0.0
 10
-23.7438
 20
18.9484
 30
0.0
 10
-23.7655
 20
18.9488
 30
0.0
 10
-23.7744
 20
18.9488
 30
0.0
 10
-23.7744
 20
18.9488
 30
0.0
 10
-23.8755
 20
18.9488
 30
0.0
 10
-23.947
 20
18.9253
 30
0.0
 10
-23.988
 20
18.8783
 30
0.0
 10
-23.988
 20
18.8783
 30
0.0
 10
-24.0444
 20
18.8152
 30
0.0
 10
-24.0722
 20
18.7207
 30
0.0
 10
-24.0722
 20
18.596
 30
0.0
 10
-24.0722
 20
18.596
 30
0.0
 10
-24.0722
 20
18.4794
 30
0.0
 10
-24.0519
 20
18.3933
 30
0.0
 10
-24.011
 20
18.3373
 30
0.0
 10
-24.011
 20
18.3373
 30
0.0
 10
-23.9701
 20
18.2818
 30
0.0
 10
-23.8977
 20
18.2409
 30
0.0
 10
-23.7937
 20
18.2141
 30
0.0
 10
-23.7937
 20
18.2141
 30
0.0
 10
-23.7937
 20
18.2141
 30
0.0
 10
-23.8271
 20
17.9719
 30
0.0
 10
-23.8271
 20
17.9719
 30
0.0
 10
-23.8271
 20
17.9719
 30
0.0
 10
-23.9306
 20
17.994
 30
0.0
 10
-24.0148
 20
18.0302
 30
0.0
 10
-24.0783
 20
18.0805
 30
0.0
 10
-24.0783
 20
18.0805
 30
0.0
 10
-24.1422
 20
18.1309
 30
0.0
 10
-24.1916
 20
18.2042
 30
0.0
 10
-24.226
 20
18.2997
 30
0.0
 10
-24.226
 20
18.2997
 30
0.0
 10
-24.2603
 20
18.3952
 30
0.0
 10
-24.2777
 20
18.5057
 30
0.0
 10
-24.2777
 20
18.6318
 30
0.0
 10
-24.2777
 20
18.6318
 30
0.0
 10
-24.2777
 20
18.7569
 30
0.0
 10
-24.2627
 20
18.858
 30
0.0
 10
-24.2335
 20
18.9361
 30
0.0
 10
-24.2335
 20
18.9361
 30
0.0
 10
-24.2039
 20
19.0142
 30
0.0
 10
-24.1672
 20
19.0716
 30
0.0
 10
-24.1225
 20
19.1087
 30
0.0
 10
-24.1225
 20
19.1087
 30
0.0
 10
-24.0778
 20
19.1454
 30
0.0
 10
-24.0218
 20
19.1708
 30
0.0
 10
-23.9536
 20
19.1859
 30
0.0
 10
-23.9536
 20
19.1859
 30
0.0
 10
-23.9113
 20
19.1939
 30
0.0
 10
-23.8351
 20
19.1981
 30
0.0
 10
-23.725
 20
19.1981
 30
0.0
 10
-23.725
 20
19.1981
 30
0.0
 10
-23.725
 20
19.1981
 30
0.0
 10
-23.3944
 20
19.1981
 30
0.0
 10
-23.3944
 20
19.1981
 30
0.0
 10
-23.3944
 20
19.1981
 30
0.0
 10
-23.1634
 20
19.1981
 30
0.0
 10
-23.0176
 20
19.2033
 30
0.0
 10
-22.9569
 20
19.2141
 30
0.0
 10
-22.9569
 20
19.2141
 30
0.0
 10
-22.8958
 20
19.2245
 30
0.0
 10
-22.837
 20
19.2456
 30
0.0
 10
-22.781
 20
19.2767
 30
0.0
 10
-22.781
 20
19.2767
 30
0.0
 10
-22.781
 20
19.2767
 30
0.0
 10
-22.781
 20
19.0175
 30
0.0
 10
-22.781
 20
19.0175
 30
0.0
 10
-22.781
 20
19.0175
 30
0.0
 10
-22.8323
 20
18.9921
 30
0.0
 10
-22.8925
 20
18.9752
 30
0.0
 10
-22.9616
 20
18.9681
 30
0.0
  0
SPLINE
  5
BA
330
1F
100
AcDbEntity
  8
AXIS
 62
   250
100
AcDbSpline
210
0.0
220
0.0
230
1.0
 70
    11
 71
     3
 72
    44
 73
    40
 74
     0
 42
0.0000000001
 43
0.0000000001
 40
0.0
 40
0.0
 40
0.0
 40
0.0
 40
0.0909090909090909
 40
0.0909090909090909
 40
0.0909090909090909
 40
0.0909090909090909
 40
0.1818181818181818
 40
0.1818181818181818
 40
0.1818181818181818
 40
0.1818181818181818
 40
0.2727272727272727
 40
0.2727272727272727
 40
0.2727272727272727
 40
0.2727272727272727
 40
0.3636363636363636
 40
0.3636363636363636
 40
0.3636363636363636
 40
0.3636363636363636
 40
0.4545454545454545
 40
0.4545454545454545
 40
0.4545454545454545
 40
0.4545454545454545
 40
0.5454545454545454
 40
0.5454545454545454
 40
0.5454545454545454
 40
0.5454545454545454
 40
0.6363636363636364
 40
0.6363636363636364
 40
0.6363636363636364
 40
0.6363636363636364
 40
0.7272727272727273
 40
0.7272727272727273
 40
0.7272727272727273
 40
0.7272727272727273
 40
0.8181818181818182
 40
0.8181818181818182
 40
0.8181818181818182
 40
0.8181818181818182
 40
1.0
 40
1.0
 40
1.0
 40
1.0
 10
-23.5157
 20
18.9474
 30
0.0
 10
-23.4786
 20
18.8571
 30
0.0
 10
-23.4475
 20
18.7221
 30
0.0
 10
-23.4216
 20
18.5424
 30
0.0
 10
-23.4216
 20
18.5424
 30
0.0
 10
-23.4071
 20
18.4404
 30
0.0
 10
-23.3906
 20
18.3679
 30
0.0
 10
-23.3723
 20
18.3261
 30
0.0
 10
-23.3723
 20
18.3261
 30
0.0
 10
-23.3539
 20
18.2837
 30
0.0
 10
-23.3271
 20
18.2508
 30
0.0
 10
-23.2913
 20
18.2282
 30
0.0
 10
-23.2913
 20
18.2282
 30
0.0
 10
-23.2561
 20
18.2052
 30
0.0
 10
-23.217
 20
18.1934
 30
0.0
 10
-23.1738
 20
18.1934
 30
0.0
 10
-23.1738
 20
18.1934
 30
0.0
 10
-23.1074
 20
18.1934
 30
0.0
 10
-23.0524
 20
18.2188
 30
0.0
 10
-23.0082
 20
18.2687
 30
0.0
 10
-23.0082
 20
18.2687
 30
0.0
 10
-22.9644
 20
18.3185
 30
0.0
 10
-22.9423
 20
18.3919
 30
0.0
 10
-22.9423
 20
18.4883
 30
0.0
 10
-22.9423
 20
18.4883
 30
0.0
 10
-22.9423
 20
18.5838
 30
0.0
 10
-22.963
 20
18.669
 30
0.0
 10
-23.0049
 20
18.7433
 30
0.0
 10
-23.0049
 20
18.7433
 30
0.0
 10
-23.0468
 20
18.8176
 30
0.0
 10
-23.1041
 20
18.8726
 30
0.0
 10
-23.1766
 20
18.9074
 30
0.0
 10
-23.1766
 20
18.9074
 30
0.0
 10
-23.2326
 20
18.9342
 30
0.0
 10
-23.3153
 20
18.9474
 30
0.0
 10
-23.4245
 20
18.9474
 30
0.0
 10
-23.4245
 20
18.9474
 30
0.0
 10
-23.4245
 20
18.9474
 30
0.0
 10
-23.5157
 20
18.9474
 30
0.0
 10
-23.5157
 20
18.9474
 30
0.0
  0
SPLINE
  5
BB
330
1F
100
AcDbEntity
  8
AXIS
 62
   250
100
AcDbSpline
210
0.0
220
0.0
230
1.0
 70
    11
 71
     3
 72
    64
 73
    60
 74
     0
 42
0.0000000001
 43
0.0000000001
 40
0.0
 40
0.0
 40
0.0
 40
0.0
 40
0.0625
 40
0.0625
 40
0.0625
 40
0.0625
 40
0.125
 40
0.125
 40
0.125
 40
0.125
 40
0.1875
 40
0.1875
 40
0.1875
 40
0.1875
 40
0.25
 40
0.25
 40
0.25
 40
0.25
 40
0.3125
 40
0.3125
 40
0.3125
 40
0.3125
 40
0.375
 40
0.375
 40
0.375
 40
0.375
 40
0.4375
 40
0.4375
 40
0.4375
 40
0.4375
 40
0.5
 40
0.5
 40
0.5
 40
0.5
 40
0.5625
 40
0.5625
 40
0.5625
 40
0.5625
 40
0.625
 40
0.625
 40
0.625
 40
0.625
 40
0.6875
 40
0.6875
 40
0.6875
 40
0.6875
 40
0.75
 40
0.75
 40
0.75
 40
0.75
 40
0.8125
 40
0.8125
 40
0.8125
 40
0.8125
 40
0.875
 40
0.875
 40
0.875
 40
0.875
 40
1.0
 40
1.0
 40
1.0
 40
1.0
 10
-22.781
 20
19.4173
 30
0.0
 10
-22.781
 20
19.4173
 30
0.0
 10
-23.5416
 20
19.9521
 30
0.0
 10
-23.5416
 20
19.9521
 30
0.0
 10
-23.5416
 20
19.9521
 30
0.0
 10
-23.5416
 20
19.9521
 30
0.0
 10
-24.2443
 20
19.4573
 30
0.0
 10
-24.2443
 20
19.4573
 30
0.0
 10
-24.2443
 20
19.4573
 30
0.0
 10
-24.2443
 20
19.4573
 30
0.0
 10
-24.2443
 20
19.7672
 30
0.0
 10
-24.2443
 20
19.7672
 30
0.0
 10
-24.2443
 20
19.7672
 30
0.0
 10
-24.2443
 20
19.7672
 30
0.0
 10
-23.9014
 20
19.9921
 30
0.0
 10
-23.9014
 20
19.9921
 30
0.0
 10
-23.9014
 20
19.9921
 30
0.0
 10
-23.836
 20
20.0339
 30
0.0
 10
-23.7815
 20
20.0683
 30
0.0
 10
-23.7373
 20
20.0937
 30
0.0
 10
-23.7373
 20
20.0937
 30
0.0
 10
-23.7979
 20
20.1341
 30
0.0
 10
-23.8516
 20
20.1713
 30
0.0
 10
-23.8986
 20
20.2056
 30
0.0
 10
-23.8986
 20
20.2056
 30
0.0
 10
-23.8986
 20
20.2056
 30
0.0
 10
-24.2443
 20
20.4521
 30
0.0
 10
-24.2443
 20
20.4521
 30
0.0
 10
-24.2443
 20
20.4521
 30
0.0
 10
-24.2443
 20
20.4521
 30
0.0
 10
-24.2443
 20
20.7484
 30
0.0
 10
-24.2443
 20
20.7484
 30
0.0
 10
-24.2443
 20
20.7484
 30
0.0
 10
-24.2443
 20
20.7484
 30
0.0
 10
-23.5552
 20
20.2428
 30
0.0
 10
-23.5552
 20
20.2428
 30
0.0
 10
-23.5552
 20
20.2428
 30
0.0
 10
-23.5552
 20
20.2428
 30
0.0
 10
-22.781
 20
20.787
 30
0.0
 10
-22.781
 20
20.787
 30
0.0
 10
-22.781
 20
20.787
 30
0.0
 10
-22.781
 20
20.787
 30
0.0
 10
-22.781
 20
20.4827
 30
0.0
 10
-22.781
 20
20.4827
 30
0.0
 10
-22.781
 20
20.4827
 30
0.0
 10
-22.781
 20
20.4827
 30
0.0
 10
-23.2358
 20
20.1821
 30
0.0
 10
-23.2358
 20
20.1821
 30
0.0
 10
-23.2358
 20
20.1821
 30
0.0
 10
-23.2358
 20
20.1821
 30
0.0
 10
-23.3586
 20
20.1022
 30
0.0
 10
-23.3586
 20
20.1022
 30
0.0
 10
-23.3586
 20
20.1022
 30
0.0
 10
-23.3586
 20
20.1022
 30
0.0
 10
-22.781
 20
19.7179
 30
0.0
 10
-22.781
 20
19.7179
 30
0.0
 10
-22.781
 20
19.7179
 30
0.0
 10
-22.781
 20
19.7179
 30
0.0
 10
-22.781
 20
19.4173
 30
0.0
 10
-22.781
 20
19.4173
 30
0.0
  0
SPLINE
  5
BC
330
1F
100
AcDbEntity
  8
AXIS
 62
   250
100
AcDbSpline
210
0.0
220
0.0
230
1.0
 70
    11
 71
     3
 72
    40
 73
    36
 74
     0
 42
0.0000000001
 43
0.0000000001
 40
0.0
 40
0.0
 40
0.0
 40
0.0
 40
0.1
 40
0.1
 40
0.1
 40
0.1
 40
0.2
 40
0.2
 40
0.2
 40
0.2
 40
0.3
 40
0.3
 40
0.3
 40
0.3
 40
0.4
 40
0.4
 40
0.4
 40
0.4
 40
0.5
 40
0.5
 40
0.5
 40
0.5
 40
0.6
 40
0.6
 40
0.6
 40
0.6
 40
0.7
 40
0.7
 40
0.7
 40
0.7
 40
0.8
 40
0.8
 40
0.8
 40
0.8
 40
1.0
 40
1.0
 40
1.0
 40
1.0
 10
-22.781
 20
22.6431
 30
0.0
 10
-22.781
 20
22.6431
 30
0.0
 10
-22.781
 20
22.3952
 30
0.0
 10
-22.781
 20
22.3952
 30
0.0
 10
-22.781
 20
22.3952
 30
0.0
 10
-22.781
 20
22.3952
 30
0.0
 10
-24.3614
 20
22.3952
 30
0.0
 10
-24.3614
 20
22.3952
 30
0.0
 10
-24.3614
 20
22.3952
 30
0.0
 10
-24.3045
 20
22.3354
 30
0.0
 10
-24.2476
 20
22.2574
 30
0.0
 10
-24.1907
 20
22.1605
 30
0.0
 10
-24.1907
 20
22.1605
 30
0.0
 10
-24.1338
 20
22.0631
 30
0.0
 10
-24.091
 20
21.9761
 30
0.0
 10
-24.0627
 20
21.8989
 30
0.0
 10
-24.0627
 20
21.8989
 30
0.0
 10
-24.0627
 20
21.8989
 30
0.0
 10
-24.3022
 20
21.8989
 30
0.0
 10
-24.3022
 20
21.8989
 30
0.0
 10
-24.3022
 20
21.8989
 30
0.0
 10
-24.3675
 20
22.0377
 30
0.0
 10
-24.4466
 20
22.1591
 30
0.0
 10
-24.5392
 20
22.263
 30
0.0
 10
-24.5392
 20
22.263
 30
0.0
 10
-24.6324
 20
22.3665
 30
0.0
 10
-24.7222
 20
22.4403
 30
0.0
 10
-24.8097
 20
22.4836
 30
0.0
 10
-24.8097
 20
22.4836
 30
0.0
 10
-24.8097
 20
22.4836
 30
0.0
 10
-24.8097
 20
22.6431
 30
0.0
 10
-24.8097
 20
22.6431
 30
0.0
 10
-24.8097
 20
22.6431
 30
0.0
 10
-24.8097
 20
22.6431
 30
0.0
 10
-22.781
 20
22.6431
 30
0.0
 10
-22.781
 20
22.6431
 30
0.0
  0
SPLINE
  5
BD
330
1F
100
AcDbEntity
  8
AXIS
 62
   250
100
AcDbSpline
210
0.0
220
0.0
230
1.0
 70
    11
 71
     3
 72
    40
 73
    36
 74
     0
 42
0.0000000001
 43
0.0000000001
 40
0.0
 40
0.0
 40
0.0
 40
0.0
 40
0.1
 40
0.1
 40
0.1
 40
0.1
 40
0.2
 40
0.2
 40
0.2
 40
0.2
 40
0.3
 40
0.3
 40
0.3
 40
0.3
 40
0.4
 40
0.4
 40
0.4
 40
0.4
 40
0.5
 40
0.5
 40
0.5
 40
0.5
 40
0.6
 40
0.6
 40
0.6
 40
0.6
 40
0.7
 40
0.7
 40
0.7
 40
0.7
 40
0.8
 40
0.8
 40
0.8
 40
0.8
 40
1.0
 40
1.0
 40
1.0
 40
1.0
 10
-22.781
 20
24.0034
 30
0.0
 10
-22.781
 20
24.0034
 30
0.0
 10
-22.781
 20
23.7555
 30
0.0
 10
-22.781
 20
23.7555
 30
0.0
 10
-22.781
 20
23.7555
 30
0.0
 10
-22.781
 20
23.7555
 30
0.0
 10
-24.3614
 20
23.7555
 30
0.0
 10
-24.3614
 20
23.7555
 30
0.0
 10
-24.3614
 20
23.7555
 30
0.0
 10
-24.3045
 20
23.6957
 30
0.0
 10
-24.2476
 20
23.6177
 30
0.0
 10
-24.1907
 20
23.5208
 30
0.0
 10
-24.1907
 20
23.5208
 30
0.0
 10
-24.1338
 20
23.4234
 30
0.0
 10
-24.091
 20
23.3364
 30
0.0
 10
-24.0627
 20
23.2592
 30
0.0
 10
-24.0627
 20
23.2592
 30
0.0
 10
-24.0627
 20
23.2592
 30
0.0
 10
-24.3022
 20
23.2592
 30
0.0
 10
-24.3022
 20
23.2592
 30
0.0
 10
-24.3022
 20
23.2592
 30
0.0
 10
-24.3675
 20
23.398
 30
0.0
 10
-24.4466
 20
23.5194
 30
0.0
 10
-24.5392
 20
23.6233
 30
0.0
 10
-24.5392
 20
23.6233
 30
0.0
 10
-24.6324
 20
23.7268
 30
0.0
 10
-24.7222
 20
23.8006
 30
0.0
 10
-24.8097
 20
23.8439
 30
0.0
 10
-24.8097
 20
23.8439
 30
0.0
 10
-24.8097
 20
23.8439
 30
0.0
 10
-24.8097
 20
24.0034
 30
0.0
 10
-24.8097
 20
24.0034
 30
0.0
 10
-24.8097
 20
24.0034
 30
0.0
 10
-24.8097
 20
24.0034
 30
0.0
 10
-22.781
 20
24.0034
 30
0.0
 10
-22.781
 20
24.0034
 30
0.0
  0
SPLINE
  5
BE
330
1F
100
AcDbEntity
  8
AXIS
 62
   250
100
AcDbSpline
210
0.0
220
0.0
230
1.0
 70
    11
 71
     3
 72
   124
 73
   120
 74
     0
 42
0.0000000001
 43
0.0000000001
 40
0.0
 40
0.0
 40
0.0
 40
0.0
 40
0.032258064516129
 40
0.032258064516129
 40
0.032258064516129
 40
0.032258064516129
 40
0.0645161290322581
 40
0.0645161290322581
 40
0.0645161290322581
 40
0.0645161290322581
 40
0.0967741935483871
 40
0.0967741935483871
 40
0.0967741935483871
 40
0.0967741935483871
 40
0.1290322580645161
 40
0.1290322580645161
 40
0.1290322580645161
 40
0.1290322580645161
 40
0.1612903225806452
 40
0.1612903225806452
 40
0.1612903225806452
 40
0.1612903225806452
 40
0.1935483870967742
 40
0.1935483870967742
 40
0.1935483870967742
 40
0.1935483870967742
 40
0.2258064516129032
 40
0.2258064516129032
 40
0.2258064516129032
 40
0.2258064516129032
 40
0.2580645161290323
 40
0.2580645161290323
 40
0.2580645161290323
 40
0.2580645161290323
 40
0.2903225806451613
 40
0.2903225806451613
 40
0.2903225806451613
 40
0.2903225806451613
 40
0.3225806451612903
 40
0.3225806451612903
 40
0.3225806451612903
 40
0.3225806451612903
 40
0.3548387096774194
 40
0.3548387096774194
 40
0.3548387096774194
 40
0.3548387096774194
 40
0.3870967741935484
 40
0.3870967741935484
 40
0.3870967741935484
 40
0.3870967741935484
 40
0.4193548387096774
 40
0.4193548387096774
 40
0.4193548387096774
 40
0.4193548387096774
 40
0.4516129032258064
 40
0.4516129032258064
 40
0.4516129032258064
 40
0.4516129032258064
 40
0.4838709677419355
 40
0.4838709677419355
 40
0.4838709677419355
 40
0.4838709677419355
 40
0.5161290322580645
 40
0.5161290322580645
 40
0.5161290322580645
 40
0.5161290322580645
 40
0.5483870967741935
 40
0.5483870967741935
 40
0.5483870967741935
 40
0.5483870967741935
 40
0.5806451612903226
 40
0.5806451612903226
 40
0.5806451612903226
 40
0.5806451612903226
 40
0.6129032258064516
 40
0.6129032258064516
 40
0.6129032258064516
 40
0.6129032258064516
 40
0.6451612903225806
 40
0.6451612903225806
 40
0.6451612903225806
 40
0.6451612903225806
 40
0.6774193548387096
 40
0.6774193548387096
 40
0.6774193548387096
 40
0.6774193548387096
 40
0.7096774193548387
 40
0.7096774193548387
 40
0.7096774193548387
 40
0.7096774193548387
 40
0.7419354838709677
 40
0.7419354838709677
 40
0.7419354838709677
 40
0.7419354838709677
 40
0.7741935483870968
 40
0.7741935483870968
 40
0.7741935483870968
 40
0.7741935483870968
 40
0.8064516129032258
 40
0.8064516129032258
 40
0.8064516129032258
 40
0.8064516129032258
 40
0.8387096774193549
 40
0.8387096774193549
 40
0.8387096774193549
 40
0.8387096774193549
 40
0.8709677419354839
 40
0.8709677419354839
 40
0.8709677419354839
 40
0.8709677419354839
 40
0.9032258064516129
 40
0.9032258064516129
 40
0.9032258064516129
 40
0.9032258064516129
 40
0.9354838709677419
 40
0.9354838709677419
 40
0.9354838709677419
 40
0.9354838709677419
 40
1.0
 40
1.0
 40
1.0
 40
1.0
 10
-23.3144
 20
24.6402
 30
0.0
 10
-23.3144
 20
24.6402
 30
0.0
 10
-23.3473
 20
24.8881
 30
0.0
 10
-23.3473
 20
24.8881
 30
0.0
 10
-23.3473
 20
24.8881
 30
0.0
 10
-23.2067
 20
24.9168
 30
0.0
 10
-23.1056
 20
24.9653
 30
0.0
 10
-23.0435
 20
25.0335
 30
0.0
 10
-23.0435
 20
25.0335
 30
0.0
 10
-22.9814
 20
25.1021
 30
0.0
 10
-22.9503
 20
25.1854
 30
0.0
 10
-22.9503
 20
25.2837
 30
0.0
 10
-22.9503
 20
25.2837
 30
0.0
 10
-22.9503
 20
25.4003
 30
0.0
 10
-22.9908
 20
25.4991
 30
0.0
 10
-23.0717
 20
25.5796
 30
0.0
 10
-23.0717
 20
25.5796
 30
0.0
 10
-23.1526
 20
25.6595
 30
0.0
 10
-23.2528
 20
25.7
 30
0.0
 10
-23.3723
 20
25.7
 30
0.0
 10
-23.3723
 20
25.7
 30
0.0
 10
-23.4861
 20
25.7
 30
0.0
 10
-23.5802
 20
25.6628
 30
0.0
 10
-23.654
 20
25.5885
 30
0.0
 10
-23.654
 20
25.5885
 30
0.0
 10
-23.7278
 20
25.5137
 30
0.0
 10
-23.765
 20
25.4192
 30
0.0
 10
-23.765
 20
25.3044
 30
0.0
 10
-23.765
 20
25.3044
 30
0.0
 10
-23.765
 20
25.2574
 30
0.0
 10
-23.7556
 20
25.199
 30
0.0
 10
-23.7373
 20
25.1294
 30
0.0
 10
-23.7373
 20
25.1294
 30
0.0
 10
-23.7373
 20
25.1294
 30
0.0
 10
-23.955
 20
25.1572
 30
0.0
 10
-23.955
 20
25.1572
 30
0.0
 10
-23.955
 20
25.1572
 30
0.0
 10
-23.9532
 20
25.1736
 30
0.0
 10
-23.9522
 20
25.1868
 30
0.0
 10
-23.9522
 20
25.1971
 30
0.0
 10
-23.9522
 20
25.1971
 30
0.0
 10
-23.9522
 20
25.3025
 30
0.0
 10
-23.98
 20
25.3975
 30
0.0
 10
-24.035
 20
25.4822
 30
0.0
 10
-24.035
 20
25.4822
 30
0.0
 10
-24.09
 20
25.5669
 30
0.0
 10
-24.1752
 20
25.6092
 30
0.0
 10
-24.2899
 20
25.6092
 30
0.0
 10
-24.2899
 20
25.6092
 30
0.0
 10
-24.3807
 20
25.6092
 30
0.0
 10
-24.4564
 20
25.5781
 30
0.0
 10
-24.5157
 20
25.5165
 30
0.0
 10
-24.5157
 20
25.5165
 30
0.0
 10
-24.5754
 20
25.4549
 30
0.0
 10
-24.6056
 20
25.3754
 30
0.0
 10
-24.6056
 20
25.278
 30
0.0
 10
-24.6056
 20
25.278
 30
0.0
 10
-24.6056
 20
25.1816
 30
0.0
 10
-24.575
 20
25.1012
 30
0.0
 10
-24.5148
 20
25.0372
 30
0.0
 10
-24.5148
 20
25.0372
 30
0.0
 10
-24.4541
 20
24.9728
 30
0.0
 10
-24.3628
 20
24.9314
 30
0.0
 10
-24.2415
 20
24.913
 30
0.0
 10
-24.2415
 20
24.913
 30
0.0
 10
-24.2415
 20
24.913
 30
0.0
 10
-24.2857
 20
24.6652
 30
0.0
 10
-24.2857
 20
24.6652
 30
0.0
 10
-24.2857
 20
24.6652
 30
0.0
 10
-24.4522
 20
24.6953
 30
0.0
 10
-24.5811
 20
24.7644
 30
0.0
 10
-24.6723
 20
24.8717
 30
0.0
 10
-24.6723
 20
24.8717
 30
0.0
 10
-24.7636
 20
24.9794
 30
0.0
 10
-24.8097
 20
25.113
 30
0.0
 10
-24.8097
 20
25.2729
 30
0.0
 10
-24.8097
 20
25.2729
 30
0.0
 10
-24.8097
 20
25.3829
 30
0.0
 10
-24.7857
 20
25.4845
 30
0.0
 10
-24.7387
 20
25.5772
 30
0.0
 10
-24.7387
 20
25.5772
 30
0.0
 10
-24.6912
 20
25.6699
 30
0.0
 10
-24.6267
 20
25.7409
 30
0.0
 10
-24.5449
 20
25.7903
 30
0.0
 10
-24.5449
 20
25.7903
 30
0.0
 10
-24.463
 20
25.8392
 30
0.0
 10
-24.3765
 20
25.8641
 30
0.0
 10
-24.2843
 20
25.8641
 30
0.0
 10
-24.2843
 20
25.8641
 30
0.0
 10
-24.1973
 20
25.8641
 30
0.0
 10
-24.1178
 20
25.8406
 30
0.0
 10
-24.0458
 20
25.7936
 30
0.0
 10
-24.0458
 20
25.7936
 30
0.0
 10
-23.9743
 20
25.7465
 30
0.0
 10
-23.9174
 20
25.6774
 30
0.0
 10
-23.8751
 20
25.5857
 30
0.0
 10
-23.8751
 20
25.5857
 30
0.0
 10
-23.8478
 20
25.7051
 30
0.0
 10
-23.7904
 20
25.7978
 30
0.0
 10
-23.7034
 20
25.8641
 30
0.0
 10
-23.7034
 20
25.8641
 30
0.0
 10
-23.6168
 20
25.93
 30
0.0
 10
-23.5082
 20
25.9629
 30
0.0
 10
-23.3779
 20
25.9629
 30
0.0
 10
-23.3779
 20
25.9629
 30
0.0
 10
-23.2015
 20
25.9629
 30
0.0
 10
-23.0519
 20
25.8989
 30
0.0
 10
-22.9292
 20
25.7701
 30
0.0
 10
-22.9292
 20
25.7701
 30
0.0
 10
-22.8064
 20
25.6416
 30
0.0
 10
-22.7453
 20
25.4789
 30
0.0
 10
-22.7453
 20
25.2823
 30
0.0
 10
-22.7453
 20
25.2823
 30
0.0
 10
-22.7453
 20
25.105
 30
0.0
 10
-22.7979
 20
24.9577
 30
0.0
 10
-22.9038
 20
24.8406
 30
0.0
 10
-22.9038
 20
24.8406
 30
0.0
 10
-23.0091
 20
24.7235
 30
0.0
 10
-23.146
 20
24.6567
 30
0.0
 10
-23.3144
 20
24.6402
 30
0.0
  0
SPLINE
  5
BF
330
1F
100
AcDbEntity
  8
AXIS
 62
   250
100
AcDbSpline
210
0.0
220
0.0
230
1.0
 70
    11
 71
     3
 72
    20
 73
    16
 74
     0
 42
0.0000000001
 43
0.0000000001
 40
0.0
 40
0.0
 40
0.0
 40
0.0
 40
0.2
 40
0.2
 40
0.2
 40
0.2
 40
0.4
 40
0.4
 40
0.4
 40
0.4
 40
0.6
 40
0.6
 40
0.6
 40
0.6
 40
1.0
 40
1.0
 40
1.0
 40
1.0
 10
-16.9773
 20
14.3826
 30
0.0
 10
-16.9773
 20
14.3826
 30
0.0
 10
-16.6244
 20
16.8826
 30
0.0
 10
-16.6244
 20
16.8826
 30
0.0
 10
-16.6244
 20
16.8826
 30
0.0
 10
-16.6244
 20
16.8826
 30
0.0
 10
-16.5461
 20
16.8826
 30
0.0
 10
-16.5461
 20
16.8826
 30
0.0
 10
-16.5461
 20
16.8826
 30
0.0
 10
-16.5461
 20
16.8826
 30
0.0
 10
-16.1698
 20
14.3826
 30
0.0
 10
-16.1698
 20
14.3826
 30
0.0
 10
-16.1698
 20
14.3826
 30
0.0
 10
-16.1698
 20
14.3826
 30
0.0
 10
-16.9773
 20
14.3826
 30
0.0
 10
-16.9773
 20
14.3826
 30
0.0
  0
SPLINE
  5
C0
330
1F
100
AcDbEntity
  8
AXIS
 62
   250
100
AcDbSpline
210
0.0
220
0.0
230
1.0
 70
    11
 71
     3
 72
    20
 73
    16
 74
     0
 42
0.0000000001
 43
0.0000000001
 40
0.0
 40
0.0
 40
0.0
 40
0.0
 40
0.2
 40
0.2
 40
0.2
 40
0.2
 40
0.4
 40
0.4
 40
0.4
 40
0.4
 40
0.6
 40
0.6
 40
0.6
 40
0.6
 40
1.0
 40
1.0
 40
1.0
 40
1.0
 10
-22.0845
 20
22.5278
 30
0.0
 10
-22.0845
 20
22.5278
 30
0.0
 10
-21.7316
 20
25.0278
 30
0.0
 10
-21.7316
 20
25.0278
 30
0.0
 10
-21.7316
 20
25.0278
 30
0.0
 10
-21.7316
 20
25.0278
 30
0.0
 10
-21.6533
 20
25.0278
 30
0.0
 10
-21.6533
 20
25.0278
 30
0.0
 10
-21.6533
 20
25.0278
 30
0.0
 10
-21.6533
 20
25.0278
 30
0.0
 10
-21.277
 20
22.5278
 30
0.0
 10
-21.277
 20
22.5278
 30
0.0
 10
-21.277
 20
22.5278
 30
0.0
 10
-21.277
 20
22.5278
 30
0.0
 10
-22.0845
 20
22.5278
 30
0.0
 10
-22.0845
 20
22.5278
 30
0.0
  0
SPLINE
  5
C1
330
1F
100
AcDbEntity
  8
AXIS
 62
   250
100
AcDbSpline
210
0.0
220
0.0
230
1.0
 70
    11
 71
     3
 72
    20
 73
    16
 74
     0
 42
0.0000000001
 43
0.0000000001
 40
0.0
 40
0.0
 40
0.0
 40
0.0
 40
0.2
 40
0.2
 40
0.2
 40
0.2
 40
0.4
 40
0.4
 40
0.4
 40
0.4
 40
0.6
 40
0.6
 40
0.6
 40
0.6
 40
1.0
 40
1.0
 40
1.0
 40
1.0
 10
-16.2126
 20
8.1544
 30
0.0
 10
-16.2126
 20
8.1544
 30
0.0
 10
-16.5655
 20
5.6544
 30
0.0
 10
-16.5655
 20
5.6544
 30
0.0
 10
-16.5655
 20
5.6544
 30
0.0
 10
-16.5655
 20
5.6544
 30
0.0
 10
-16.6438
 20
5.6544
 30
0.0
 10
-16.6438
 20
5.6544
 30
0.0
 10
-16.6438
 20
5.6544
 30
0.0
 10
-16.6438
 20
5.6544
 30
0.0
 10
-17.0201
 20
8.1544
 30
0.0
 10
-17.0201
 20
8.1544
 30
0.0
 10
-17.0201
 20
8.1544
 30
0.0
 10
-17.0201
 20
8.1544
 30
0.0
 10
-16.2126
 20
8.1544
 30
0.0
 10
-16.2126
 20
8.1544
 30
0.0
  0
SPLINE
  5
C2
330
1F
100
AcDbEntity
  8
AXIS
 62
   250
100
AcDbSpline
210
0.0
220
0.0
230
1.0
 70
    11
 71
     3
 72
    20
 73
    16
 74
     0
 42
0.0000000001
 43
0.0000000001
 40
0.0
 40
0.0
 40
0.0
 40
0.0
 40
0.2
 40
0.2
 40
0.2
 40
0.2
 40
0.4
 40
0.4
 40
0.4
 40
0.4
 40
0.6
 40
0.6
 40
0.6
 40
0.6
 40
1.0
 40
1.0
 40
1.0
 40
1.0
 10
-21.2999
 20
8.1604
 30
0.0
 10
-21.2999
 20
8.1604
 30
0.0
 10
-21.6528
 20
5.6604
 30
0.0
 10
-21.6528
 20
5.6604
 30
0.0
 10
-21.6528
 20
5.6604
 30
0.0
 10
-21.6528
 20
5.6604
 30
0.0
 10
-21.7311
 20
5.6604
 30
0.0
 10
-21.7311
 20
5.6604
 30
0.0
 10
-21.7311
 20
5.6604
 30
0.0
 10
-21.7311
 20
5.6604
 30
0.0
 10
-22.1074
 20
8.1604
 30
0.0
 10
-22.1074
 20
8.1604
 30
0.0
 10
-22.1074
 20
8.1604
 30
0.0
 10
-22.1074
 20
8.1604
 30
0.0
 10
-21.2999
 20
8.1604
 30
0.0
 10
-21.2999
 20
8.1604
 30
0.0
  0
SPLINE
  5
C3
330
1F
100
AcDbEntity
  8
AXIS
 62
   250
100
AcDbSpline
210
0.0
220
0.0
230
1.0
 70
    11
 71
     3
 72
    84
 73
    80
 74
     0
 42
0.0000000001
 43
0.0000000001
 40
0.0
 40
0.0
 40
0.0
 40
0.0
 40
0.0476190476190476
 40
0.0476190476190476
 40
0.0476190476190476
 40
0.0476190476190476
 40
0.0952380952380952
 40
0.0952380952380952
 40
0.0952380952380952
 40
0.0952380952380952
 40
0.1428571428571428
 40
0.1428571428571428
 40
0.1428571428571428
 40
0.1428571428571428
 40
0.1904761904761905
 40
0.1904761904761905
 40
0.1904761904761905
 40
0.1904761904761905
 40
0.2380952380952381
 40
0.2380952380952381
 40
0.2380952380952381
 40
0.2380952380952381
 40
0.2857142857142857
 40
0.2857142857142857
 40
0.2857142857142857
 40
0.2857142857142857
 40
0.3333333333333333
 40
0.3333333333333333
 40
0.3333333333333333
 40
0.3333333333333333
 40
0.3809523809523809
 40
0.3809523809523809
 40
0.3809523809523809
 40
0.3809523809523809
 40
0.4285714285714285
 40
0.4285714285714285
 40
0.4285714285714285
 40
0.4285714285714285
 40
0.4761904761904762
 40
0.4761904761904762
 40
0.4761904761904762
 40
0.4761904761904762
 40
0.5238095238095238
 40
0.5238095238095238
 40
0.5238095238095238
 40
0.5238095238095238
 40
0.5714285714285714
 40
0.5714285714285714
 40
0.5714285714285714
 40
0.5714285714285714
 40
0.6190476190476191
 40
0.6190476190476191
 40
0.6190476190476191
 40
0.6190476190476191
 40
0.6666666666666666
 40
0.6666666666666666
 40
0.6666666666666666
 40
0.6666666666666666
 40
0.7142857142857143
 40
0.7142857142857143
 40
0.7142857142857143
 40
0.7142857142857143
 40
0.7619047619047619
 40
0.7619047619047619
 40
0.7619047619047619
 40
0.7619047619047619
 40
0.8095238095238095
 40
0.8095238095238095
 40
0.8095238095238095
 40
0.8095238095238095
 40
0.8571428571428571
 40
0.8571428571428571
 40
0.8571428571428571
 40
0.8571428571428571
 40
0.9047619047619048
 40
0.9047619047619048
 40
0.9047619047619048
 40
0.9047619047619048
 40
1.0
 40
1.0
 40
1.0
 40
1.0
 10
-2.2946
 20
29.1555
 30
0.0
 10
-2.2946
 20
29.1555
 30
0.0
 10
-2.0632
 20
29.4146
 30
0.0
 10
-2.0632
 20
29.4146
 30
0.0
 10
-2.0632
 20
29.4146
 30
0.0
 10
-2.0632
 20
29.4146
 30
0.0
 10
-1.9268
 20
29.2989
 30
0.0
 10
-1.9268
 20
29.2989
 30
0.0
 10
-1.9268
 20
29.2989
 30
0.0
 10
-1.9268
 20
29.2989
 30
0.0
 10
-2.169
 20
29.0261
 30
0.0
 10
-2.169
 20
29.0261
 30
0.0
 10
-2.169
 20
29.0261
 30
0.0
 10
-2.09
 20
28.9085
 30
0.0
 10
-2.0369
 20
28.8055
 30
0.0
 10
-2.0091
 20
28.7176
 30
0.0
 10
-2.0091
 20
28.7176
 30
0.0
 10
-1.9724
 20
28.6018
 30
0.0
 10
-1.9541
 20
28.472
 30
0.0
 10
-1.9541
 20
28.329
 30
0.0
 10
-1.9541
 20
28.329
 30
0.0
 10
-1.9541
 20
28.1221
 30
0.0
 10
-1.9959
 20
27.9377
 30
0.0
 10
-2.0797
 20
27.7764
 30
0.0
 10
-2.0797
 20
27.7764
 30
0.0
 10
-2.1634
 20
27.6145
 30
0.0
 10
-2.2805
 20
27.4923
 30
0.0
 10
-2.4315
 20
27.4095
 30
0.0
 10
-2.4315
 20
27.4095
 30
0.0
 10
-2.583
 20
27.3272
 30
0.0
 10
-2.7433
 20
27.2858
 30
0.0
 10
-2.9131
 20
27.2858
 30
0.0
 10
-2.9131
 20
27.2858
 30
0.0
 10
-3.0401
 20
27.2858
 30
0.0
 10
-3.1549
 20
27.3036
 30
0.0
 10
-3.2579
 20
27.3394
 30
0.0
 10
-3.2579
 20
27.3394
 30
0.0
 10
-3.3369
 20
27.3671
 30
0.0
 10
-3.4291
 20
27.4198
 30
0.0
 10
-3.535
 20
27.4979
 30
0.0
 10
-3.535
 20
27.4979
 30
0.0
 10
-3.535
 20
27.4979
 30
0.0
 10
-3.7664
 20
27.2387
 30
0.0
 10
-3.7664
 20
27.2387
 30
0.0
 10
-3.7664
 20
27.2387
 30
0.0
 10
-3.7664
 20
27.2387
 30
0.0
 10
-3.9028
 20
27.3544
 30
0.0
 10
-3.9028
 20
27.3544
 30
0.0
 10
-3.9028
 20
27.3544
 30
0.0
 10
-3.9028
 20
27.3544
 30
0.0
 10
-3.6601
 20
27.6258
 30
0.0
 10
-3.6601
 20
27.6258
 30
0.0
 10
-3.6601
 20
27.6258
 30
0.0
 10
-3.7504
 20
27.7627
 30
0.0
 10
-3.8106
 20
27.8798
 30
0.0
 10
-3.8407
 20
27.9767
 30
0.0
 10
-3.8407
 20
27.9767
 30
0.0
 10
-3.8708
 20
28.0736
 30
0.0
 10
-3.8863
 20
28.1903
 30
0.0
 10
-3.8863
 20
28.3262
 30
0.0
 10
-3.8863
 20
28.3262
 30
0.0
 10
-3.8863
 20
28.5336
 30
0.0
 10
-3.8449
 20
28.7185
 30
0.0
 10
-3.7622
 20
28.8808
 30
0.0
 10
-3.7622
 20
28.8808
 30
0.0
 10
-3.6794
 20
29.0431
 30
0.0
 10
-3.5637
 20
29.1658
 30
0.0
 10
-3.4141
 20
29.2495
 30
0.0
 10
-3.4141
 20
29.2495
 30
0.0
 10
-3.265
 20
29.3328
 30
0.0
 10
-3.0989
 20
29.3747
 30
0.0
 10
-2.916
 20
29.3747
 30
0.0
 10
-2.916
 20
29.3747
 30
0.0
 10
-2.7927
 20
29.3747
 30
0.0
 10
-2.685
 20
29.3587
 30
0.0
 10
-2.5928
 20
29.3257
 30
0.0
 10
-2.5928
 20
29.3257
 30
0.0
 10
-2.5006
 20
29.2933
 30
0.0
 10
-2.4009
 20
29.2364
 30
0.0
 10
-2.2946
 20
29.1555
 30
0.0
  0
SPLINE
  5
C4
330
1F
100
AcDbEntity
  8
AXIS
 62
   250
100
AcDbSpline
210
0.0
220
0.0
230
1.0
 70
    11
 71
     3
 72
    32
 73
    28
 74
     0
 42
0.0000000001
 43
0.0000000001
 40
0.0
 40
0.0
 40
0.0
 40
0.0
 40
0.125
 40
0.125
 40
0.125
 40
0.125
 40
0.25
 40
0.25
 40
0.25
 40
0.25
 40
0.375
 40
0.375
 40
0.375
 40
0.375
 40
0.5
 40
0.5
 40
0.5
 40
0.5
 40
0.625
 40
0.625
 40
0.625
 40
0.625
 40
0.75
 40
0.75
 40
0.75
 40
0.75
 40
1.0
 40
1.0
 40
1.0
 40
1.0
 10
-2.4597
 20
28.9697
 30
0.0
 10
-2.5463
 20
29.0374
 30
0.0
 10
-2.622
 20
29.084
 30
0.0
 10
-2.6864
 20
29.1089
 30
0.0
 10
-2.6864
 20
29.1089
 30
0.0
 10
-2.7513
 20
29.1334
 30
0.0
 10
-2.8275
 20
29.1461
 30
0.0
 10
-2.9146
 20
29.1461
 30
0.0
 10
-2.9146
 20
29.1461
 30
0.0
 10
-3.1159
 20
29.1461
 30
0.0
 10
-3.2819
 20
29.0779
 30
0.0
 10
-3.4136
 20
28.9415
 30
0.0
 10
-3.4136
 20
28.9415
 30
0.0
 10
-3.5449
 20
28.805
 30
0.0
 10
-3.6107
 20
28.6014
 30
0.0
 10
-3.6107
 20
28.33
 30
0.0
 10
-3.6107
 20
28.33
 30
0.0
 10
-3.6107
 20
28.2237
 30
0.0
 10
-3.6004
 20
28.1291
 30
0.0
 10
-3.5801
 20
28.0463
 30
0.0
 10
-3.5801
 20
28.0463
 30
0.0
 10
-3.5655
 20
27.9847
 30
0.0
 10
-3.535
 20
27.909
 30
0.0
 10
-3.4879
 20
27.8192
 30
0.0
 10
-3.4879
 20
27.8192
 30
0.0
 10
-3.4879
 20
27.8192
 30
0.0
 10
-2.4597
 20
28.9697
 30
0.0
 10
-2.4597
 20
28.9697
 30
0.0
  0
SPLINE
  5
C5
330
1F
100
AcDbEntity
  8
AXIS
 62
   250
100
AcDbSpline
210
0.0
220
0.0
230
1.0
 70
    11
 71
     3
 72
    28
 73
    24
 74
     0
 42
0.0000000001
 43
0.0000000001
 40
0.0
 40
0.0
 40
0.0
 40
0.0
 40
0.1428571428571428
 40
0.1428571428571428
 40
0.1428571428571428
 40
0.1428571428571428
 40
0.2857142857142857
 40
0.2857142857142857
 40
0.2857142857142857
 40
0.2857142857142857
 40
0.4285714285714285
 40
0.4285714285714285
 40
0.4285714285714285
 40
0.4285714285714285
 40
0.5714285714285714
 40
0.5714285714285714
 40
0.5714285714285714
 40
0.5714285714285714
 40
0.7142857142857143
 40
0.7142857142857143
 40
0.7142857142857143
 40
0.7142857142857143
 40
1.0
 40
1.0
 40
1.0
 40
1.0
 10
-2.3468
 20
28.8276
 30
0.0
 10
-2.3468
 20
28.8276
 30
0.0
 10
-3.3708
 20
27.6813
 30
0.0
 10
-3.3708
 20
27.6813
 30
0.0
 10
-3.3708
 20
27.6813
 30
0.0
 10
-3.3003
 20
27.6235
 30
0.0
 10
-3.2349
 20
27.583
 30
0.0
 10
-3.1751
 20
27.56
 30
0.0
 10
-3.1751
 20
27.56
 30
0.0
 10
-3.0971
 20
27.5294
 30
0.0
 10
-3.0124
 20
27.5144
 30
0.0
 10
-2.9216
 20
27.5144
 30
0.0
 10
-2.9216
 20
27.5144
 30
0.0
 10
-2.7212
 20
27.5144
 30
0.0
 10
-2.5561
 20
27.5849
 30
0.0
 10
-2.4254
 20
27.7265
 30
0.0
 10
-2.4254
 20
27.7265
 30
0.0
 10
-2.2951
 20
27.8681
 30
0.0
 10
-2.2297
 20
28.0666
 30
0.0
 10
-2.2297
 20
28.322
 30
0.0
 10
-2.2297
 20
28.322
 30
0.0
 10
-2.2297
 20
28.5129
 30
0.0
 10
-2.2687
 20
28.6818
 30
0.0
 10
-2.3468
 20
28.8276
 30
0.0
  0
SPLINE
  5
C6
330
1F
100
AcDbEntity
  8
AXIS
 62
   250
100
AcDbSpline
210
0.0
220
0.0
230
1.0
 70
    11
 71
     3
 72
    40
 73
    36
 74
     0
 42
0.0000000001
 43
0.0000000001
 40
0.0
 40
0.0
 40
0.0
 40
0.0
 40
0.1
 40
0.1
 40
0.1
 40
0.1
 40
0.2
 40
0.2
 40
0.2
 40
0.2
 40
0.3
 40
0.3
 40
0.3
 40
0.3
 40
0.4
 40
0.4
 40
0.4
 40
0.4
 40
0.5
 40
0.5
 40
0.5
 40
0.5
 40
0.6
 40
0.6
 40
0.6
 40
0.6
 40
0.7
 40
0.7
 40
0.7
 40
0.7
 40
0.8
 40
0.8
 40
0.8
 40
0.8
 40
1.0
 40
1.0
 40
1.0
 40
1.0
 10
-0.7706
 20
27.3201
 30
0.0
 10
-0.7706
 20
27.3201
 30
0.0
 10
-1.0185
 20
27.3201
 30
0.0
 10
-1.0185
 20
27.3201
 30
0.0
 10
-1.0185
 20
27.3201
 30
0.0
 10
-1.0185
 20
27.3201
 30
0.0
 10
-1.0185
 20
28.9005
 30
0.0
 10
-1.0185
 20
28.9005
 30
0.0
 10
-1.0185
 20
28.9005
 30
0.0
 10
-1.0783
 20
28.8436
 30
0.0
 10
-1.1563
 20
28.7867
 30
0.0
 10
-1.2532
 20
28.7298
 30
0.0
 10
-1.2532
 20
28.7298
 30
0.0
 10
-1.3506
 20
28.6729
 30
0.0
 10
-1.4376
 20
28.6301
 30
0.0
 10
-1.5148
 20
28.6018
 30
0.0
 10
-1.5148
 20
28.6018
 30
0.0
 10
-1.5148
 20
28.6018
 30
0.0
 10
-1.5148
 20
28.8413
 30
0.0
 10
-1.5148
 20
28.8413
 30
0.0
 10
-1.5148
 20
28.8413
 30
0.0
 10
-1.376
 20
28.9066
 30
0.0
 10
-1.2546
 20
28.9857
 30
0.0
 10
-1.1507
 20
29.0783
 30
0.0
 10
-1.1507
 20
29.0783
 30
0.0
 10
-1.0472
 20
29.1715
 30
0.0
 10
-0.9734
 20
29.2613
 30
0.0
 10
-0.9301
 20
29.3488
 30
0.0
 10
-0.9301
 20
29.3488
 30
0.0
 10
-0.9301
 20
29.3488
 30
0.0
 10
-0.7706
 20
29.3488
 30
0.0
 10
-0.7706
 20
29.3488
 30
0.0
 10
-0.7706
 20
29.3488
 30
0.0
 10
-0.7706
 20
29.3488
 30
0.0
 10
-0.7706
 20
27.3201
 30
0.0
 10
-0.7706
 20
27.3201
 30
0.0
  0
SPLINE
  5
C7
330
1F
100
AcDbEntity
  8
AXIS
 62
   250
100
AcDbSpline
210
0.0
220
0.0
230
1.0
 70
    11
 71
     3
 72
    92
 73
    88
 74
     0
 42
0.0000000001
 43
0.0000000001
 40
0.0
 40
0.0
 40
0.0
 40
0.0
 40
0.0434782608695652
 40
0.0434782608695652
 40
0.0434782608695652
 40
0.0434782608695652
 40
0.0869565217391304
 40
0.0869565217391304
 40
0.0869565217391304
 40
0.0869565217391304
 40
0.1304347826086956
 40
0.1304347826086956
 40
0.1304347826086956
 40
0.1304347826086956
 40
0.1739130434782609
 40
0.1739130434782609
 40
0.1739130434782609
 40
0.1739130434782609
 40
0.2173913043478261
 40
0.2173913043478261
 40
0.2173913043478261
 40
0.2173913043478261
 40
0.2608695652173913
 40
0.2608695652173913
 40
0.2608695652173913
 40
0.2608695652173913
 40
0.3043478260869565
 40
0.3043478260869565
 40
0.3043478260869565
 40
0.3043478260869565
 40
0.3478260869565217
 40
0.3478260869565217
 40
0.3478260869565217
 40
0.3478260869565217
 40
0.391304347826087
 40
0.391304347826087
 40
0.391304347826087
 40
0.391304347826087
 40
0.4347826086956522
 40
0.4347826086956522
 40
0.4347826086956522
 40
0.4347826086956522
 40
0.4782608695652174
 40
0.4782608695652174
 40
0.4782608695652174
 40
0.4782608695652174
 40
0.5217391304347826
 40
0.5217391304347826
 40
0.5217391304347826
 40
0.5217391304347826
 40
0.5652173913043478
 40
0.5652173913043478
 40
0.5652173913043478
 40
0.5652173913043478
 40
0.6086956521739131
 40
0.6086956521739131
 40
0.6086956521739131
 40
0.6086956521739131
 40
0.6521739130434783
 40
0.6521739130434783
 40
0.6521739130434783
 40
0.6521739130434783
 40
0.6956521739130435
 40
0.6956521739130435
 40
0.6956521739130435
 40
0.6956521739130435
 40
0.7391304347826086
 40
0.7391304347826086
 40
0.7391304347826086
 40
0.7391304347826086
 40
0.782608695652174
 40
0.782608695652174
 40
0.782608695652174
 40
0.782608695652174
 40
0.8260869565217391
 40
0.8260869565217391
 40
0.8260869565217391
 40
0.8260869565217391
 40
0.8695652173913043
 40
0.8695652173913043
 40
0.8695652173913043
 40
0.8695652173913043
 40
0.9130434782608695
 40
0.9130434782608695
 40
0.9130434782608695
 40
0.9130434782608695
 40
1.0
 40
1.0
 40
1.0
 40
1.0
 10
-0.1352
 20
27.8493
 30
0.0
 10
-0.1352
 20
27.8493
 30
0.0
 10
0.1254
 20
27.8714
 30
0.0
 10
0.1254
 20
27.8714
 30
0.0
 10
0.1254
 20
27.8714
 30
0.0
 10
0.1447
 20
27.7444
 30
0.0
 10
0.1894
 20
27.6494
 30
0.0
 10
0.2595
 20
27.5854
 30
0.0
 10
0.2595
 20
27.5854
 30
0.0
 10
0.33
 20
27.5214
 30
0.0
 10
0.4147
 20
27.4894
 30
0.0
 10
0.5139
 20
27.4894
 30
0.0
 10
0.5139
 20
27.4894
 30
0.0
 10
0.6334
 20
27.4894
 30
0.0
 10
0.7345
 20
27.5346
 30
0.0
 10
0.8168
 20
27.6244
 30
0.0
 10
0.8168
 20
27.6244
 30
0.0
 10
0.8996
 20
27.7147
 30
0.0
 10
0.941
 20
27.8342
 30
0.0
 10
0.941
 20
27.9828
 30
0.0
 10
0.941
 20
27.9828
 30
0.0
 10
0.941
 20
28.1244
 30
0.0
 10
0.9015
 20
28.2359
 30
0.0
 10
0.822
 20
28.3177
 30
0.0
 10
0.822
 20
28.3177
 30
0.0
 10
0.7425
 20
28.3996
 30
0.0
 10
0.6386
 20
28.4405
 30
0.0
 10
0.5097
 20
28.4405
 30
0.0
 10
0.5097
 20
28.4405
 30
0.0
 10
0.4297
 20
28.4405
 30
0.0
 10
0.3578
 20
28.4222
 30
0.0
 10
0.2933
 20
28.386
 30
0.0
 10
0.2933
 20
28.386
 30
0.0
 10
0.2289
 20
28.3497
 30
0.0
 10
0.1786
 20
28.3027
 30
0.0
 10
0.1419
 20
28.2448
 30
0.0
 10
0.1419
 20
28.2448
 30
0.0
 10
0.1419
 20
28.2448
 30
0.0
 10
-0.091
 20
28.2749
 30
0.0
 10
-0.091
 20
28.2749
 30
0.0
 10
-0.091
 20
28.2749
 30
0.0
 10
-0.091
 20
28.2749
 30
0.0
 10
0.1047
 20
29.3126
 30
0.0
 10
0.1047
 20
29.3126
 30
0.0
 10
0.1047
 20
29.3126
 30
0.0
 10
0.1047
 20
29.3126
 30
0.0
 10
1.1094
 20
29.3126
 30
0.0
 10
1.1094
 20
29.3126
 30
0.0
 10
1.1094
 20
29.3126
 30
0.0
 10
1.1094
 20
29.3126
 30
0.0
 10
1.1094
 20
29.0755
 30
0.0
 10
1.1094
 20
29.0755
 30
0.0
 10
1.1094
 20
29.0755
 30
0.0
 10
1.1094
 20
29.0755
 30
0.0
 10
0.3032
 20
29.0755
 30
0.0
 10
0.3032
 20
29.0755
 30
0.0
 10
0.3032
 20
29.0755
 30
0.0
 10
0.3032
 20
29.0755
 30
0.0
 10
0.1941
 20
28.5327
 30
0.0
 10
0.1941
 20
28.5327
 30
0.0
 10
0.1941
 20
28.5327
 30
0.0
 10
0.3154
 20
28.6174
 30
0.0
 10
0.4429
 20
28.6597
 30
0.0
 10
0.576
 20
28.6597
 30
0.0
 10
0.576
 20
28.6597
 30
0.0
 10
0.7524
 20
28.6597
 30
0.0
 10
0.901
 20
28.5986
 30
0.0
 10
1.0224
 20
28.4763
 30
0.0
 10
1.0224
 20
28.4763
 30
0.0
 10
1.1437
 20
28.354
 30
0.0
 10
1.2044
 20
28.1969
 30
0.0
 10
1.2044
 20
28.005
 30
0.0
 10
1.2044
 20
28.005
 30
0.0
 10
1.2044
 20
27.822
 30
0.0
 10
1.1508
 20
27.6639
 30
0.0
 10
1.0445
 20
27.5308
 30
0.0
 10
1.0445
 20
27.5308
 30
0.0
 10
0.9147
 20
27.3676
 30
0.0
 10
0.7378
 20
27.2858
 30
0.0
 10
0.5139
 20
27.2858
 30
0.0
 10
0.5139
 20
27.2858
 30
0.0
 10
0.33
 20
27.2858
 30
0.0
 10
0.18
 20
27.337
 30
0.0
 10
0.0638
 20
27.44
 30
0.0
 10
0.0638
 20
27.44
 30
0.0
 10
-0.0524
 20
27.5431
 30
0.0
 10
-0.1187
 20
27.6795
 30
0.0
 10
-0.1352
 20
27.8493
 30
0.0
  0
SPLINE
  5
C8
330
1F
100
AcDbEntity
  8
AXIS
 62
   250
100
AcDbSpline
210
0.0
220
0.0
230
1.0
 70
    11
 71
     3
 72
    52
 73
    48
 74
     0
 42
0.0000000001
 43
0.0000000001
 40
0.0
 40
0.0
 40
0.0
 40
0.0
 40
0.0769230769230769
 40
0.0769230769230769
 40
0.0769230769230769
 40
0.0769230769230769
 40
0.1538461538461539
 40
0.1538461538461539
 40
0.1538461538461539
 40
0.1538461538461539
 40
0.2307692307692308
 40
0.2307692307692308
 40
0.2307692307692308
 40
0.2307692307692308
 40
0.3076923076923077
 40
0.3076923076923077
 40
0.3076923076923077
 40
0.3076923076923077
 40
0.3846153846153846
 40
0.3846153846153846
 40
0.3846153846153846
 40
0.3846153846153846
 40
0.4615384615384616
 40
0.4615384615384616
 40
0.4615384615384616
 40
0.4615384615384616
 40
0.5384615384615384
 40
0.5384615384615384
 40
0.5384615384615384
 40
0.5384615384615384
 40
0.6153846153846154
 40
0.6153846153846154
 40
0.6153846153846154
 40
0.6153846153846154
 40
0.6923076923076923
 40
0.6923076923076923
 40
0.6923076923076923
 40
0.6923076923076923
 40
0.7692307692307693
 40
0.7692307692307693
 40
0.7692307692307693
 40
0.7692307692307693
 40
0.8461538461538461
 40
0.8461538461538461
 40
0.8461538461538461
 40
0.8461538461538461
 40
1.0
 40
1.0
 40
1.0
 40
1.0
 10
1.4344
 20
28.3163
 30
0.0
 10
1.4344
 20
28.5553
 30
0.0
 10
1.4589
 20
28.7477
 30
0.0
 10
1.5083
 20
28.893
 30
0.0
 10
1.5083
 20
28.893
 30
0.0
 10
1.5572
 20
29.0388
 30
0.0
 10
1.6306
 20
29.1512
 30
0.0
 10
1.7275
 20
29.2303
 30
0.0
 10
1.7275
 20
29.2303
 30
0.0
 10
1.8244
 20
29.3093
 30
0.0
 10
1.9462
 20
29.3488
 30
0.0
 10
2.0929
 20
29.3488
 30
0.0
 10
2.0929
 20
29.3488
 30
0.0
 10
2.2016
 20
29.3488
 30
0.0
 10
2.2966
 20
29.3267
 30
0.0
 10
2.3784
 20
29.2829
 30
0.0
 10
2.3784
 20
29.2829
 30
0.0
 10
2.4603
 20
29.2397
 30
0.0
 10
2.5276
 20
29.1766
 30
0.0
 10
2.5812
 20
29.0943
 30
0.0
 10
2.5812
 20
29.0943
 30
0.0
 10
2.6343
 20
29.012
 30
0.0
 10
2.6762
 20
28.9118
 30
0.0
 10
2.7063
 20
28.7938
 30
0.0
 10
2.7063
 20
28.7938
 30
0.0
 10
2.7369
 20
28.6757
 30
0.0
 10
2.7519
 20
28.5167
 30
0.0
 10
2.7519
 20
28.3163
 30
0.0
 10
2.7519
 20
28.3163
 30
0.0
 10
2.7519
 20
28.0793
 30
0.0
 10
2.7275
 20
27.8883
 30
0.0
 10
2.679
 20
27.7425
 30
0.0
 10
2.679
 20
27.7425
 30
0.0
 10
2.6301
 20
27.5967
 30
0.0
 10
2.5572
 20
27.4843
 30
0.0
 10
2.4603
 20
27.4048
 30
0.0
 10
2.4603
 20
27.4048
 30
0.0
 10
2.3634
 20
27.3253
 30
0.0
 10
2.2411
 20
27.2858
 30
0.0
 10
2.0929
 20
27.2858
 30
0.0
 10
2.0929
 20
27.2858
 30
0.0
 10
1.8982
 20
27.2858
 30
0.0
 10
1.7453
 20
27.3554
 30
0.0
 10
1.6343
 20
27.4951
 30
0.0
 10
1.6343
 20
27.4951
 30
0.0
 10
1.5012
 20
27.663
 30
0.0
 10
1.4344
 20
27.9372
 30
0.0
 10
1.4344
 20
28.3163
 30
0.0
  0
SPLINE
  5
C9
330
1F
100
AcDbEntity
  8
AXIS
 62
   250
100
AcDbSpline
210
0.0
220
0.0
230
1.0
 70
    11
 71
     3
 72
    36
 73
    32
 74
     0
 42
0.0000000001
 43
0.0000000001
 40
0.0
 40
0.0
 40
0.0
 40
0.0
 40
0.1111111111111111
 40
0.1111111111111111
 40
0.1111111111111111
 40
0.1111111111111111
 40
0.2222222222222222
 40
0.2222222222222222
 40
0.2222222222222222
 40
0.2222222222222222
 40
0.3333333333333333
 40
0.3333333333333333
 40
0.3333333333333333
 40
0.3333333333333333
 40
0.4444444444444444
 40
0.4444444444444444
 40
0.4444444444444444
 40
0.4444444444444444
 40
0.5555555555555556
 40
0.5555555555555556
 40
0.5555555555555556
 40
0.5555555555555556
 40
0.6666666666666666
 40
0.6666666666666666
 40
0.6666666666666666
 40
0.6666666666666666
 40
0.7777777777777778
 40
0.7777777777777778
 40
0.7777777777777778
 40
0.7777777777777778
 40
1.0
 40
1.0
 40
1.0
 40
1.0
 10
1.6894
 20
28.3163
 30
0.0
 10
1.6894
 20
27.9847
 30
0.0
 10
1.7284
 20
27.7641
 30
0.0
 10
1.806
 20
27.6541
 30
0.0
 10
1.806
 20
27.6541
 30
0.0
 10
1.8836
 20
27.5445
 30
0.0
 10
1.9791
 20
27.4894
 30
0.0
 10
2.0929
 20
27.4894
 30
0.0
 10
2.0929
 20
27.4894
 30
0.0
 10
2.2072
 20
27.4894
 30
0.0
 10
2.3027
 20
27.5449
 30
0.0
 10
2.3803
 20
27.655
 30
0.0
 10
2.3803
 20
27.655
 30
0.0
 10
2.4579
 20
27.7651
 30
0.0
 10
2.497
 20
27.9857
 30
0.0
 10
2.497
 20
28.3163
 30
0.0
 10
2.497
 20
28.3163
 30
0.0
 10
2.497
 20
28.6489
 30
0.0
 10
2.4579
 20
28.87
 30
0.0
 10
2.3803
 20
28.9791
 30
0.0
 10
2.3803
 20
28.9791
 30
0.0
 10
2.3027
 20
29.0887
 30
0.0
 10
2.2063
 20
29.1432
 30
0.0
 10
2.0906
 20
29.1432
 30
0.0
 10
2.0906
 20
29.1432
 30
0.0
 10
1.9763
 20
29.1432
 30
0.0
 10
1.8855
 20
29.0948
 30
0.0
 10
1.8173
 20
28.9984
 30
0.0
 10
1.8173
 20
28.9984
 30
0.0
 10
1.7322
 20
28.8756
 30
0.0
 10
1.6894
 20
28.6479
 30
0.0
 10
1.6894
 20
28.3163
 30
0.0
  0
SPLINE
  5
CA
330
1F
100
AcDbEntity
  8
AXIS
 62
   250
100
AcDbSpline
210
0.0
220
0.0
230
1.0
 70
    11
 71
     3
 72
    20
 73
    16
 74
     0
 42
0.0000000001
 43
0.0000000001
 40
0.0
 40
0.0
 40
0.0
 40
0.0
 40
0.2
 40
0.2
 40
0.2
 40
0.2
 40
0.4
 40
0.4
 40
0.4
 40
0.4
 40
0.6
 40
0.6
 40
0.6
 40
0.6
 40
1.0
 40
1.0
 40
1.0
 40
1.0
 10
9.6566
 20
27.097
 30
0.0
 10
9.6566
 20
27.097
 30
0.0
 10
12.1566
 20
26.7441
 30
0.0
 10
12.1566
 20
26.7441
 30
0.0
 10
12.1566
 20
26.7441
 30
0.0
 10
12.1566
 20
26.7441
 30
0.0
 10
12.1566
 20
26.6658
 30
0.0
 10
12.1566
 20
26.6658
 30
0.0
 10
12.1566
 20
26.6658
 30
0.0
 10
12.1566
 20
26.6658
 30
0.0
 10
9.6566
 20
26.2895
 30
0.0
 10
9.6566
 20
26.2895
 30
0.0
 10
9.6566
 20
26.2895
 30
0.0
 10
9.6566
 20
26.2895
 30
0.0
 10
9.6566
 20
27.097
 30
0.0
 10
9.6566
 20
27.097
 30
0.0
  0
SPLINE
  5
CB
330
1F
100
AcDbEntity
  8
AXIS
 62
   250
100
AcDbSpline
210
0.0
220
0.0
230
1.0
 70
    11
 71
     3
 72
    20
 73
    16
 74
     0
 42
0.0000000001
 43
0.0000000001
 40
0.0
 40
0.0
 40
0.0
 40
0.0
 40
0.2
 40
0.2
 40
0.2
 40
0.2
 40
0.4
 40
0.4
 40
0.4
 40
0.4
 40
0.6
 40
0.6
 40
0.6
 40
0.6
 40
1.0
 40
1.0
 40
1.0
 40
1.0
 10
-10.7271
 20
26.3217
 30
0.0
 10
-10.7271
 20
26.3217
 30
0.0
 10
-13.2271
 20
26.6746
 30
0.0
 10
-13.2271
 20
26.6746
 30
0.0
 10
-13.2271
 20
26.6746
 30
0.0
 10
-13.2271
 20
26.6746
 30
0.0
 10
-13.2271
 20
26.7529
 30
0.0
 10
-13.2271
 20
26.7529
 30
0.0
 10
-13.2271
 20
26.7529
 30
0.0
 10
-13.2271
 20
26.7529
 30
0.0
 10
-10.7271
 20
27.1292
 30
0.0
 10
-10.7271
 20
27.1292
 30
0.0
 10
-10.7271
 20
27.1292
 30
0.0
 10
-10.7271
 20
27.1292
 30
0.0
 10
-10.7271
 20
26.3217
 30
0.0
 10
-10.7271
 20
26.3217
 30
0.0
  0
SPLINE
  5
CC
330
1F
100
AcDbEntity
  8
AXIS
 62
   250
100
AcDbSpline
210
0.0
220
0.0
230
1.0
 70
    11
 71
     3
 72
    84
 73
    80
 74
     0
 42
0.0000000001
 43
0.0000000001
 40
0.0
 40
0.0
 40
0.0
 40
0.0
 40
0.0476190476190476
 40
0.0476190476190476
 40
0.0476190476190476
 40
0.0476190476190476
 40
0.0952380952380952
 40
0.0952380952380952
 40
0.0952380952380952
 40
0.0952380952380952
 40
0.1428571428571428
 40
0.1428571428571428
 40
0.1428571428571428
 40
0.1428571428571428
 40
0.1904761904761905
 40
0.1904761904761905
 40
0.1904761904761905
 40
0.1904761904761905
 40
0.2380952380952381
 40
0.2380952380952381
 40
0.2380952380952381
 40
0.2380952380952381
 40
0.2857142857142857
 40
0.2857142857142857
 40
0.2857142857142857
 40
0.2857142857142857
 40
0.3333333333333333
 40
0.3333333333333333
 40
0.3333333333333333
 40
0.3333333333333333
 40
0.3809523809523809
 40
0.3809523809523809
 40
0.3809523809523809
 40
0.3809523809523809
 40
0.4285714285714285
 40
0.4285714285714285
 40
0.4285714285714285
 40
0.4285714285714285
 40
0.4761904761904762
 40
0.4761904761904762
 40
0.4761904761904762
 40
0.4761904761904762
 40
0.5238095238095238
 40
0.5238095238095238
 40
0.5238095238095238
 40
0.5238095238095238
 40
0.5714285714285714
 40
0.5714285714285714
 40
0.5714285714285714
 40
0.5714285714285714
 40
0.6190476190476191
 40
0.6190476190476191
 40
0.6190476190476191
 40
0.6190476190476191
 40
0.6666666666666666
 40
0.6666666666666666
 40
0.6666666666666666
 40
0.6666666666666666
 40
0.7142857142857143
 40
0.7142857142857143
 40
0.7142857142857143
 40
0.7142857142857143
 40
0.7619047619047619
 40
0.7619047619047619
 40
0.7619047619047619
 40
0.7619047619047619
 40
0.8095238095238095
 40
0.8095238095238095
 40
0.8095238095238095
 40
0.8095238095238095
 40
0.8571428571428571
 40
0.8571428571428571
 40
0.8571428571428571
 40
0.8571428571428571
 40
0.9047619047619048
 40
0.9047619047619048
 40
0.9047619047619048
 40
0.9047619047619048
 40
1.0
 40
1.0
 40
1.0
 40
1.0
 10
21.4107
 20
8.6319
 30
0.0
 10
21.4107
 20
8.6319
 30
0.0
 10
21.1598
 20
8.8722
 30
0.0
 10
21.1598
 20
8.8722
 30
0.0
 10
21.1598
 20
8.8722
 30
0.0
 10
21.1598
 20
8.8722
 30
0.0
 10
21.2802
 20
9.0044
 30
0.0
 10
21.2802
 20
9.0044
 30
0.0
 10
21.2802
 20
9.0044
 30
0.0
 10
21.2802
 20
9.0044
 30
0.0
 10
21.5444
 20
8.7529
 30
0.0
 10
21.5444
 20
8.7529
 30
0.0
 10
21.5444
 20
8.7529
 30
0.0
 10
21.6647
 20
8.8277
 30
0.0
 10
21.7695
 20
8.8772
 30
0.0
 10
21.8583
 20
8.9019
 30
0.0
 10
21.8583
 20
8.9019
 30
0.0
 10
21.9753
 20
8.9345
 30
0.0
 10
22.1057
 20
8.9483
 30
0.0
 10
22.2486
 20
8.9433
 30
0.0
 10
22.2486
 20
8.9433
 30
0.0
 10
22.4554
 20
8.9361
 30
0.0
 10
22.6382
 20
8.8879
 30
0.0
 10
22.7965
 20
8.7985
 30
0.0
 10
22.7965
 20
8.7985
 30
0.0
 10
22.9553
 20
8.7092
 30
0.0
 10
23.0734
 20
8.5879
 30
0.0
 10
23.1509
 20
8.4341
 30
0.0
 10
23.1509
 20
8.4341
 30
0.0
 10
23.2278
 20
8.2798
 30
0.0
 10
23.2636
 20
8.1182
 30
0.0
 10
23.2577
 20
7.9485
 30
0.0
 10
23.2577
 20
7.9485
 30
0.0
 10
23.2532
 20
7.8216
 30
0.0
 10
23.2315
 20
7.7075
 30
0.0
 10
23.1921
 20
7.6058
 30
0.0
 10
23.1921
 20
7.6058
 30
0.0
 10
23.1616
 20
7.5278
 30
0.0
 10
23.1058
 20
7.4375
 30
0.0
 10
23.024
 20
7.3344
 30
0.0
 10
23.024
 20
7.3344
 30
0.0
 10
23.024
 20
7.3344
 30
0.0
 10
23.275
 20
7.0941
 30
0.0
 10
23.275
 20
7.0941
 30
0.0
 10
23.275
 20
7.0941
 30
0.0
 10
23.275
 20
7.0941
 30
0.0
 10
23.1546
 20
6.9618
 30
0.0
 10
23.1546
 20
6.9618
 30
0.0
 10
23.1546
 20
6.9618
 30
0.0
 10
23.1546
 20
6.9618
 30
0.0
 10
22.8918
 20
7.2138
 30
0.0
 10
22.8918
 20
7.2138
 30
0.0
 10
22.8918
 20
7.2138
 30
0.0
 10
22.7518
 20
7.1283
 30
0.0
 10
22.6327
 20
7.0723
 30
0.0
 10
22.5348
 20
7.0456
 30
0.0
 10
22.5348
 20
7.0456
 30
0.0
 10
22.4369
 20
7.0189
 30
0.0
 10
22.3198
 20
7.0074
 30
0.0
 10
22.1839
 20
7.0122
 30
0.0
 10
22.1839
 20
7.0122
 30
0.0
 10
21.9767
 20
7.0194
 30
0.0
 10
21.7933
 20
7.0672
 30
0.0
 10
21.634
 20
7.1556
 30
0.0
 10
21.634
 20
7.1556
 30
0.0
 10
21.4747
 20
7.244
 30
0.0
 10
21.3561
 20
7.3639
 30
0.0
 10
21.2777
 20
7.5163
 30
0.0
 10
21.2777
 20
7.5163
 30
0.0
 10
21.1996
 20
7.6682
 30
0.0
 10
21.1636
 20
7.8357
 30
0.0
 10
21.17
 20
8.0185
 30
0.0
 10
21.17
 20
8.0185
 30
0.0
 10
21.1743
 20
8.1417
 30
0.0
 10
21.194
 20
8.2488
 30
0.0
 10
21.2302
 20
8.3398
 30
0.0
 10
21.2302
 20
8.3398
 30
0.0
 10
21.2658
 20
8.4308
 30
0.0
 10
21.3261
 20
8.5284
 30
0.0
 10
21.4107
 20
8.6319
 30
0.0
  0
SPLINE
  5
CD
330
1F
100
AcDbEntity
  8
AXIS
 62
   250
100
AcDbSpline
210
0.0
220
0.0
230
1.0
 70
    11
 71
     3
 72
    32
 73
    28
 74
     0
 42
0.0000000001
 43
0.0000000001
 40
0.0
 40
0.0
 40
0.0
 40
0.0
 40
0.125
 40
0.125
 40
0.125
 40
0.125
 40
0.25
 40
0.25
 40
0.25
 40
0.25
 40
0.375
 40
0.375
 40
0.375
 40
0.375
 40
0.5
 40
0.5
 40
0.5
 40
0.5
 40
0.625
 40
0.625
 40
0.625
 40
0.625
 40
0.75
 40
0.75
 40
0.75
 40
0.75
 40
1.0
 40
1.0
 40
1.0
 40
1.0
 10
21.5906
 20
8.4604
 30
0.0
 10
21.5199
 20
8.3762
 30
0.0
 10
21.4707
 20
8.3022
 30
0.0
 10
21.4436
 20
8.2387
 30
0.0
 10
21.4436
 20
8.2387
 30
0.0
 10
21.4169
 20
8.1747
 30
0.0
 10
21.4015
 20
8.099
 30
0.0
 10
21.3985
 20
8.0119
 30
0.0
 10
21.3985
 20
8.0119
 30
0.0
 10
21.3914
 20
7.8107
 30
0.0
 10
21.4538
 20
7.6424
 30
0.0
 10
21.5855
 20
7.5061
 30
0.0
 10
21.5855
 20
7.5061
 30
0.0
 10
21.7174
 20
7.3701
 30
0.0
 10
21.9185
 20
7.2972
 30
0.0
 10
22.1898
 20
7.2877
 30
0.0
 10
22.1898
 20
7.2877
 30
0.0
 10
22.296
 20
7.284
 30
0.0
 10
22.3909
 20
7.291
 30
0.0
 10
22.4744
 20
7.3084
 30
0.0
 10
22.4744
 20
7.3084
 30
0.0
 10
22.5364
 20
7.3209
 30
0.0
 10
22.6132
 20
7.3487
 30
0.0
 10
22.7045
 20
7.3926
 30
0.0
 10
22.7045
 20
7.3926
 30
0.0
 10
22.7045
 20
7.3926
 30
0.0
 10
21.5906
 20
8.4604
 30
0.0
 10
21.5906
 20
8.4604
 30
0.0
  0
SPLINE
  5
CE
330
1F
100
AcDbEntity
  8
AXIS
 62
   250
100
AcDbSpline
210
0.0
220
0.0
230
1.0
 70
    11
 71
     3
 72
    28
 73
    24
 74
     0
 42
0.0000000001
 43
0.0000000001
 40
0.0
 40
0.0
 40
0.0
 40
0.0
 40
0.1428571428571428
 40
0.1428571428571428
 40
0.1428571428571428
 40
0.1428571428571428
 40
0.2857142857142857
 40
0.2857142857142857
 40
0.2857142857142857
 40
0.2857142857142857
 40
0.4285714285714285
 40
0.4285714285714285
 40
0.4285714285714285
 40
0.4285714285714285
 40
0.5714285714285714
 40
0.5714285714285714
 40
0.5714285714285714
 40
0.5714285714285714
 40
0.7142857142857143
 40
0.7142857142857143
 40
0.7142857142857143
 40
0.7142857142857143
 40
1.0
 40
1.0
 40
1.0
 40
1.0
 10
21.7366
 20
8.5682
 30
0.0
 10
21.7366
 20
8.5682
 30
0.0
 10
22.8464
 20
7.5049
 30
0.0
 10
22.8464
 20
7.5049
 30
0.0
 10
22.8464
 20
7.5049
 30
0.0
 10
22.9067
 20
7.5733
 30
0.0
 10
22.9494
 20
7.6372
 30
0.0
 10
22.9745
 20
7.6962
 30
0.0
 10
22.9745
 20
7.6962
 30
0.0
 10
23.0078
 20
7.7731
 30
0.0
 10
23.0258
 20
7.8572
 30
0.0
 10
23.0289
 20
7.948
 30
0.0
 10
23.0289
 20
7.948
 30
0.0
 10
23.0359
 20
8.1482
 30
0.0
 10
22.9712
 20
8.3157
 30
0.0
 10
22.8343
 20
8.4513
 30
0.0
 10
22.8343
 20
8.4513
 30
0.0
 10
22.6973
 20
8.5864
 30
0.0
 10
22.5012
 20
8.6587
 30
0.0
 10
22.246
 20
8.6676
 30
0.0
 10
22.246
 20
8.6676
 30
0.0
 10
22.0552
 20
8.6743
 30
0.0
 10
21.885
 20
8.6412
 30
0.0
 10
21.7366
 20
8.5682
 30
0.0
  0
SPLINE
  5
CF
330
1F
100
AcDbEntity
  8
AXIS
 62
   250
100
AcDbSpline
210
0.0
220
0.0
230
1.0
 70
    11
 71
     3
 72
    92
 73
    88
 74
     0
 42
0.0000000001
 43
0.0000000001
 40
0.0
 40
0.0
 40
0.0
 40
0.0
 40
0.0434782608695652
 40
0.0434782608695652
 40
0.0434782608695652
 40
0.0434782608695652
 40
0.0869565217391304
 40
0.0869565217391304
 40
0.0869565217391304
 40
0.0869565217391304
 40
0.1304347826086956
 40
0.1304347826086956
 40
0.1304347826086956
 40
0.1304347826086956
 40
0.1739130434782609
 40
0.1739130434782609
 40
0.1739130434782609
 40
0.1739130434782609
 40
0.2173913043478261
 40
0.2173913043478261
 40
0.2173913043478261
 40
0.2173913043478261
 40
0.2608695652173913
 40
0.2608695652173913
 40
0.2608695652173913
 40
0.2608695652173913
 40
0.3043478260869565
 40
0.3043478260869565
 40
0.3043478260869565
 40
0.3043478260869565
 40
0.3478260869565217
 40
0.3478260869565217
 40
0.3478260869565217
 40
0.3478260869565217
 40
0.391304347826087
 40
0.391304347826087
 40
0.391304347826087
 40
0.391304347826087
 40
0.4347826086956522
 40
0.4347826086956522
 40
0.4347826086956522
 40
0.4347826086956522
 40
0.4782608695652174
 40
0.4782608695652174
 40
0.4782608695652174
 40
0.4782608695652174
 40
0.5217391304347826
 40
0.5217391304347826
 40
0.5217391304347826
 40
0.5217391304347826
 40
0.5652173913043478
 40
0.5652173913043478
 40
0.5652173913043478
 40
0.5652173913043478
 40
0.6086956521739131
 40
0.6086956521739131
 40
0.6086956521739131
 40
0.6086956521739131
 40
0.6521739130434783
 40
0.6521739130434783
 40
0.6521739130434783
 40
0.6521739130434783
 40
0.6956521739130435
 40
0.6956521739130435
 40
0.6956521739130435
 40
0.6956521739130435
 40
0.7391304347826086
 40
0.7391304347826086
 40
0.7391304347826086
 40
0.7391304347826086
 40
0.782608695652174
 40
0.782608695652174
 40
0.782608695652174
 40
0.782608695652174
 40
0.8260869565217391
 40
0.8260869565217391
 40
0.8260869565217391
 40
0.8260869565217391
 40
0.8695652173913043
 40
0.8695652173913043
 40
0.8695652173913043
 40
0.8695652173913043
 40
0.9130434782608695
 40
0.9130434782608695
 40
0.9130434782608695
 40
0.9130434782608695
 40
1.0
 40
1.0
 40
1.0
 40
1.0
 10
22.7367
 20
9.1757
 30
0.0
 10
22.7367
 20
9.1757
 30
0.0
 10
22.7237
 20
9.4369
 30
0.0
 10
22.7237
 20
9.4369
 30
0.0
 10
22.7237
 20
9.4369
 30
0.0
 10
22.8513
 20
9.4518
 30
0.0
 10
22.9478
 20
9.4931
 30
0.0
 10
23.0142
 20
9.561
 30
0.0
 10
23.0142
 20
9.561
 30
0.0
 10
23.0806
 20
9.6292
 30
0.0
 10
23.1156
 20
9.7127
 30
0.0
 10
23.119
 20
9.8119
 30
0.0
 10
23.119
 20
9.8119
 30
0.0
 10
23.1232
 20
9.9313
 30
0.0
 10
23.0816
 20
10.0339
 30
0.0
 10
22.9947
 20
10.1193
 30
0.0
 10
22.9947
 20
10.1193
 30
0.0
 10
22.9073
 20
10.2052
 30
0.0
 10
22.7893
 20
10.2507
 30
0.0
 10
22.6408
 20
10.2559
 30
0.0
 10
22.6408
 20
10.2559
 30
0.0
 10
22.4993
 20
10.2609
 30
0.0
 10
22.3865
 20
10.2253
 30
0.0
 10
22.302
 20
10.1487
 30
0.0
 10
22.302
 20
10.1487
 30
0.0
 10
22.2174
 20
10.0721
 30
0.0
 10
22.1729
 20
9.9697
 30
0.0
 10
22.1684
 20
9.8409
 30
0.0
 10
22.1684
 20
9.8409
 30
0.0
 10
22.1656
 20
9.7609
 30
0.0
 10
22.1813
 20
9.6884
 30
0.0
 10
22.2153
 20
9.6227
 30
0.0
 10
22.2153
 20
9.6227
 30
0.0
 10
22.2493
 20
9.5571
 30
0.0
 10
22.2945
 20
9.5051
 30
0.0
 10
22.3511
 20
9.4664
 30
0.0
 10
22.3511
 20
9.4664
 30
0.0
 10
22.3511
 20
9.4664
 30
0.0
 10
22.3129
 20
9.2347
 30
0.0
 10
22.3129
 20
9.2347
 30
0.0
 10
22.3129
 20
9.2347
 30
0.0
 10
22.3129
 20
9.2347
 30
0.0
 10
21.2827
 20
9.4665
 30
0.0
 10
21.2827
 20
9.4665
 30
0.0
 10
21.2827
 20
9.4665
 30
0.0
 10
21.2827
 20
9.4665
 30
0.0
 10
21.3177
 20
10.4706
 30
0.0
 10
21.3177
 20
10.4706
 30
0.0
 10
21.3177
 20
10.4706
 30
0.0
 10
21.3177
 20
10.4706
 30
0.0
 10
21.5547
 20
10.4623
 30
0.0
 10
21.5547
 20
10.4623
 30
0.0
 10
21.5547
 20
10.4623
 30
0.0
 10
21.5547
 20
10.4623
 30
0.0
 10
21.5265
 20
9.6566
 30
0.0
 10
21.5265
 20
9.6566
 30
0.0
 10
21.5265
 20
9.6566
 30
0.0
 10
21.5265
 20
9.6566
 30
0.0
 10
22.0652
 20
9.5287
 30
0.0
 10
22.0652
 20
9.5287
 30
0.0
 10
22.0652
 20
9.5287
 30
0.0
 10
21.9848
 20
9.6528
 30
0.0
 10
21.947
 20
9.7817
 30
0.0
 10
21.9516
 20
9.9148
 30
0.0
 10
21.9516
 20
9.9148
 30
0.0
 10
21.9578
 20
10.0911
 30
0.0
 10
22.024
 20
10.2374
 30
0.0
 10
22.1505
 20
10.3545
 30
0.0
 10
22.1505
 20
10.3545
 30
0.0
 10
22.2769
 20
10.4714
 30
0.0
 10
22.4361
 20
10.5266
 30
0.0
 10
22.6278
 20
10.5199
 30
0.0
 10
22.6278
 20
10.5199
 30
0.0
 10
22.8107
 20
10.5135
 30
0.0
 10
22.9669
 20
10.4545
 30
0.0
 10
23.0962
 20
10.3436
 30
0.0
 10
23.0962
 20
10.3436
 30
0.0
 10
23.2547
 20
10.2082
 30
0.0
 10
23.3303
 20
10.0285
 30
0.0
 10
23.3225
 20
9.8048
 30
0.0
 10
23.3225
 20
9.8048
 30
0.0
 10
23.3161
 20
9.621
 30
0.0
 10
23.2597
 20
9.4728
 30
0.0
 10
23.1527
 20
9.3603
 30
0.0
 10
23.1527
 20
9.3603
 30
0.0
 10
23.0456
 20
9.2478
 30
0.0
 10
22.907
 20
9.1863
 30
0.0
 10
22.7367
 20
9.1757
 30
0.0
  0
SPLINE
  5
D0
330
1F
100
AcDbEntity
  8
AXIS
 62
   250
100
AcDbSpline
210
0.0
220
0.0
230
1.0
 70
    11
 71
     3
 72
    52
 73
    48
 74
     0
 42
0.0000000001
 43
0.0000000001
 40
0.0
 40
0.0
 40
0.0
 40
0.0
 40
0.0769230769230769
 40
0.0769230769230769
 40
0.0769230769230769
 40
0.0769230769230769
 40
0.1538461538461539
 40
0.1538461538461539
 40
0.1538461538461539
 40
0.1538461538461539
 40
0.2307692307692308
 40
0.2307692307692308
 40
0.2307692307692308
 40
0.2307692307692308
 40
0.3076923076923077
 40
0.3076923076923077
 40
0.3076923076923077
 40
0.3076923076923077
 40
0.3846153846153846
 40
0.3846153846153846
 40
0.3846153846153846
 40
0.3846153846153846
 40
0.4615384615384616
 40
0.4615384615384616
 40
0.4615384615384616
 40
0.4615384615384616
 40
0.5384615384615384
 40
0.5384615384615384
 40
0.5384615384615384
 40
0.5384615384615384
 40
0.6153846153846154
 40
0.6153846153846154
 40
0.6153846153846154
 40
0.6153846153846154
 40
0.6923076923076923
 40
0.6923076923076923
 40
0.6923076923076923
 40
0.6923076923076923
 40
0.7692307692307693
 40
0.7692307692307693
 40
0.7692307692307693
 40
0.7692307692307693
 40
0.8461538461538461
 40
0.8461538461538461
 40
0.8461538461538461
 40
0.8461538461538461
 40
1.0
 40
1.0
 40
1.0
 40
1.0
 10
22.3248
 20
10.7607
 30
0.0
 10
22.0859
 20
10.769
 30
0.0
 10
21.8945
 20
10.8002
 30
0.0
 10
21.751
 20
10.8546
 30
0.0
 10
21.751
 20
10.8546
 30
0.0
 10
21.607
 20
10.9086
 30
0.0
 10
21.4972
 20
10.9859
 30
0.0
 10
21.4215
 20
11.0855
 30
0.0
 10
21.4215
 20
11.0855
 30
0.0
 10
21.346
 20
11.1851
 30
0.0
 10
21.3107
 20
11.3082
 30
0.0
 10
21.3159
 20
11.4548
 30
0.0
 10
21.3159
 20
11.4548
 30
0.0
 10
21.3197
 20
11.5634
 30
0.0
 10
21.3451
 20
11.6576
 30
0.0
 10
21.3917
 20
11.7378
 30
0.0
 10
21.3917
 20
11.7378
 30
0.0
 10
21.4377
 20
11.8182
 30
0.0
 10
21.5031
 20
11.8832
 30
0.0
 10
21.5873
 20
11.9339
 30
0.0
 10
21.5873
 20
11.9339
 30
0.0
 10
21.6714
 20
11.9841
 30
0.0
 10
21.773
 20
12.0225
 30
0.0
 10
21.8919
 20
12.0484
 30
0.0
 10
21.8919
 20
12.0484
 30
0.0
 10
22.011
 20
12.0749
 30
0.0
 10
22.1705
 20
12.0843
 30
0.0
 10
22.3707
 20
12.0774
 30
0.0
 10
22.3707
 20
12.0774
 30
0.0
 10
22.6076
 20
12.0691
 30
0.0
 10
22.7976
 20
12.038
 30
0.0
 10
22.9416
 20
11.9845
 30
0.0
 10
22.9416
 20
11.9845
 30
0.0
 10
23.0856
 20
11.9305
 30
0.0
 10
23.1954
 20
11.8537
 30
0.0
 10
23.2715
 20
11.7541
 30
0.0
 10
23.2715
 20
11.7541
 30
0.0
 10
23.3476
 20
11.6545
 30
0.0
 10
23.3828
 20
11.5309
 30
0.0
 10
23.3776
 20
11.3828
 30
0.0
 10
23.3776
 20
11.3828
 30
0.0
 10
23.3708
 20
11.1882
 30
0.0
 10
23.2959
 20
11.0378
 30
0.0
 10
23.1524
 20
10.9318
 30
0.0
 10
23.1524
 20
10.9318
 30
0.0
 10
22.98
 20
10.8046
 30
0.0
 10
22.7036
 20
10.7474
 30
0.0
 10
22.3248
 20
10.7607
 30
0.0
  0
SPLINE
  5
D1
330
1F
100
AcDbEntity
  8
AXIS
 62
   250
100
AcDbSpline
210
0.0
220
0.0
230
1.0
 70
    11
 71
     3
 72
    36
 73
    32
 74
     0
 42
0.0000000001
 43
0.0000000001
 40
0.0
 40
0.0
 40
0.0
 40
0.0
 40
0.1111111111111111
 40
0.1111111111111111
 40
0.1111111111111111
 40
0.1111111111111111
 40
0.2222222222222222
 40
0.2222222222222222
 40
0.2222222222222222
 40
0.2222222222222222
 40
0.3333333333333333
 40
0.3333333333333333
 40
0.3333333333333333
 40
0.3333333333333333
 40
0.4444444444444444
 40
0.4444444444444444
 40
0.4444444444444444
 40
0.4444444444444444
 40
0.5555555555555556
 40
0.5555555555555556
 40
0.5555555555555556
 40
0.5555555555555556
 40
0.6666666666666666
 40
0.6666666666666666
 40
0.6666666666666666
 40
0.6666666666666666
 40
0.7777777777777778
 40
0.7777777777777778
 40
0.7777777777777778
 40
0.7777777777777778
 40
1.0
 40
1.0
 40
1.0
 40
1.0
 10
22.3337
 20
11.0155
 30
0.0
 10
22.6651
 20
11.0039
 30
0.0
 10
22.8869
 20
11.0352
 30
0.0
 10
22.9995
 20
11.1089
 30
0.0
 10
22.9995
 20
11.1089
 30
0.0
 10
23.1118
 20
11.1826
 30
0.0
 10
23.1702
 20
11.2762
 30
0.0
 10
23.1741
 20
11.3899
 30
0.0
 10
23.1741
 20
11.3899
 30
0.0
 10
23.1781
 20
11.5041
 30
0.0
 10
23.126
 20
11.6015
 30
0.0
 10
23.0187
 20
11.6829
 30
0.0
 10
23.0187
 20
11.6829
 30
0.0
 10
22.9113
 20
11.7643
 30
0.0
 10
22.6922
 20
11.8111
 30
0.0
 10
22.3618
 20
11.8226
 30
0.0
 10
22.3618
 20
11.8226
 30
0.0
 10
22.0294
 20
11.8342
 30
0.0
 10
21.8071
 20
11.8029
 30
0.0
 10
21.6954
 20
11.7291
 30
0.0
 10
21.6954
 20
11.7291
 30
0.0
 10
21.5831
 20
11.6554
 30
0.0
 10
21.5253
 20
11.5609
 30
0.0
 10
21.5213
 20
11.4453
 30
0.0
 10
21.5213
 20
11.4453
 30
0.0
 10
21.5173
 20
11.3311
 30
0.0
 10
21.5625
 20
11.2386
 30
0.0
 10
21.6564
 20
11.1671
 30
0.0
 10
21.6564
 20
11.1671
 30
0.0
 10
21.7762
 20
11.0778
 30
0.0
 10
22.0023
 20
11.0271
 30
0.0
 10
22.3337
 20
11.0155
 30
0.0
  0
SPLINE
  5
D2
330
1F
100
AcDbEntity
  8
AXIS
 62
   250
100
AcDbSpline
210
0.0
220
0.0
230
1.0
 70
    11
 71
     3
 72
    20
 73
    16
 74
     0
 42
0.0000000001
 43
0.0000000001
 40
0.0
 40
0.0
 40
0.0
 40
0.0
 40
0.2
 40
0.2
 40
0.2
 40
0.2
 40
0.4
 40
0.4
 40
0.4
 40
0.4
 40
0.6
 40
0.6
 40
0.6
 40
0.6
 40
1.0
 40
1.0
 40
1.0
 40
1.0
 10
23.2405
 20
2.3405
 30
0.0
 10
23.2405
 20
2.3405
 30
0.0
 10
23.6803
 20
4.8267
 30
0.0
 10
23.6803
 20
4.8267
 30
0.0
 10
23.6803
 20
4.8267
 30
0.0
 10
23.6803
 20
4.8267
 30
0.0
 10
23.7586
 20
4.824
 30
0.0
 10
23.7586
 20
4.824
 30
0.0
 10
23.7586
 20
4.824
 30
0.0
 10
23.7586
 20
4.824
 30
0.0
 10
24.0474
 20
2.3124
 30
0.0
 10
24.0474
 20
2.3124
 30
0.0
 10
24.0474
 20
2.3124
 30
0.0
 10
24.0474
 20
2.3124
 30
0.0
 10
23.2405
 20
2.3405
 30
0.0
 10
23.2405
 20
2.3405
 30
0.0
  0
SPLINE
  5
D3
330
1F
100
AcDbEntity
  8
AXIS
 62
   250
100
AcDbSpline
210
0.0
220
0.0
230
1.0
 70
    11
 71
     3
 72
    20
 73
    16
 74
     0
 42
0.0000000001
 43
0.0000000001
 40
0.0
 40
0.0
 40
0.0
 40
0.0
 40
0.2
 40
0.2
 40
0.2
 40
0.2
 40
0.4
 40
0.4
 40
0.4
 40
0.4
 40
0.6
 40
0.6
 40
0.6
 40
0.6
 40
1.0
 40
1.0
 40
1.0
 40
1.0
 10
24.5113
 20
16.1028
 30
0.0
 10
24.5113
 20
16.1028
 30
0.0
 10
24.0715
 20
13.6166
 30
0.0
 10
24.0715
 20
13.6166
 30
0.0
 10
24.0715
 20
13.6166
 30
0.0
 10
24.0715
 20
13.6166
 30
0.0
 10
23.9931
 20
13.6193
 30
0.0
 10
23.9931
 20
13.6193
 30
0.0
 10
23.9931
 20
13.6193
 30
0.0
 10
23.9931
 20
13.6193
 30
0.0
 10
23.7043
 20
16.131
 30
0.0
 10
23.7043
 20
16.131
 30
0.0
 10
23.7043
 20
16.131
 30
0.0
 10
23.7043
 20
16.131
 30
0.0
 10
24.5113
 20
16.1028
 30
0.0
 10
24.5113
 20
16.1028
 30
0.0
  0
SPLINE
  5
D4
330
1F
100
AcDbEntity
  8
AXIS
 62
   250
100
AcDbSpline
210
0.0
220
0.0
230
1.0
 70
     8
 71
     3
 72
   136
 73
   132
 74
     0
 42
0.0000000001
 43
0.0000000001
 40
0.0
 40
0.0
 40
0.0
 40
0.0
 40
0.0294117647058824
 40
0.0294117647058824
 40
0.0294117647058824
 40
0.0294117647058824
 40
0.0588235294117647
 40
0.0588235294117647
 40
0.0588235294117647
 40
0.0588235294117647
 40
0.0882352941176471
 40
0.0882352941176471
 40
0.0882352941176471
 40
0.0882352941176471
 40
0.1176470588235294
 40
0.1176470588235294
 40
0.1176470588235294
 40
0.1176470588235294
 40
0.1470588235294118
 40
0.1470588235294118
 40
0.1470588235294118
 40
0.1470588235294118
 40
0.1764705882352941
 40
0.1764705882352941
 40
0.1764705882352941
 40
0.1764705882352941
 40
0.2058823529411765
 40
0.2058823529411765
 40
0.2058823529411765
 40
0.2058823529411765
 40
0.2352941176470588
 40
0.2352941176470588
 40
0.2352941176470588
 40
0.2352941176470588
 40
0.2647058823529412
 40
0.2647058823529412
 40
0.2647058823529412
 40
0.2647058823529412
 40
0.2941176470588235
 40
0.2941176470588235
 40
0.2941176470588235
 40
0.2941176470588235
 40
0.3235294117647059
 40
0.3235294117647059
 40
0.3235294117647059
 40
0.3235294117647059
 40
0.3529411764705883
 40
0.3529411764705883
 40
0.3529411764705883
 40
0.3529411764705883
 40
0.3823529411764706
 40
0.3823529411764706
 40
0.3823529411764706
 40
0.3823529411764706
 40
0.4117647058823529
 40
0.4117647058823529
 40
0.4117647058823529
 40
0.4117647058823529
 40
0.4411764705882353
 40
0.4411764705882353
 40
0.4411764705882353
 40
0.4411764705882353
 40
0.4705882352941176
 40
0.4705882352941176
 40
0.4705882352941176
 40
0.4705882352941176
 40
0.5
 40
0.5
 40
0.5
 40
0.5
 40
0.5294117647058824
 40
0.5294117647058824
 40
0.5294117647058824
 40
0.5294117647058824
 40
0.5588235294117647
 40
0.5588235294117647
 40
0.5588235294117647
 40
0.5588235294117647
 40
0.5882352941176471
 40
0.5882352941176471
 40
0.5882352941176471
 40
0.5882352941176471
 40
0.6176470588235294
 40
0.6176470588235294
 40
0.6176470588235294
 40
0.6176470588235294
 40
0.6470588235294118
 40
0.6470588235294118
 40
0.6470588235294118
 40
0.6470588235294118
 40
0.6764705882352942
 40
0.6764705882352942
 40
0.6764705882352942
 40
0.6764705882352942
 40
0.7058823529411765
 40
0.7058823529411765
 40
0.7058823529411765
 40
0.7058823529411765
 40
0.7352941176470589
 40
0.7352941176470589
 40
0.7352941176470589
 40
0.7352941176470589
 40
0.7647058823529411
 40
0.7647058823529411
 40
0.7647058823529411
 40
0.7647058823529411
 40
0.7941176470588235
 40
0.7941176470588235
 40
0.7941176470588235
 40
0.7941176470588235
 40
0.8235294117647058
 40
0.8235294117647058
 40
0.8235294117647058
 40
0.8235294117647058
 40
0.8529411764705882
 40
0.8529411764705882
 40
0.8529411764705882
 40
0.8529411764705882
 40
0.8823529411764706
 40
0.8823529411764706
 40
0.8823529411764706
 40
0.8823529411764706
 40
0.9117647058823529
 40
0.9117647058823529
 40
0.9117647058823529
 40
0.9117647058823529
 40
0.9411764705882353
 40
0.9411764705882353
 40
0.9411764705882353
 40
0.9411764705882353
 40
1.0
 40
1.0
 40
1.0
 40
1.0
 10
8.2781
 20
14.0654
 30
0.0
 10
8.2781
 20
14.0654
 30
0.0
 10
8.2525
 20
14.015
 30
0.0
 10
8.2525
 20
14.015
 30
0.0
 10
8.2525
 20
14.015
 30
0.0
 10
8.2525
 20
14.015
 30
0.0
 10
8.1794
 20
13.8682
 30
0.0
 10
8.1794
 20
13.8682
 30
0.0
 10
8.1794
 20
13.8682
 30
0.0
 10
8.1794
 20
13.8682
 30
0.0
 10
8.0653
 20
13.6308
 30
0.0
 10
8.0653
 20
13.6308
 30
0.0
 10
8.0653
 20
13.6308
 30
0.0
 10
8.0653
 20
13.6308
 30
0.0
 10
7.9178
 20
13.3054
 30
0.0
 10
7.9178
 20
13.3054
 30
0.0
 10
7.9178
 20
13.3054
 30
0.0
 10
7.9178
 20
13.3054
 30
0.0
 10
7.7468
 20
12.8942
 30
0.0
 10
7.7468
 20
12.8942
 30
0.0
 10
7.7468
 20
12.8942
 30
0.0
 10
7.7468
 20
12.8942
 30
0.0
 10
7.5663
 20
12.4032
 30
0.0
 10
7.5663
 20
12.4032
 30
0.0
 10
7.5663
 20
12.4032
 30
0.0
 10
7.5663
 20
12.4032
 30
0.0
 10
7.3947
 20
11.846
 30
0.0
 10
7.3947
 20
11.846
 30
0.0
 10
7.3947
 20
11.846
 30
0.0
 10
7.3947
 20
11.846
 30
0.0
 10
7.2516
 20
11.245
 30
0.0
 10
7.2516
 20
11.245
 30
0.0
 10
7.2516
 20
11.245
 30
0.0
 10
7.2516
 20
11.245
 30
0.0
 10
7.1522
 20
10.6291
 30
0.0
 10
7.1522
 20
10.6291
 30
0.0
 10
7.1522
 20
10.6291
 30
0.0
 10
7.1522
 20
10.6291
 30
0.0
 10
7.1017
 20
10.0052
 30
0.0
 10
7.1017
 20
10.0052
 30
0.0
 10
7.1017
 20
10.0052
 30
0.0
 10
7.1017
 20
10.0052
 30
0.0
 10
7.1025
 20
9.3772
 30
0.0
 10
7.1025
 20
9.3772
 30
0.0
 10
7.1025
 20
9.3772
 30
0.0
 10
7.1025
 20
9.3772
 30
0.0
 10
7.1542
 20
8.7532
 30
0.0
 10
7.1542
 20
8.7532
 30
0.0
 10
7.1542
 20
8.7532
 30
0.0
 10
7.1542
 20
8.7532
 30
0.0
 10
7.25
 20
8.1555
 30
0.0
 10
7.25
 20
8.1555
 30
0.0
 10
7.25
 20
8.1555
 30
0.0
 10
7.25
 20
8.1555
 30
0.0
 10
7.3077
 20
7.6877
 30
0.0
 10
7.3077
 20
7.6877
 30
0.0
 10
7.3077
 20
7.6877
 30
0.0
 10
7.3077
 20
7.6877
 30
0.0
 10
7.2987
 20
7.2706
 30
0.0
 10
7.2987
 20
7.2706
 30
0.0
 10
7.2987
 20
7.2706
 30
0.0
 10
7.2987
 20
7.2706
 30
0.0
 10
7.24
 20
6.919
 30
0.0
 10
7.24
 20
6.919
 30
0.0
 10
7.24
 20
6.919
 30
0.0
 10
7.24
 20
6.919
 30
0.0
 10
7.1483
 20
6.632
 30
0.0
 10
7.1483
 20
6.632
 30
0.0
 10
7.1483
 20
6.632
 30
0.0
 10
7.1483
 20
6.632
 30
0.0
 10
7.037
 20
6.403
 30
0.0
 10
7.037
 20
6.403
 30
0.0
 10
7.037
 20
6.403
 30
0.0
 10
7.037
 20
6.403
 30
0.0
 10
6.9175
 20
6.2249
 30
0.0
 10
6.9175
 20
6.2249
 30
0.0
 10
6.9175
 20
6.2249
 30
0.0
 10
6.9175
 20
6.2249
 30
0.0
 10
6.7962
 20
6.0869
 30
0.0
 10
6.7962
 20
6.0869
 30
0.0
 10
6.7962
 20
6.0869
 30
0.0
 10
6.7962
 20
6.0869
 30
0.0
 10
6.6765
 20
5.9798
 30
0.0
 10
6.6765
 20
5.9798
 30
0.0
 10
6.6765
 20
5.9798
 30
0.0
 10
6.6765
 20
5.9798
 30
0.0
 10
6.5599
 20
5.8963
 30
0.0
 10
6.5599
 20
5.8963
 30
0.0
 10
6.5599
 20
5.8963
 30
0.0
 10
6.5599
 20
5.8963
 30
0.0
 10
6.4473
 20
5.8313
 30
0.0
 10
6.4473
 20
5.8313
 30
0.0
 10
6.4473
 20
5.8313
 30
0.0
 10
6.4473
 20
5.8313
 30
0.0
 10
6.3397
 20
5.7811
 30
0.0
 10
6.3397
 20
5.7811
 30
0.0
 10
6.3397
 20
5.7811
 30
0.0
 10
6.3397
 20
5.7811
 30
0.0
 10
6.2375
 20
5.7425
 30
0.0
 10
6.2375
 20
5.7425
 30
0.0
 10
6.2375
 20
5.7425
 30
0.0
 10
6.2375
 20
5.7425
 30
0.0
 10
6.1407
 20
5.7133
 30
0.0
 10
6.1407
 20
5.7133
 30
0.0
 10
6.1407
 20
5.7133
 30
0.0
 10
6.1407
 20
5.7133
 30
0.0
 10
6.0492
 20
5.6914
 30
0.0
 10
6.0492
 20
5.6914
 30
0.0
 10
6.0492
 20
5.6914
 30
0.0
 10
6.0492
 20
5.6914
 30
0.0
 10
5.9634
 20
5.6755
 30
0.0
 10
5.9634
 20
5.6755
 30
0.0
 10
5.9634
 20
5.6755
 30
0.0
 10
5.9634
 20
5.6755
 30
0.0
 10
5.8839
 20
5.6645
 30
0.0
 10
5.8839
 20
5.6645
 30
0.0
 10
5.8839
 20
5.6645
 30
0.0
 10
5.8839
 20
5.6645
 30
0.0
 10
5.8114
 20
5.6572
 30
0.0
 10
5.8114
 20
5.6572
 30
0.0
 10
5.8114
 20
5.6572
 30
0.0
 10
5.8114
 20
5.6572
 30
0.0
 10
5.7482
 20
5.653
 30
0.0
 10
5.7482
 20
5.653
 30
0.0
 10
5.7482
 20
5.653
 30
0.0
 10
5.7482
 20
5.653
 30
0.0
 10
5.6989
 20
5.6509
 30
0.0
 10
5.6989
 20
5.6509
 30
0.0
 10
5.6989
 20
5.6509
 30
0.0
 10
5.6989
 20
5.6509
 30
0.0
 10
5.6792
 20
5.6504
 30
0.0
 10
5.6792
 20
5.6504
 30
0.0
  0
SPLINE
  5
D5
330
1F
100
AcDbEntity
  8
AXIS
  6
NEW_LINE3
 62
   250
100
AcDbSpline
210
0.0
220
0.0
230
1.0
 70
    24
 71
     3
 72
     8
 73
     4
 74
     0
 42
0.0000000001
 43
0.0000000001
 40
0.0
 40
0.0
 40
0.0
 40
0.0
 40
1.0
 40
1.0
 40
1.0
 40
1.0
 10
20.5406
 20
9.3469
 30
0.0
 10
20.5406
 20
9.3469
 30
0.0
 10
-1.4721
 20
10.308
 30
0.0
 10
-1.4721
 20
10.308
 30
0.0
  0
SPLINE
  5
D7
330
1F
100
AcDbEntity
  8
AXIS
  6
NEW_LINE4
 62
   250
100
AcDbSpline
210
0.0
220
0.0
230
1.0
 70
    24
 71
     3
 72
     8
 73
     4
 74
     0
 42
0.0000000001
 43
0.0000000001
 40
0.0
 40
0.0
 40
0.0
 40
0.0
 40
1.0
 40
1.0
 40
1.0
 40
1.0
 10
-0.3214
 20
25.4554
 30
0.0
 10
-0.3214
 20
25.4554
 30
0.0
 10
-0.3214
 20
4.0903
 30
0.0
 10
-0.3214
 20
4.0903
 30
0.0
  0
SPLINE
  5
D9
330
1F
100
AcDbEntity
  8
AXIS
 62
   250
100
AcDbSpline
210
0.0
220
0.0
230
1.0
 70
     8
 71
     3
 72
    88
 73
    84
 74
     0
 42
0.0000000001
 43
0.0000000001
 40
0.0
 40
0.0
 40
0.0
 40
0.0
 40
0.0454545454545455
 40
0.0454545454545455
 40
0.0454545454545455
 40
0.0454545454545455
 40
0.0909090909090909
 40
0.0909090909090909
 40
0.0909090909090909
 40
0.0909090909090909
 40
0.1363636363636364
 40
0.1363636363636364
 40
0.1363636363636364
 40
0.1363636363636364
 40
0.1818181818181818
 40
0.1818181818181818
 40
0.1818181818181818
 40
0.1818181818181818
 40
0.2272727272727273
 40
0.2272727272727273
 40
0.2272727272727273
 40
0.2272727272727273
 40
0.2727272727272727
 40
0.2727272727272727
 40
0.2727272727272727
 40
0.2727272727272727
 40
0.3181818181818182
 40
0.3181818181818182
 40
0.3181818181818182
 40
0.3181818181818182
 40
0.3636363636363636
 40
0.3636363636363636
 40
0.3636363636363636
 40
0.3636363636363636
 40
0.4090909090909091
 40
0.4090909090909091
 40
0.4090909090909091
 40
0.4090909090909091
 40
0.4545454545454545
 40
0.4545454545454545
 40
0.4545454545454545
 40
0.4545454545454545
 40
0.5
 40
0.5
 40
0.5
 40
0.5
 40
0.5454545454545454
 40
0.5454545454545454
 40
0.5454545454545454
 40
0.5454545454545454
 40
0.5909090909090909
 40
0.5909090909090909
 40
0.5909090909090909
 40
0.5909090909090909
 40
0.6363636363636364
 40
0.6363636363636364
 40
0.6363636363636364
 40
0.6363636363636364
 40
0.6818181818181818
 40
0.6818181818181818
 40
0.6818181818181818
 40
0.6818181818181818
 40
0.7272727272727273
 40
0.7272727272727273
 40
0.7272727272727273
 40
0.7272727272727273
 40
0.7727272727272727
 40
0.7727272727272727
 40
0.7727272727272727
 40
0.7727272727272727
 40
0.8181818181818182
 40
0.8181818181818182
 40
0.8181818181818182
 40
0.8181818181818182
 40
0.8636363636363636
 40
0.8636363636363636
 40
0.8636363636363636
 40
0.8636363636363636
 40
0.9090909090909091
 40
0.9090909090909091
 40
0.9090909090909091
 40
0.9090909090909091
 40
1.0
 40
1.0
 40
1.0
 40
1.0
 10
-9.2527
 20
17.0204
 30
0.0
 10
-9.2527
 20
17.0204
 30
0.0
 10
-9.2527
 20
17.7855
 30
0.0
 10
-9.2527
 20
17.7855
 30
0.0
 10
-9.2527
 20
17.7855
 30
0.0
 10
-9.2527
 20
17.7855
 30
0.0
 10
-9.0307
 20
17.784
 30
0.0
 10
-9.0307
 20
17.784
 30
0.0
 10
-9.0307
 20
17.784
 30
0.0
 10
-9.0307
 20
17.784
 30
0.0
 10
-9.0117
 20
18.1072
 30
0.0
 10
-9.0117
 20
18.1072
 30
0.0
 10
-9.0117
 20
18.1072
 30
0.0
 10
-9.0117
 20
18.1072
 30
0.0
 10
-9.2775
 20
18.3924
 30
0.0
 10
-9.2775
 20
18.3924
 30
0.0
 10
-9.2775
 20
18.3924
 30
0.0
 10
-9.2775
 20
18.3924
 30
0.0
 10
-9.268
 20
19.1671
 30
0.0
 10
-9.268
 20
19.1671
 30
0.0
 10
-9.268
 20
19.1671
 30
0.0
 10
-9.268
 20
19.1671
 30
0.0
 10
-9.0117
 20
19.1671
 30
0.0
 10
-9.0117
 20
19.1671
 30
0.0
 10
-9.0117
 20
19.1671
 30
0.0
 10
-9.0117
 20
19.1671
 30
0.0
 10
-9.0117
 20
19.4903
 30
0.0
 10
-9.0117
 20
19.4903
 30
0.0
 10
-9.0117
 20
19.4903
 30
0.0
 10
-9.0117
 20
19.4903
 30
0.0
 10
-9.2917
 20
19.7422
 30
0.0
 10
-9.2917
 20
19.7422
 30
0.0
 10
-9.2917
 20
19.7422
 30
0.0
 10
-9.2917
 20
19.7422
 30
0.0
 10
-9.2526
 20
20.5333
 30
0.0
 10
-9.2526
 20
20.5333
 30
0.0
 10
-9.2526
 20
20.5333
 30
0.0
 10
-9.2526
 20
20.5333
 30
0.0
 10
-9.0146
 20
20.5265
 30
0.0
 10
-9.0146
 20
20.5265
 30
0.0
 10
-9.0146
 20
20.5265
 30
0.0
 10
-9.0146
 20
20.5265
 30
0.0
 10
-9.0146
 20
20.8801
 30
0.0
 10
-9.0146
 20
20.8801
 30
0.0
 10
-9.0146
 20
20.8801
 30
0.0
 10
-9.0146
 20
20.8801
 30
0.0
 10
-9.2594
 20
21.1589
 30
0.0
 10
-9.2594
 20
21.1589
 30
0.0
 10
-9.2594
 20
21.1589
 30
0.0
 10
-9.2594
 20
21.1589
 30
0.0
 10
-9.2526
 20
21.9205
 30
0.0
 10
-9.2526
 20
21.9205
 30
0.0
 10
-9.2526
 20
21.9205
 30
0.0
 10
-9.2526
 20
21.9205
 30
0.0
 10
-9.001
 20
21.9205
 30
0.0
 10
-9.001
 20
21.9205
 30
0.0
 10
-9.001
 20
21.9205
 30
0.0
 10
-9.001
 20
21.9205
 30
0.0
 10
-9.0115
 20
22.2102
 30
0.0
 10
-9.0115
 20
22.2102
 30
0.0
 10
-9.0115
 20
22.2102
 30
0.0
 10
-9.0115
 20
22.2102
 30
0.0
 10
-9.2856
 20
22.4695
 30
0.0
 10
-9.2856
 20
22.4695
 30
0.0
 10
-9.2856
 20
22.4695
 30
0.0
 10
-9.2856
 20
22.4695
 30
0.0
 10
-9.2779
 20
23.7808
 30
0.0
 10
-9.2779
 20
23.7808
 30
0.0
 10
-9.2779
 20
23.7808
 30
0.0
 10
-9.2779
 20
23.7808
 30
0.0
 10
-9.3693
 20
23.819
 30
0.0
 10
-9.3693
 20
23.819
 30
0.0
 10
-9.3693
 20
23.819
 30
0.0
 10
-9.3693
 20
23.819
 30
0.0
 10
-9.4454
 20
23.8876
 30
0.0
 10
-9.4454
 20
23.8876
 30
0.0
 10
-9.4454
 20
23.8876
 30
0.0
 10
-9.4454
 20
23.8876
 30
0.0
 10
-9.4911
 20
23.9791
 30
0.0
 10
-9.4911
 20
23.9791
 30
0.0
 10
-9.4911
 20
23.9791
 30
0.0
 10
-9.4911
 20
23.9791
 30
0.0
 10
-9.453
 20
25.1151
 30
0.0
 10
-9.453
 20
25.1151
 30
0.0
  0
SPLINE
  5
DA
330
1F
100
AcDbEntity
  8
AXIS
 62
   250
100
AcDbSpline
210
0.0
220
0.0
230
1.0
 70
     8
 71
     3
 72
    88
 73
    84
 74
     0
 42
0.0000000001
 43
0.0000000001
 40
0.0
 40
0.0
 40
0.0
 40
0.0
 40
0.0454545454545455
 40
0.0454545454545455
 40
0.0454545454545455
 40
0.0454545454545455
 40
0.0909090909090909
 40
0.0909090909090909
 40
0.0909090909090909
 40
0.0909090909090909
 40
0.1363636363636364
 40
0.1363636363636364
 40
0.1363636363636364
 40
0.1363636363636364
 40
0.1818181818181818
 40
0.1818181818181818
 40
0.1818181818181818
 40
0.1818181818181818
 40
0.2272727272727273
 40
0.2272727272727273
 40
0.2272727272727273
 40
0.2272727272727273
 40
0.2727272727272727
 40
0.2727272727272727
 40
0.2727272727272727
 40
0.2727272727272727
 40
0.3181818181818182
 40
0.3181818181818182
 40
0.3181818181818182
 40
0.3181818181818182
 40
0.3636363636363636
 40
0.3636363636363636
 40
0.3636363636363636
 40
0.3636363636363636
 40
0.4090909090909091
 40
0.4090909090909091
 40
0.4090909090909091
 40
0.4090909090909091
 40
0.4545454545454545
 40
0.4545454545454545
 40
0.4545454545454545
 40
0.4545454545454545
 40
0.5
 40
0.5
 40
0.5
 40
0.5
 40
0.5454545454545454
 40
0.5454545454545454
 40
0.5454545454545454
 40
0.5454545454545454
 40
0.5909090909090909
 40
0.5909090909090909
 40
0.5909090909090909
 40
0.5909090909090909
 40
0.6363636363636364
 40
0.6363636363636364
 40
0.6363636363636364
 40
0.6363636363636364
 40
0.6818181818181818
 40
0.6818181818181818
 40
0.6818181818181818
 40
0.6818181818181818
 40
0.7272727272727273
 40
0.7272727272727273
 40
0.7272727272727273
 40
0.7272727272727273
 40
0.7727272727272727
 40
0.7727272727272727
 40
0.7727272727272727
 40
0.7727272727272727
 40
0.8181818181818182
 40
0.8181818181818182
 40
0.8181818181818182
 40
0.8181818181818182
 40
0.8636363636363636
 40
0.8636363636363636
 40
0.8636363636363636
 40
0.8636363636363636
 40
0.9090909090909091
 40
0.9090909090909091
 40
0.9090909090909091
 40
0.9090909090909091
 40
1.0
 40
1.0
 40
1.0
 40
1.0
 10
8.3765
 20
16.9944
 30
0.0
 10
8.3765
 20
16.9944
 30
0.0
 10
8.3765
 20
17.7595
 30
0.0
 10
8.3765
 20
17.7595
 30
0.0
 10
8.3765
 20
17.7595
 30
0.0
 10
8.3765
 20
17.7595
 30
0.0
 10
8.1545
 20
17.758
 30
0.0
 10
8.1545
 20
17.758
 30
0.0
 10
8.1545
 20
17.758
 30
0.0
 10
8.1545
 20
17.758
 30
0.0
 10
8.1355
 20
18.0812
 30
0.0
 10
8.1355
 20
18.0812
 30
0.0
 10
8.1355
 20
18.0812
 30
0.0
 10
8.1355
 20
18.0812
 30
0.0
 10
8.4013
 20
18.3664
 30
0.0
 10
8.4013
 20
18.3664
 30
0.0
 10
8.4013
 20
18.3664
 30
0.0
 10
8.4013
 20
18.3664
 30
0.0
 10
8.3918
 20
19.1411
 30
0.0
 10
8.3918
 20
19.1411
 30
0.0
 10
8.3918
 20
19.1411
 30
0.0
 10
8.3918
 20
19.1411
 30
0.0
 10
8.1355
 20
19.1411
 30
0.0
 10
8.1355
 20
19.1411
 30
0.0
 10
8.1355
 20
19.1411
 30
0.0
 10
8.1355
 20
19.1411
 30
0.0
 10
8.1355
 20
19.4643
 30
0.0
 10
8.1355
 20
19.4643
 30
0.0
 10
8.1355
 20
19.4643
 30
0.0
 10
8.1355
 20
19.4643
 30
0.0
 10
8.4155
 20
19.7162
 30
0.0
 10
8.4155
 20
19.7162
 30
0.0
 10
8.4155
 20
19.7162
 30
0.0
 10
8.4155
 20
19.7162
 30
0.0
 10
8.3764
 20
20.5073
 30
0.0
 10
8.3764
 20
20.5073
 30
0.0
 10
8.3764
 20
20.5073
 30
0.0
 10
8.3764
 20
20.5073
 30
0.0
 10
8.1384
 20
20.5005
 30
0.0
 10
8.1384
 20
20.5005
 30
0.0
 10
8.1384
 20
20.5005
 30
0.0
 10
8.1384
 20
20.5005
 30
0.0
 10
8.1384
 20
20.8541
 30
0.0
 10
8.1384
 20
20.8541
 30
0.0
 10
8.1384
 20
20.8541
 30
0.0
 10
8.1384
 20
20.8541
 30
0.0
 10
8.3832
 20
21.1329
 30
0.0
 10
8.3832
 20
21.1329
 30
0.0
 10
8.3832
 20
21.1329
 30
0.0
 10
8.3832
 20
21.1329
 30
0.0
 10
8.3764
 20
21.8945
 30
0.0
 10
8.3764
 20
21.8945
 30
0.0
 10
8.3764
 20
21.8945
 30
0.0
 10
8.3764
 20
21.8945
 30
0.0
 10
8.1248
 20
21.8945
 30
0.0
 10
8.1248
 20
21.8945
 30
0.0
 10
8.1248
 20
21.8945
 30
0.0
 10
8.1248
 20
21.8945
 30
0.0
 10
8.1353
 20
22.1842
 30
0.0
 10
8.1353
 20
22.1842
 30
0.0
 10
8.1353
 20
22.1842
 30
0.0
 10
8.1353
 20
22.1842
 30
0.0
 10
8.4094
 20
22.4435
 30
0.0
 10
8.4094
 20
22.4435
 30
0.0
 10
8.4094
 20
22.4435
 30
0.0
 10
8.4094
 20
22.4435
 30
0.0
 10
8.4017
 20
23.7548
 30
0.0
 10
8.4017
 20
23.7548
 30
0.0
 10
8.4017
 20
23.7548
 30
0.0
 10
8.4017
 20
23.7548
 30
0.0
 10
8.4931
 20
23.793
 30
0.0
 10
8.4931
 20
23.793
 30
0.0
 10
8.4931
 20
23.793
 30
0.0
 10
8.4931
 20
23.793
 30
0.0
 10
8.5692
 20
23.8616
 30
0.0
 10
8.5692
 20
23.8616
 30
0.0
 10
8.5692
 20
23.8616
 30
0.0
 10
8.5692
 20
23.8616
 30
0.0
 10
8.6149
 20
23.9531
 30
0.0
 10
8.6149
 20
23.9531
 30
0.0
 10
8.6149
 20
23.9531
 30
0.0
 10
8.6149
 20
23.9531
 30
0.0
 10
8.5768
 20
25.0891
 30
0.0
 10
8.5768
 20
25.0891
 30
0.0
  0
SPLINE
  5
DB
330
1F
100
AcDbEntity
  8
AXIS
 62
   250
100
AcDbSpline
210
0.0
220
0.0
230
1.0
 70
    24
 71
     3
 72
     8
 73
     4
 74
     0
 42
0.0000000001
 43
0.0000000001
 40
0.0
 40
0.0
 40
0.0
 40
0.0
 40
1.0
 40
1.0
 40
1.0
 40
1.0
 10
-9.4482
 20
25.096
 30
0.0
 10
-9.4482
 20
25.096
 30
0.0
 10
8.5731
 20
25.096
 30
0.0
 10
8.5731
 20
25.096
 30
0.0
  0
SPLINE
  5
DC
330
1F
100
AcDbEntity
  8
AXIS
 62
   250
100
AcDbSpline
210
0.0
220
0.0
230
1.0
 70
    24
 71
     3
 72
     8
 73
     4
 74
     0
 42
0.0000000001
 43
0.0000000001
 40
0.0
 40
0.0
 40
0.0
 40
0.0
 40
1.0
 40
1.0
 40
1.0
 40
1.0
 10
8.4224
 20
23.8209
 30
0.0
 10
8.4224
 20
23.8209
 30
0.0
 10
-9.2974
 20
23.8209
 30
0.0
 10
-9.2974
 20
23.8209
 30
0.0
  0
SPLINE
  5
DD
330
1F
100
AcDbEntity
  8
AXIS
 62
   250
100
AcDbSpline
210
0.0
220
0.0
230
1.0
 70
    24
 71
     3
 72
     8
 73
     4
 74
     0
 42
0.0000000001
 43
0.0000000001
 40
0.0
 40
0.0
 40
0.0
 40
0.0
 40
1.0
 40
1.0
 40
1.0
 40
1.0
 10
8.3776
 20
22.4353
 30
0.0
 10
8.3776
 20
22.4353
 30
0.0
 10
-9.2527
 20
22.4353
 30
0.0
 10
-9.2527
 20
22.4353
 30
0.0
  0
SPLINE
  5
DE
330
1F
100
AcDbEntity
  8
AXIS
 62
   250
100
AcDbSpline
210
0.0
220
0.0
230
1.0
 70
    24
 71
     3
 72
     8
 73
     4
 74
     0
 42
0.0000000001
 43
0.0000000001
 40
0.0
 40
0.0
 40
0.0
 40
0.0
 40
1.0
 40
1.0
 40
1.0
 40
1.0
 10
8.3776
 20
21.8658
 30
0.0
 10
8.3776
 20
21.8658
 30
0.0
 10
-9.2527
 20
21.8658
 30
0.0
 10
-9.2527
 20
21.8658
 30
0.0
  0
SPLINE
  5
DF
330
1F
100
AcDbEntity
  8
AXIS
 62
   250
100
AcDbSpline
210
0.0
220
0.0
230
1.0
 70
    24
 71
     3
 72
     8
 73
     4
 74
     0
 42
0.0000000001
 43
0.0000000001
 40
0.0
 40
0.0
 40
0.0
 40
0.0
 40
1.0
 40
1.0
 40
1.0
 40
1.0
 10
8.3776
 20
21.0752
 30
0.0
 10
8.3776
 20
21.0752
 30
0.0
 10
-9.2527
 20
21.0752
 30
0.0
 10
-9.2527
 20
21.0752
 30
0.0
  0
SPLINE
  5
E0
330
1F
100
AcDbEntity
  8
AXIS
 62
   250
100
AcDbSpline
210
0.0
220
0.0
230
1.0
 70
    24
 71
     3
 72
     8
 73
     4
 74
     0
 42
0.0000000001
 43
0.0000000001
 40
0.0
 40
0.0
 40
0.0
 40
0.0
 40
1.0
 40
1.0
 40
1.0
 40
1.0
 10
8.3776
 20
20.5057
 30
0.0
 10
8.3776
 20
20.5057
 30
0.0
 10
-9.2527
 20
20.5057
 30
0.0
 10
-9.2527
 20
20.5057
 30
0.0
  0
SPLINE
  5
E1
330
1F
100
AcDbEntity
  8
AXIS
 62
   250
100
AcDbSpline
210
0.0
220
0.0
230
1.0
 70
    24
 71
     3
 72
     8
 73
     4
 74
     0
 42
0.0000000001
 43
0.0000000001
 40
0.0
 40
0.0
 40
0.0
 40
0.0
 40
1.0
 40
1.0
 40
1.0
 40
1.0
 10
8.3776
 20
19.7151
 30
0.0
 10
8.3776
 20
19.7151
 30
0.0
 10
-9.2527
 20
19.7151
 30
0.0
 10
-9.2527
 20
19.7151
 30
0.0
  0
SPLINE
  5
E2
330
1F
100
AcDbEntity
  8
AXIS
 62
   250
100
AcDbSpline
210
0.0
220
0.0
230
1.0
 70
    24
 71
     3
 72
     8
 73
     4
 74
     0
 42
0.0000000001
 43
0.0000000001
 40
0.0
 40
0.0
 40
0.0
 40
0.0
 40
1.0
 40
1.0
 40
1.0
 40
1.0
 10
8.3776
 20
19.1456
 30
0.0
 10
8.3776
 20
19.1456
 30
0.0
 10
-9.2527
 20
19.1456
 30
0.0
 10
-9.2527
 20
19.1456
 30
0.0
  0
SPLINE
  5
E3
330
1F
100
AcDbEntity
  8
AXIS
 62
   250
100
AcDbSpline
210
0.0
220
0.0
230
1.0
 70
    24
 71
     3
 72
     8
 73
     4
 74
     0
 42
0.0000000001
 43
0.0000000001
 40
0.0
 40
0.0
 40
0.0
 40
0.0
 40
1.0
 40
1.0
 40
1.0
 40
1.0
 10
8.3776
 20
18.355
 30
0.0
 10
8.3776
 20
18.355
 30
0.0
 10
-9.2527
 20
18.355
 30
0.0
 10
-9.2527
 20
18.355
 30
0.0
  0
SPLINE
  5
E4
330
1F
100
AcDbEntity
  8
AXIS
 62
   250
100
AcDbSpline
210
0.0
220
0.0
230
1.0
 70
    24
 71
     3
 72
     8
 73
     4
 74
     0
 42
0.0000000001
 43
0.0000000001
 40
0.0
 40
0.0
 40
0.0
 40
0.0
 40
1.0
 40
1.0
 40
1.0
 40
1.0
 10
8.3776
 20
17.7855
 30
0.0
 10
8.3776
 20
17.7855
 30
0.0
 10
-9.2527
 20
17.7855
 30
0.0
 10
-9.2527
 20
17.7855
 30
0.0
  0
SPLINE
  5
E5
330
1F
100
AcDbEntity
  8
AXIS
 62
   250
100
AcDbSpline
210
0.0
220
0.0
230
1.0
 70
    24
 71
     3
 72
     8
 73
     4
 74
     0
 42
0.0000000001
 43
0.0000000001
 40
0.0
 40
0.0
 40
0.0
 40
0.0
 40
1.0
 40
1.0
 40
1.0
 40
1.0
 10
-21.6826
 20
24.209
 30
0.0
 10
-21.6826
 20
24.209
 30
0.0
 10
-21.6826
 20
5.8836
 30
0.0
 10
-21.6826
 20
5.8836
 30
0.0
  0
ENDSEC
  0
SECTION
  2
OBJECTS
  0
DICTIONARY
  5
C
330
0
100
AcDbDictionary
  3
ACAD_GROUP
350
D
  3
ACAD_LAYOUT
350
1A
  3
ACAD_MATERIAL
350
3B
  3
ACAD_MLEADERSTYLE
350
108
  3
ACAD_MLINESTYLE
350
17
  3
ACAD_PLOTSETTINGS
350
19
  3
ACAD_VISUALSTYLE
350
2A
  3
ACDBHEADERROUNDTRIPXREC
350
E6
  3
ACDBVARIABLEDICTIONARY
350
106
  0
DICTIONARY
  5
D
102
{ACAD_REACTORS
330
C
102
}
330
C
100
AcDbDictionary
  0
DICTIONARY
  5
1A
102
{ACAD_REACTORS
330
C
102
}
330
C
100
AcDbDictionary
  0
DICTIONARY
  5
3B
102
{ACAD_REACTORS
330
C
102
}
330
C
100
AcDbDictionary
  3
BYBLOCK
350
3D
  3
BYLAYER
350
3C
  3
GLOBAL
350
3E
  0
DICTIONARY
  5
108
102
{ACAD_REACTORS
330
C
102
}
330
C
100
AcDbDictionary
  0
DICTIONARY
  5
17
102
{ACAD_REACTORS
330
C
102
}
330
C
100
AcDbDictionary
  3
STANDARD
350
18
  0
DICTIONARY
  5
19
102
{ACAD_REACTORS
330
C
102
}
330
C
100
AcDbDictionary
  0
DICTIONARY
  5
2A
102
{ACAD_REACTORS
330
C
102
}
330
C
100
AcDbDictionary
  3
2DWIREFRAME
350
2F
  3
3D_HIDDEN
350
31
  3
3DWIREFRAME
350
30
  3
BASIC
350
32
  3
BRIGHTEN
350
36
  3
COLORCHANGE
350
3A
  3
CONCEPTUAL
350
34
  3
DIM
350
35
  3
FACEPATTERN
350
39
  3
FLAT
350
2B
  3
FLATWITHEDGES
350
2C
  3
GOURAUD
350
2D
  3
GOURAUDWITHEDGES
350
2E
  3
LINEPATTERN
350
38
  3
REALISTIC
350
33
  3
THICKEN
350
37
  0
DICTIONARY
  5
E6
102
{ACAD_REACTORS
330
C
102
}
330
C
100
AcDbDictionary
  3
CEPSNTYPE
350
EF
  3
DIMSTYLEDATA
350
105
  3
FINGERPRINTGUID
350
F0
  3
HYPERLINKBASE
350
E9
  3
INSUNITS
350
EE
  3
LAYOUTDICT
350
EB
  3
LWETCUNION
350
ED
  3
PLOTSETDICT
350
EC
  3
PSVPSCALE
350
F2
  3
PUCSBASE
350
F5
  3
PUCSORGBACK
350
FB
  3
PUCSORGBOTTOM
350
F7
  3
PUCSORGFRONT
350
FA
  3
PUCSORGLEFT
350
F8
  3
PUCSORGRIGHT
350
F9
  3
PUCSORGTOP
350
F6
  3
PUCSORTHOREF
350
F3
  3
PUCSORTHOVIEW
350
F4
  3
STYLESHEET
350
EA
  3
TSTACKALIGN
350
E7
  3
TSTACKSIZE
350
E8
  3
UCSBASE
350
FE
  3
UCSORGBACK
350
104
  3
UCSORGBOTTOM
350
100
  3
UCSORGFRONT
350
103
  3
UCSORGLEFT
350
101
  3
UCSORGRIGHT
350
102
  3
UCSORGTOP
350
FF
  3
UCSORTHOREF
350
FC
  3
UCSORTHOVIEW
350
FD
  3
VERSIONGUID
350
F1
  0
DICTIONARY
  5
106
102
{ACAD_REACTORS
330
C
102
}
330
C
100
AcDbDictionary
  3
DIMASSOC
350
109
  3
HIDETEXT
350
10A
  0
MATERIAL
  5
3D
102
{ACAD_REACTORS
330
3B
102
}
102
{ACAD_XDICTIONARY
360
10D
102
}
330
3B
100
AcDbMaterial
  1
ByBlock
  0
MATERIAL
  5
3C
102
{ACAD_REACTORS
330
3B
102
}
102
{ACAD_XDICTIONARY
360
10B
102
}
330
3B
100
AcDbMaterial
  1
ByLayer
  0
MATERIAL
  5
3E
102
{ACAD_REACTORS
330
3B
102
}
102
{ACAD_XDICTIONARY
360
10F
102
}
330
3B
100
AcDbMaterial
  1
Global
  0
MLINESTYLE
  5
18
102
{ACAD_REACTORS
330
17
102
}
330
17
100
AcDbMlineStyle
  2
Standard
 70
     0
  3

 62
   256
 51
90.0
 52
90.0
 71
     2
 49
0.5
 62
   256
  6
BYLAYER
 49
-0.5
 62
   256
  6
BYLAYER
  0
ACAD_PROXY_OBJECT
  5
2F
102
{ACAD_REACTORS
330
2A
102
}
330
2A
100
AcDbProxyObject
 90
      499
 91
      501
 93
      436
310
42CC9915DA5C99599C985B595049028333333333333E3BF0000000000000FB0107901411070040501600405405064090741402480A0340
1001
ACAD
1000
AcDbSavedByObjectVersion
1070
     0
  0
ACAD_PROXY_OBJECT
  5
31
102
{ACAD_REACTORS
330
2A
102
}
330
2A
100
AcDbProxyObject
 90
      499
 91
      501
 93
      500
310
424CD108121A5919195B90640502408333333333333E3BF0000000000000FB01079024090700405020000000000001110200405405064090740C02480A0340
1001
ACAD
1000
AcDbSavedByObjectVersion
1070
     0
  0
ACAD_PROXY_OBJECT
  5
30
102
{ACAD_REACTORS
330
2A
102
}
330
2A
100
AcDbProxyObject
 90
      499
 91
      501
 93
      436
310
42CCD915DA5C99599C985B595059028333333333333E3BF0000000000000FB0107901411070040501600405405064090741402480A0340
1001
ACAD
1000
AcDbSavedByObjectVersion
1070
     0
  0
ACAD_PROXY_OBJECT
  5
32
102
{ACAD_REACTORS
330
2A
102
}
330
2A
100
AcDbProxyObject
 90
      499
 91
      501
 93
      388
310
4150985CDA58D07406404333333333333E3BF0000000000000FB0107A41107004050150841D405064090741402480A0350
1001
ACAD
1000
AcDbSavedByObjectVersion
1070
     0
  0
ACAD_PROXY_OBJECT
  5
36
102
{ACAD_REACTORS
330
2A
102
}
330
2A
100
AcDbProxyObject
 90
      499
 91
      501
 93
      428
310
42109C9A59DA1D195B90C409028333333333333E3BF0000000000000FB010790141107004050150841D405064090741402480A029950
1001
ACAD
1000
AcDbSavedByObjectVersion
1070
     0
  0
ACAD_PROXY_OBJECT
  5
3A
102
{ACAD_REACTORS
330
2A
102
}
330
2A
100
AcDbProxyObject
 90
      499
 91
      501
 93
      452
310
42D0DBDB1BDC90DA185B99D95104090240C333333333333E3BF0000000000000FB0108901411070040501508421405064090741402480A0350
1001
ACAD
1000
AcDbSavedByObjectVersion
1070
     0
  0
ACAD_PROXY_OBJECT
  5
34
102
{ACAD_REACTORS
330
2A
102
}
330
2A
100
AcDbProxyObject
 90
      499
 91
      501
 93
      500
310
4290DBDB98D95C1D1D585B10940D028333333333333E3BF0000000000000FB0107902409070040501000000000000111010841D405064090740C02480A0340
1001
ACAD
1000
AcDbSavedByObjectVersion
1070
     0
  0
ACAD_PROXY_OBJECT
  5
35
102
{ACAD_REACTORS
330
2A
102
}
330
2A
100
AcDbProxyObject
 90
      499
 91
      501
 93
      412
310
40D11A5B50B409028333333333333E3BF0000000000000FB010790141107004050150841D405064090741402480A02677FFFFFD0
1001
ACAD
1000
AcDbSavedByObjectVersion
1070
     0
  0
ACAD_PROXY_OBJECT
  5
39
102
{ACAD_REACTORS
330
2A
102
}
330
2A
100
AcDbProxyObject
 90
      499
 91
      501
 93
      444
310
42D19858D95C185D1D195C9B90F409028333333333333E3BF0000000000000FB010790141107004050150841D405064090741402480A0350
1001
ACAD
1000
AcDbSavedByObjectVersion
1070
     0
  0
ACAD_PROXY_OBJECT
  5
2B
102
{ACAD_REACTORS
330
2A
102
}
330
2A
100
AcDbProxyObject
 90
      499
 91
      501
 93
      388
310
41119B185D240901404333333333333E3BF0000000000000F9010740A41107004050150841D405064090741402480A1B50
1001
ACAD
1000
AcDbSavedByObjectVersion
1070
     0
  0
ACAD_PROXY_OBJECT
  5
2C
102
{ACAD_REACTORS
330
2A
102
}
330
2A
100
AcDbProxyObject
 90
      499
 91
      501
 93
      476
310
43519B185D15DA5D1A115919D95CD0140901404333333333333E3BF0000000000000F9010740901411070040501600405405064090741402480A1B50
1001
ACAD
1000
AcDbSavedByObjectVersion
1070
     0
  0
ACAD_PROXY_OBJECT
  5
2D
102
{ACAD_REACTORS
330
2A
102
}
330
2A
100
AcDbProxyObject
 90
      499
 91
      501
 93
      412
310
41D1DBDD5C985D5910240902404333333333333E3BF0000000000000F9010740A411070040501641D405064090741402480A1B50
1001
ACAD
1000
AcDbSavedByObjectVersion
1070
     0
  0
ACAD_PROXY_OBJECT
  5
2E
102
{ACAD_REACTORS
330
2A
102
}
330
2A
100
AcDbProxyObject
 90
      499
 91
      501
 93
      500
310
4411DBDD5C985D5915DA5D1A115919D95CD0340902404333333333333E3BF0000000000000F9010740901411070040501600405405064090741402480A1B50
1001
ACAD
1000
AcDbSavedByObjectVersion
1070
     0
  0
ACAD_PROXY_OBJECT
  5
38
102
{ACAD_REACTORS
330
2A
102
}
330
2A
100
AcDbProxyObject
 90
      499
 91
      501
 93
      444
310
42D31A5B995C185D1D195C9B90E409028333333333333E3BF0000000000000FB010790141107004050750841D405064090741402483A0350
1001
ACAD
1000
AcDbSavedByObjectVersion
1070
     0
  0
ACAD_PROXY_OBJECT
  5
33
102
{ACAD_REACTORS
330
2A
102
}
330
2A
100
AcDbProxyObject
 90
      499
 91
      501
 93
      420
310
425499585B1A5CDD1A58D08409028333333333333E3BF0000000000000FB01079019070040501508421405064090741402480A1B40
1001
ACAD
1000
AcDbSavedByObjectVersion
1070
     0
  0
ACAD_PROXY_OBJECT
  5
37
102
{ACAD_REACTORS
330
2A
102
}
330
2A
100
AcDbProxyObject
 90
      499
 91
      501
 93
      412
310
41D51A1A58DAD95B90D409028333333333333E3BF0000000000000FB010790141107004050150C41D405064090741402480A0350
1001
ACAD
1000
AcDbSavedByObjectVersion
1070
     0
  0
XRECORD
  5
EF
102
{ACAD_REACTORS
330
E6
102
}
330
E6
100
AcDbXrecord
 90
        0
  0
XRECORD
  5
105
102
{ACAD_REACTORS
330
E6
102
}
330
E6
100
AcDbXrecord
1000
DSTYLE
1002
{
1070
   340
340
11
1002
}
  0
XRECORD
  5
F0
102
{ACAD_REACTORS
330
E6
102
}
330
E6
100
AcDbXrecord
  1
{9C3DE7A4-F9CC-44F3-A33A-3C039DD451DE}
  0
XRECORD
  5
E9
102
{ACAD_REACTORS
330
E6
102
}
330
E6
100
AcDbXrecord
  1

  0
XRECORD
  5
EE
102
{ACAD_REACTORS
330
E6
102
}
330
E6
100
AcDbXrecord
 90
        4
  0
XRECORD
  5
EB
102
{ACAD_REACTORS
330
E6
102
}
330
E6
100
AcDbXrecord
340
1A
  0
XRECORD
  5
ED
102
{ACAD_REACTORS
330
E6
102
}
330
E6
100
AcDbXrecord
 90
    10781
  0
XRECORD
  5
EC
102
{ACAD_REACTORS
330
E6
102
}
330
E6
100
AcDbXrecord
340
19
  0
XRECORD
  5
F2
102
{ACAD_REACTORS
330
E6
102
}
330
E6
100
AcDbXrecord
 40
0.0
  0
XRECORD
  5
F5
102
{ACAD_REACTORS
330
E6
102
}
330
E6
100
AcDbXrecord
340
0
  0
XRECORD
  5
FB
102
{ACAD_REACTORS
330
E6
102
}
330
E6
100
AcDbXrecord
 10
0.0
 20
0.0
 30
0.0
  0
XRECORD
  5
F7
102
{ACAD_REACTORS
330
E6
102
}
330
E6
100
AcDbXrecord
 10
0.0
 20
0.0
 30
0.0
  0
XRECORD
  5
FA
102
{ACAD_REACTORS
330
E6
102
}
330
E6
100
AcDbXrecord
 10
0.0
 20
0.0
 30
0.0
  0
XRECORD
  5
F8
102
{ACAD_REACTORS
330
E6
102
}
330
E6
100
AcDbXrecord
 10
0.0
 20
0.0
 30
0.0
  0
XRECORD
  5
F9
102
{ACAD_REACTORS
330
E6
102
}
330
E6
100
AcDbXrecord
 10
0.0
 20
0.0
 30
0.0
  0
XRECORD
  5
F6
102
{ACAD_REACTORS
330
E6
102
}
330
E6
100
AcDbXrecord
 10
0.0
 20
0.0
 30
0.0
  0
XRECORD
  5
F3
102
{ACAD_REACTORS
330
E6
102
}
330
E6
100
AcDbXrecord
340
0
  0
XRECORD
  5
F4
102
{ACAD_REACTORS
330
E6
102
}
330
E6
100
AcDbXrecord
 70
     0
  0
XRECORD
  5
EA
102
{ACAD_REACTORS
330
E6
102
}
330
E6
100
AcDbXrecord
  1

  0
XRECORD
  5
E7
102
{ACAD_REACTORS
330
E6
102
}
330
E6
100
AcDbXrecord
 90
        1
  0
XRECORD
  5
E8
102
{ACAD_REACTORS
330
E6
102
}
330
E6
100
AcDbXrecord
 90
       70
  0
XRECORD
  5
FE
102
{ACAD_REACTORS
330
E6
102
}
330
E6
100
AcDbXrecord
340
0
  0
XRECORD
  5
104
102
{ACAD_REACTORS
330
E6
102
}
330
E6
100
AcDbXrecord
 10
0.0
 20
0.0
 30
0.0
  0
XRECORD
  5
100
102
{ACAD_REACTORS
330
E6
102
}
330
E6
100
AcDbXrecord
 10
0.0
 20
0.0
 30
0.0
  0
XRECORD
  5
103
102
{ACAD_REACTORS
330
E6
102
}
330
E6
100
AcDbXrecord
 10
0.0
 20
0.0
 30
0.0
  0
XRECORD
  5
101
102
{ACAD_REACTORS
330
E6
102
}
330
E6
100
AcDbXrecord
 10
0.0
 20
0.0
 30
0.0
  0
XRECORD
  5
102
102
{ACAD_REACTORS
330
E6
102
}
330
E6
100
AcDbXrecord
 10
0.0
 20
0.0
 30
0.0
  0
XRECORD
  5
FF
102
{ACAD_REACTORS
330
E6
102
}
330
E6
100
AcDbXrecord
 10
0.0
 20
0.0
 30
0.0
  0
XRECORD
  5
FC
102
{ACAD_REACTORS
330
E6
102
}
330
E6
100
AcDbXrecord
340
0
  0
XRECORD
  5
FD
102
{ACAD_REACTORS
330
E6
102
}
330
E6
100
AcDbXrecord
 70
     0
  0
XRECORD
  5
F1
102
{ACAD_REACTORS
330
E6
102
}
330
E6
100
AcDbXrecord
  1
{FAEB1C32-E019-11D5-929B-00C0DF256EC4}
  0
DICTIONARYVAR
  5
109
102
{ACAD_REACTORS
330
106
102
}
330
106
100
DictionaryVariables
280
     0
  1
2
  0
DICTIONARYVAR
  5
10A
102
{ACAD_REACTORS
330
106
102
}
330
106
100
DictionaryVariables
280
     0
  1
1
  0
DICTIONARY
  5
10D
330
3D
100
AcDbDictionary
280
     1
  3
ACAD_XREC_ROUNDTRIP
360
10E
  0
DICTIONARY
  5
10B
330
3C
100
AcDbDictionary
280
     1
  3
ACAD_XREC_ROUNDTRIP
360
10C
  0
DICTIONARY
  5
10F
330
3E
100
AcDbDictionary
280
     1
  3
ACAD_XREC_ROUNDTRIP
360
110
  0
XRECORD
  5
10E
102
{ACAD_REACTORS
330
10D
102
}
330
10D
100
AcDbXrecord
102
MATERIAL
148
0.0
149
0.0
149
0.0
 93
        0
 94
      127
282
     0
 72
     1
 77
     1
171
     1
175
     1
179
     1
273
     0
  0
XRECORD
  5
10C
102
{ACAD_REACTORS
330
10B
102
}
330
10B
100
AcDbXrecord
102
MATERIAL
148
0.0
149
0.0
149
0.0
 93
        0
 94
      127
282
     0
 72
     1
 77
     1
171
     1
175
     1
179
     1
273
     0
  0
XRECORD
  5
110
102
{ACAD_REACTORS
330
10F
102
}
330
10F
100
AcDbXrecord
102
MATERIAL
148
0.0
149
0.0
149
0.0
 93
        0
 94
      127
282
     0
 72
     1
 77
     1
171
     1
175
     1
179
     1
273
     0
  0
ENDSEC
  0
EOF
