  0
SECTION
  2
HEADER
  9
$ACADVER
  1
AC1014
  9
$ACADMAINTVER
 70
     9
  9
$DWGCODEPAGE
  3
ANSI_1250
  9
$INSBASE
 10
0.0
 20
0.0
 30
0.0
  9
$EXTMIN
 10
-22.2176
 20
-34.4945
 30
0.0
  9
$EXTMAX
 10
22.2204
 20
34.4946
 30
0.0
  9
$LIMMIN
 10
0.0
 20
0.0
  9
$LIMMAX
 10
12.0
 20
9.0
  9
$ORTHOMODE
 70
     0
  9
$REGENMODE
 70
     1
  9
$FILLMODE
 70
     1
  9
$QTEXTMODE
 70
     0
  9
$MIRRTEXT
 70
     1
  9
$DRAGMODE
 70
     2
  9
$LTSCALE
 40
1.0
  9
$OSMODE
 70
    37
  9
$ATTMODE
 70
     1
  9
$TEXTSIZE
 40
0.2
  9
$TRACEWID
 40
0.05
  9
$TEXTSTYLE
  7
STANDARD
  9
$CLAYER
  8
0
  9
$CELTYPE
  6
BYLAYER
  9
$CECOLOR
 62
   256
  9
$CELTSCALE
 40
1.0
  9
$DELOBJ
 70
     1
  9
$DISPSILH
 70
     0
  9
$DIMSCALE
 40
1.0
  9
$DIMASZ
 40
0.18
  9
$DIMEXO
 40
0.0625
  9
$DIMDLI
 40
0.38
  9
$DIMRND
 40
0.0
  9
$DIMDLE
 40
0.0
  9
$DIMEXE
 40
0.18
  9
$DIMTP
 40
0.0
  9
$DIMTM
 40
0.0
  9
$DIMTXT
 40
0.18
  9
$DIMCEN
 40
0.09
  9
$DIMTSZ
 40
0.0
  9
$DIMTOL
 70
     0
  9
$DIMLIM
 70
     0
  9
$DIMTIH
 70
     1
  9
$DIMTOH
 70
     1
  9
$DIMSE1
 70
     0
  9
$DIMSE2
 70
     0
  9
$DIMTAD
 70
     0
  9
$DIMZIN
 70
     0
  9
$DIMBLK
  1

  9
$DIMASO
 70
     1
  9
$DIMSHO
 70
     1
  9
$DIMPOST
  1

  9
$DIMAPOST
  1

  9
$DIMALT
 70
     0
  9
$DIMALTD
 70
     2
  9
$DIMALTF
 40
25.4
  9
$DIMLFAC
 40
1.0
  9
$DIMTOFL
 70
     0
  9
$DIMTVP
 40
0.0
  9
$DIMTIX
 70
     0
  9
$DIMSOXD
 70
     0
  9
$DIMSAH
 70
     0
  9
$DIMBLK1
  1

  9
$DIMBLK2
  1

  9
$DIMSTYLE
  2
STANDARD
  9
$DIMCLRD
 70
     0
  9
$DIMCLRE
 70
     0
  9
$DIMCLRT
 70
     0
  9
$DIMTFAC
 40
1.0
  9
$DIMGAP
 40
0.09
  9
$DIMJUST
 70
     0
  9
$DIMSD1
 70
     0
  9
$DIMSD2
 70
     0
  9
$DIMTOLJ
 70
     1
  9
$DIMTZIN
 70
     0
  9
$DIMALTZ
 70
     0
  9
$DIMALTTZ
 70
     0
  9
$DIMFIT
 70
     3
  9
$DIMUPT
 70
     0
  9
$DIMUNIT
 70
     2
  9
$DIMDEC
 70
     4
  9
$DIMTDEC
 70
     4
  9
$DIMALTU
 70
     2
  9
$DIMALTTD
 70
     2
  9
$DIMTXSTY
  7
STANDARD
  9
$DIMAUNIT
 70
     0
  9
$LUNITS
 70
     2
  9
$LUPREC
 70
     4
  9
$SKETCHINC
 40
0.1
  9
$FILLETRAD
 40
0.5
  9
$AUNITS
 70
     0
  9
$AUPREC
 70
     0
  9
$MENU
  1
.
  9
$ELEVATION
 40
0.0
  9
$PELEVATION
 40
0.0
  9
$THICKNESS
 40
0.0
  9
$LIMCHECK
 70
     0
  9
$CHAMFERA
 40
0.5
  9
$CHAMFERB
 40
0.5
  9
$CHAMFERC
 40
1.0
  9
$CHAMFERD
 40
0.0
  9
$SKPOLY
 70
     0
  9
$TDCREATE
 40
2456232.486017766
  9
$TDUPDATE
 40
2456232.486017778
  9
$TDINDWG
 40
0.0000000116
  9
$TDUSRTIMER
 40
0.0000000116
  9
$USRTIMER
 70
     1
  9
$ANGBASE
 50
0.0
  9
$ANGDIR
 70
     0
  9
$PDMODE
 70
     0
  9
$PDSIZE
 40
0.0
  9
$PLINEWID
 40
0.0
  9
$COORDS
 70
     1
  9
$SPLFRAME
 70
     0
  9
$SPLINETYPE
 70
     6
  9
$SPLINESEGS
 70
     8
  9
$ATTDIA
 70
     0
  9
$ATTREQ
 70
     1
  9
$HANDLING
 70
     1
  9
$HANDSEED
  5
262
  9
$SURFTAB1
 70
     6
  9
$SURFTAB2
 70
     6
  9
$SURFTYPE
 70
     6
  9
$SURFU
 70
     6
  9
$SURFV
 70
     6
  9
$UCSNAME
  2

  9
$UCSORG
 10
0.0
 20
0.0
 30
0.0
  9
$UCSXDIR
 10
1.0
 20
0.0
 30
0.0
  9
$UCSYDIR
 10
0.0
 20
1.0
 30
0.0
  9
$PUCSNAME
  2

  9
$PUCSORG
 10
0.0
 20
0.0
 30
0.0
  9
$PUCSXDIR
 10
1.0
 20
0.0
 30
0.0
  9
$PUCSYDIR
 10
0.0
 20
1.0
 30
0.0
  9
$USERI1
 70
     0
  9
$USERI2
 70
     0
  9
$USERI3
 70
     0
  9
$USERI4
 70
     0
  9
$USERI5
 70
     0
  9
$USERR1
 40
0.0
  9
$USERR2
 40
0.0
  9
$USERR3
 40
0.0
  9
$USERR4
 40
0.0
  9
$USERR5
 40
0.0
  9
$WORLDVIEW
 70
     1
  9
$SHADEDGE
 70
     3
  9
$SHADEDIF
 70
    70
  9
$TILEMODE
 70
     1
  9
$MAXACTVP
 70
    64
  9
$PINSBASE
 10
0.0
 20
0.0
 30
0.0
  9
$PLIMCHECK
 70
     0
  9
$PEXTMIN
 10
1.000000000000000E+20
 20
1.000000000000000E+20
 30
1.000000000000000E+20
  9
$PEXTMAX
 10
-1.000000000000000E+20
 20
-1.000000000000000E+20
 30
-1.000000000000000E+20
  9
$PLIMMIN
 10
0.0
 20
0.0
  9
$PLIMMAX
 10
12.0
 20
9.0
  9
$UNITMODE
 70
     0
  9
$VISRETAIN
 70
     1
  9
$PLINEGEN
 70
     0
  9
$PSLTSCALE
 70
     1
  9
$TREEDEPTH
 70
  3020
  9
$PICKSTYLE
 70
     1
  9
$CMLSTYLE
  2
STANDARD
  9
$CMLJUST
 70
     0
  9
$CMLSCALE
 40
1.0
  9
$PROXYGRAPHICS
 70
     1
  9
$MEASUREMENT
 70
     0
  0
ENDSEC
  0
SECTION
  2
CLASSES
  0
CLASS
  1
ACDBDICTIONARYWDFLT
  2
AcDbDictionaryWithDefault
  3
ObjectDBX Classes
 90
        0
280
     0
281
     0
  0
CLASS
  1
VISUALSTYLE
  2
AcDbVisualStyle
  3
ObjectDBX Classes
 90
     4095
280
     0
281
     0
  0
CLASS
  1
MATERIAL
  2
AcDbMaterial
  3
ObjectDBX Classes
 90
     1153
280
     0
281
     0
  0
CLASS
  1
DICTIONARYVAR
  2
AcDbDictionaryVar
  3
ObjectDBX Classes
 90
        0
280
     0
281
     0
  0
CLASS
  1
XRECORD
  2
AcDbXrecord
  3
AutoCAD 2000
 90
        0
280
     0
281
     0
  0
CLASS
  1
LWPOLYLINE
  2
AcDbPolyline
  3
AutoCAD 2000
 90
        0
280
     0
281
     1
  0
CLASS
  1
HATCH
  2
AcDbHatch
  3
AutoCAD 2000
 90
        0
280
     0
281
     1
  0
CLASS
  1
ACDBPLACEHOLDER
  2
AcDbPlaceHolder
  3
ObjectDBX Classes
 90
        0
280
     0
281
     0
  0
CLASS
  1
LAYOUT
  2
AcDbLayout
  3
ObjectDBX Classes
 90
        0
280
     0
281
     0
  0
ENDSEC
  0
SECTION
  2
TABLES
  0
TABLE
  2
VPORT
  5
8
330
0
100
AcDbSymbolTable
 70
     1
  0
VPORT
  5
29
330
8
100
AcDbSymbolTableRecord
100
AcDbViewportTableRecord
  2
*ACTIVE
 70
     0
 10
0.0
 20
0.0
 11
1.0
 21
1.0
 12
10.42990654205607
 22
4.5
 13
0.0
 23
0.0
 14
0.5
 24
0.5
 15
0.5
 25
0.5
 16
0.0
 26
0.0
 36
1.0
 17
0.0
 27
0.0
 37
0.0
 40
9.0
 41
1.972972972850329
 42
50.0
 43
0.0
 44
0.0
 50
0.0
 51
0.0
 71
     0
 72
   100
 73
     1
 74
     3
 75
     0
 76
     0
 77
     0
 78
     0
  0
ENDTAB
  0
TABLE
  2
LTYPE
  5
5
330
0
100
AcDbSymbolTable
 70
     5
  0
LTYPE
  5
14
330
5
100
AcDbSymbolTableRecord
100
AcDbLinetypeTableRecord
  2
BYBLOCK
 70
     0
  3

 72
    65
 73
     0
 40
0.0
  0
LTYPE
  5
15
330
5
100
AcDbSymbolTableRecord
100
AcDbLinetypeTableRecord
  2
BYLAYER
 70
     0
  3

 72
    65
 73
     0
 40
0.0
  0
LTYPE
  5
16
330
5
100
AcDbSymbolTableRecord
100
AcDbLinetypeTableRecord
  2
CONTINUOUS
 70
     0
  3
Solid line
 72
    65
 73
     0
 40
0.0
  0
LTYPE
  5
76
330
5
100
AcDbSymbolTableRecord
100
AcDbLinetypeTableRecord
  2
NEW_LINE1
 70
     0
  3

 72
    65
 73
     4
 40
1.2
 49
0.5
 74
     4
 75
     0
340
0
 46
1.0
 50
0.0
 44
0.0
 45
0.0
 49
-0.3
 74
     4
 75
     0
340
0
 46
1.0
 50
0.0
 44
0.0
 45
0.0
 49
0.1
 74
     4
 75
     0
340
0
 46
1.0
 50
0.0
 44
0.0
 45
0.0
 49
-0.3
 74
     4
 75
     0
340
0
 46
1.0
 50
0.0
 44
0.0
 45
0.0
  0
LTYPE
  5
78
330
5
100
AcDbSymbolTableRecord
100
AcDbLinetypeTableRecord
  2
NEW_LINE2
 70
     0
  3

 72
    65
 73
     4
 40
1.2
 49
0.5
 74
     4
 75
     0
340
0
 46
1.0
 50
0.0
 44
0.0
 45
0.0
 49
-0.3
 74
     4
 75
     0
340
0
 46
1.0
 50
0.0
 44
0.0
 45
0.0
 49
0.1
 74
     4
 75
     0
340
0
 46
1.0
 50
0.0
 44
0.0
 45
0.0
 49
-0.3
 74
     4
 75
     0
340
0
 46
1.0
 50
0.0
 44
0.0
 45
0.0
  0
LTYPE
  5
7A
330
5
100
AcDbSymbolTableRecord
100
AcDbLinetypeTableRecord
  2
NEW_LINE3
 70
     0
  3

 72
    65
 73
     4
 40
1.2
 49
0.5
 74
     4
 75
     0
340
0
 46
1.0
 50
0.0
 44
0.0
 45
0.0
 49
-0.3
 74
     4
 75
     0
340
0
 46
1.0
 50
0.0
 44
0.0
 45
0.0
 49
0.1
 74
     4
 75
     0
340
0
 46
1.0
 50
0.0
 44
0.0
 45
0.0
 49
-0.3
 74
     4
 75
     0
340
0
 46
1.0
 50
0.0
 44
0.0
 45
0.0
  0
LTYPE
  5
7C
330
5
100
AcDbSymbolTableRecord
100
AcDbLinetypeTableRecord
  2
NEW_LINE4
 70
     0
  3

 72
    65
 73
     4
 40
1.2
 49
0.5
 74
     4
 75
     0
340
0
 46
1.0
 50
0.0
 44
0.0
 45
0.0
 49
-0.3
 74
     4
 75
     0
340
0
 46
1.0
 50
0.0
 44
0.0
 45
0.0
 49
0.1
 74
     4
 75
     0
340
0
 46
1.0
 50
0.0
 44
0.0
 45
0.0
 49
-0.3
 74
     4
 75
     0
340
0
 46
1.0
 50
0.0
 44
0.0
 45
0.0
  0
ENDTAB
  0
TABLE
  2
LAYER
  5
2
330
0
100
AcDbSymbolTable
 70
     2
  0
LAYER
  5
10
330
2
100
AcDbSymbolTableRecord
100
AcDbLayerTableRecord
  2
0
 70
     0
 62
     7
  6
CONTINUOUS
  0
LAYER
  5
40
330
2
100
AcDbSymbolTableRecord
100
AcDbLayerTableRecord
  2
DEFAULT_1
 70
     0
 62
     7
  6
CONTINUOUS
  0
ENDTAB
  0
TABLE
  2
STYLE
  5
3
330
0
100
AcDbSymbolTable
 70
     1
  0
STYLE
  5
11
330
3
100
AcDbSymbolTableRecord
100
AcDbTextStyleTableRecord
  2
STANDARD
 70
     0
 40
0.0
 41
1.0
 50
0.0
 71
     0
 42
0.2
  3
txt
  4

  0
ENDTAB
  0
TABLE
  2
VIEW
  5
6
330
0
100
AcDbSymbolTable
 70
     0
  0
ENDTAB
  0
TABLE
  2
UCS
  5
7
330
0
100
AcDbSymbolTable
 70
     0
  0
ENDTAB
  0
TABLE
  2
APPID
  5
9
330
0
100
AcDbSymbolTable
 70
     2
  0
APPID
  5
12
330
9
100
AcDbSymbolTableRecord
100
AcDbRegAppTableRecord
  2
ACAD
 70
     0
  0
APPID
  5
3F
330
9
100
AcDbSymbolTableRecord
100
AcDbRegAppTableRecord
  2
ODA
 70
     0
  0
ENDTAB
  0
TABLE
  2
DIMSTYLE
  5
A
330
0
100
AcDbSymbolTable
 70
     1
  0
DIMSTYLE
105
27
330
A
100
AcDbSymbolTableRecord
100
AcDbDimStyleTableRecord
  2
STANDARD
 70
     0
  3

  4

  5

  6

  7

 40
1.0
 41
0.18
 42
0.0625
 43
0.38
 44
0.18
 45
0.0
 46
0.0
 47
0.0
 48
0.0
140
0.18
141
0.09
142
0.0
143
25.4
144
1.0
145
0.0
146
1.0
147
0.09
 71
     0
 72
     0
 73
     1
 74
     1
 75
     0
 76
     0
 77
     0
 78
     0
170
     0
171
     2
172
     0
173
     0
174
     0
175
     0
176
     0
177
     0
178
     0
270
     2
271
     4
272
     4
273
     2
274
     2
340
11
275
     0
280
     0
281
     0
282
     0
283
     1
284
     0
285
     0
286
     0
287
     3
288
     0
  0
ENDTAB
  0
TABLE
  2
BLOCK_RECORD
  5
1
330
0
100
AcDbSymbolTable
 70
     1
  0
BLOCK_RECORD
  5
1F
330
1
100
AcDbSymbolTableRecord
100
AcDbBlockTableRecord
  2
*MODEL_SPACE
  0
BLOCK_RECORD
  5
1B
330
1
100
AcDbSymbolTableRecord
100
AcDbBlockTableRecord
  2
*PAPER_SPACE
  0
ENDTAB
  0
ENDSEC
  0
SECTION
  2
BLOCKS
  0
BLOCK
  5
20
330
1F
100
AcDbEntity
  8
0
100
AcDbBlockBegin
  2
*MODEL_SPACE
 70
     0
 10
0.0
 20
0.0
 30
0.0
  3
*MODEL_SPACE
  1

  0
ENDBLK
  5
21
330
1F
100
AcDbEntity
  8
0
100
AcDbBlockEnd
  0
BLOCK
  5
1C
330
1B
100
AcDbEntity
 67
     1
  8
0
100
AcDbBlockBegin
  2
*PAPER_SPACE
 70
     0
 10
0.0
 20
0.0
 30
0.0
  3
*PAPER_SPACE
  1

  0
ENDBLK
  5
1D
330
1B
100
AcDbEntity
 67
     1
  8
0
100
AcDbBlockEnd
  0
ENDSEC
  0
SECTION
  2
ENTITIES
  0
SPLINE
  5
41
330
1F
100
AcDbEntity
  8
DEFAULT_1
 62
   250
100
AcDbSpline
210
0.0
220
0.0
230
1.0
 70
    24
 71
     3
 72
     8
 73
     4
 74
     0
 42
0.0000000001
 43
0.0000000001
 40
0.0
 40
0.0
 40
0.0
 40
0.0
 40
1.0
 40
1.0
 40
1.0
 40
1.0
 10
-12.6899
 20
-25.0397
 30
0.0
 10
-12.6899
 20
-25.0397
 30
0.0
 10
-18.6356
 20
-25.0397
 30
0.0
 10
-18.6356
 20
-25.0397
 30
0.0
  0
SPLINE
  5
42
330
1F
100
AcDbEntity
  8
DEFAULT_1
 62
   250
100
AcDbSpline
210
0.0
220
0.0
230
1.0
 70
    24
 71
     3
 72
     8
 73
     4
 74
     0
 42
0.0000000001
 43
0.0000000001
 40
0.0
 40
0.0
 40
0.0
 40
0.0
 40
1.0
 40
1.0
 40
1.0
 40
1.0
 10
-12.7423
 20
-7.1348
 30
0.0
 10
-12.7423
 20
-7.1348
 30
0.0
 10
-18.6356
 20
-7.1348
 30
0.0
 10
-18.6356
 20
-7.1348
 30
0.0
  0
SPLINE
  5
43
330
1F
100
AcDbEntity
  8
DEFAULT_1
 62
   250
100
AcDbSpline
210
0.0
220
0.0
230
1.0
 70
    24
 71
     3
 72
     8
 73
     4
 74
     0
 42
0.0000000001
 43
0.0000000001
 40
0.0
 40
0.0
 40
0.0
 40
0.0
 40
1.0
 40
1.0
 40
1.0
 40
1.0
 10
-18.4651
 20
-7.959
 30
0.0
 10
-18.4651
 20
-7.959
 30
0.0
 10
-18.4651
 20
-24.5464
 30
0.0
 10
-18.4651
 20
-24.5464
 30
0.0
  0
SPLINE
  5
44
330
1F
100
AcDbEntity
  8
DEFAULT_1
 62
   250
100
AcDbSpline
210
0.0
220
0.0
230
1.0
 70
    24
 71
     3
 72
     8
 73
     4
 74
     0
 42
0.0000000001
 43
0.0000000001
 40
0.0
 40
0.0
 40
0.0
 40
0.0
 40
1.0
 40
1.0
 40
1.0
 40
1.0
 10
-12.3648
 20
-25.6815
 30
0.0
 10
-12.3648
 20
-25.6815
 30
0.0
 10
-12.3648
 20
-34.1119
 30
0.0
 10
-12.3648
 20
-34.1119
 30
0.0
  0
SPLINE
  5
45
330
1F
100
AcDbEntity
  8
DEFAULT_1
 62
   250
100
AcDbSpline
210
0.0
220
0.0
230
1.0
 70
    24
 71
     3
 72
     8
 73
     4
 74
     0
 42
0.0000000001
 43
0.0000000001
 40
0.0
 40
0.0
 40
0.0
 40
0.0
 40
1.0
 40
1.0
 40
1.0
 40
1.0
 10
5.5401
 20
-25.451
 30
0.0
 10
5.5401
 20
-25.451
 30
0.0
 10
5.5401
 20
-34.4945
 30
0.0
 10
5.5401
 20
-34.4945
 30
0.0
  0
SPLINE
  5
46
330
1F
100
AcDbEntity
  8
DEFAULT_1
 62
   250
100
AcDbSpline
210
0.0
220
0.0
230
1.0
 70
    24
 71
     3
 72
     8
 73
     4
 74
     0
 42
0.0000000001
 43
0.0000000001
 40
0.0
 40
0.0
 40
0.0
 40
0.0
 40
1.0
 40
1.0
 40
1.0
 40
1.0
 10
5.4917
 20
-33.6489
 30
0.0
 10
5.4917
 20
-33.6489
 30
0.0
 10
-11.9477
 20
-33.6489
 30
0.0
 10
-11.9477
 20
-33.6489
 30
0.0
  0
SPLINE
  5
47
330
1F
100
AcDbEntity
  8
DEFAULT_1
 62
   250
100
AcDbSpline
210
0.0
220
0.0
230
1.0
 70
    24
 71
     3
 72
     8
 73
     4
 74
     0
 42
0.0000000001
 43
0.0000000001
 40
0.0
 40
0.0
 40
0.0
 40
0.0
 40
1.0
 40
1.0
 40
1.0
 40
1.0
 10
17.349
 20
0.465
 30
0.0
 10
17.349
 20
0.465
 30
0.0
 10
21.7772
 20
0.2594
 30
0.0
 10
21.7772
 20
0.2594
 30
0.0
  0
SPLINE
  5
48
330
1F
100
AcDbEntity
  8
DEFAULT_1
 62
   250
100
AcDbSpline
210
0.0
220
0.0
230
1.0
 70
    24
 71
     3
 72
     8
 73
     4
 74
     0
 42
0.0000000001
 43
0.0000000001
 40
0.0
 40
0.0
 40
0.0
 40
0.0
 40
1.0
 40
1.0
 40
1.0
 40
1.0
 10
21.5612
 20
12.4158
 30
0.0
 10
21.5612
 20
12.4158
 30
0.0
 10
21.0111
 20
-3.3394
 30
0.0
 10
21.0111
 20
-3.3394
 30
0.0
  0
SPLINE
  5
49
330
1F
100
AcDbEntity
  8
DEFAULT_1
 62
   250
100
AcDbSpline
210
0.0
220
0.0
230
1.0
 70
    24
 71
     3
 72
     8
 73
     4
 74
     0
 42
0.0000000001
 43
0.0000000001
 40
0.0
 40
0.0
 40
0.0
 40
0.0
 40
1.0
 40
1.0
 40
1.0
 40
1.0
 10
-10.6585
 20
0.9474
 30
0.0
 10
-10.6585
 20
0.9474
 30
0.0
 10
-20.2926
 20
0.9474
 30
0.0
 10
-20.2926
 20
0.9474
 30
0.0
  0
SPLINE
  5
4A
330
1F
100
AcDbEntity
  8
DEFAULT_1
 62
   250
100
AcDbSpline
210
0.0
220
0.0
230
1.0
 70
    24
 71
     3
 72
     8
 73
     4
 74
     0
 42
0.0000000001
 43
0.0000000001
 40
0.0
 40
0.0
 40
0.0
 40
0.0
 40
1.0
 40
1.0
 40
1.0
 40
1.0
 10
-19.612
 20
14.4187
 30
0.0
 10
-19.612
 20
14.4187
 30
0.0
 10
-19.612
 20
1.4719
 30
0.0
 10
-19.612
 20
1.4719
 30
0.0
  0
SPLINE
  5
4B
330
1F
100
AcDbEntity
  8
DEFAULT_1
 62
   250
100
AcDbSpline
210
0.0
220
0.0
230
1.0
 70
    24
 71
     3
 72
     8
 73
     4
 74
     0
 42
0.0000000001
 43
0.0000000001
 40
0.0
 40
0.0
 40
0.0
 40
0.0
 40
1.0
 40
1.0
 40
1.0
 40
1.0
 10
-19.6146
 20
29.9901
 30
0.0
 10
-19.6146
 20
29.9901
 30
0.0
 10
-19.6146
 20
14.4069
 30
0.0
 10
-19.6146
 20
14.4069
 30
0.0
  0
SPLINE
  5
4C
330
1F
100
AcDbEntity
  8
DEFAULT_1
 62
   250
100
AcDbSpline
210
0.0
220
0.0
230
1.0
 70
    24
 71
     3
 72
     8
 73
     4
 74
     0
 42
0.0000000001
 43
0.0000000001
 40
0.0
 40
0.0
 40
0.0
 40
0.0
 40
1.0
 40
1.0
 40
1.0
 40
1.0
 10
-17.1497
 20
12.4301
 30
0.0
 10
-17.1497
 20
12.4301
 30
0.0
 10
-17.1497
 20
32.553
 30
0.0
 10
-17.1497
 20
32.553
 30
0.0
  0
SPLINE
  5
4D
330
1F
100
AcDbEntity
  8
DEFAULT_1
 62
   250
100
AcDbSpline
210
0.0
220
0.0
230
1.0
 70
    24
 71
     3
 72
     8
 73
     4
 74
     0
 42
0.0000000001
 43
0.0000000001
 40
0.0
 40
0.0
 40
0.0
 40
0.0
 40
1.0
 40
1.0
 40
1.0
 40
1.0
 10
10.1339
 20
12.4632
 30
0.0
 10
10.1339
 20
12.4632
 30
0.0
 10
10.1339
 20
32.3546
 30
0.0
 10
10.1339
 20
32.3546
 30
0.0
  0
SPLINE
  5
4E
330
1F
100
AcDbEntity
  8
DEFAULT_1
 62
   250
100
AcDbSpline
210
0.0
220
0.0
230
1.0
 70
    24
 71
     3
 72
     8
 73
     4
 74
     0
 42
0.0000000001
 43
0.0000000001
 40
0.0
 40
0.0
 40
0.0
 40
0.0
 40
1.0
 40
1.0
 40
1.0
 40
1.0
 10
10.1339
 20
31.781
 30
0.0
 10
10.1339
 20
31.781
 30
0.0
 10
-16.6461
 20
31.781
 30
0.0
 10
-16.6461
 20
31.781
 30
0.0
  0
SPLINE
  5
4F
330
1F
100
AcDbEntity
  8
DEFAULT_1
 62
   250
100
AcDbSpline
210
0.0
220
0.0
230
1.0
 70
    24
 71
     3
 72
     8
 73
     4
 74
     0
 42
0.0000000001
 43
0.0000000001
 40
0.0
 40
0.0
 40
0.0
 40
0.0
 40
1.0
 40
1.0
 40
1.0
 40
1.0
 10
2.1952
 20
0.9473
 30
0.0
 10
2.1952
 20
0.9473
 30
0.0
 10
2.2493
 20
0.9479
 30
0.0
 10
2.2493
 20
0.9479
 30
0.0
  0
SPLINE
  5
50
330
1F
100
AcDbEntity
  8
DEFAULT_1
 62
   250
100
AcDbSpline
210
0.0
220
0.0
230
1.0
 70
    24
 71
     3
 72
     8
 73
     4
 74
     0
 42
0.0000000001
 43
0.0000000001
 40
0.0
 40
0.0
 40
0.0
 40
0.0
 40
1.0
 40
1.0
 40
1.0
 40
1.0
 10
-12.3648
 20
-7.22
 30
0.0
 10
-12.3648
 20
-7.22
 30
0.0
 10
-12.3648
 20
-24.9544
 30
0.0
 10
-12.3648
 20
-24.9544
 30
0.0
  0
SPLINE
  5
51
330
1F
100
AcDbEntity
  8
DEFAULT_1
 62
   250
100
AcDbSpline
210
0.0
220
0.0
230
1.0
 70
    24
 71
     3
 72
     8
 73
     4
 74
     0
 42
0.0000000001
 43
0.0000000001
 40
0.0
 40
0.0
 40
0.0
 40
0.0
 40
1.0
 40
1.0
 40
1.0
 40
1.0
 10
-12.109
 20
-7.3906
 30
0.0
 10
-12.109
 20
-7.3906
 30
0.0
 10
-12.109
 20
-24.7839
 30
0.0
 10
-12.109
 20
-24.7839
 30
0.0
  0
SPLINE
  5
52
330
1F
100
AcDbEntity
  8
DEFAULT_1
 62
   250
100
AcDbSpline
210
0.0
220
0.0
230
1.0
 70
    24
 71
     3
 72
     8
 73
     4
 74
     0
 42
0.0000000001
 43
0.0000000001
 40
0.0
 40
0.0
 40
0.0
 40
0.0
 40
1.0
 40
1.0
 40
1.0
 40
1.0
 10
-12.2796
 20
-25.0397
 30
0.0
 10
-12.2796
 20
-25.0397
 30
0.0
 10
5.4548
 20
-25.0397
 30
0.0
 10
5.4548
 20
-25.0397
 30
0.0
  0
SPLINE
  5
53
330
1F
100
AcDbEntity
  8
DEFAULT_1
 62
   250
100
AcDbSpline
210
0.0
220
0.0
230
1.0
 70
    24
 71
     3
 72
     8
 73
     4
 74
     0
 42
0.0000000001
 43
0.0000000001
 40
0.0
 40
0.0
 40
0.0
 40
0.0
 40
1.0
 40
1.0
 40
1.0
 40
1.0
 10
-12.109
 20
-24.7839
 30
0.0
 10
-12.109
 20
-24.7839
 30
0.0
 10
5.2843
 20
-24.7839
 30
0.0
 10
5.2843
 20
-24.7839
 30
0.0
  0
SPLINE
  5
54
330
1F
100
AcDbEntity
  8
DEFAULT_1
 62
   250
100
AcDbSpline
210
0.0
220
0.0
230
1.0
 70
    24
 71
     3
 72
     8
 73
     4
 74
     0
 42
0.0000000001
 43
0.0000000001
 40
0.0
 40
0.0
 40
0.0
 40
0.0
 40
1.0
 40
1.0
 40
1.0
 40
1.0
 10
17.0052
 20
-20.1673
 30
0.0
 10
17.0052
 20
-20.1673
 30
0.0
 10
16.3236
 20
-20.3501
 30
0.0
 10
16.3236
 20
-20.3501
 30
0.0
  0
SPLINE
  5
55
330
1F
100
AcDbEntity
  8
DEFAULT_1
 62
   250
100
AcDbSpline
210
0.0
220
0.0
230
1.0
 70
    24
 71
     3
 72
     8
 73
     4
 74
     0
 42
0.0000000001
 43
0.0000000001
 40
0.0
 40
0.0
 40
0.0
 40
0.0
 40
1.0
 40
1.0
 40
1.0
 40
1.0
 10
16.3222
 20
-20.3503
 30
0.0
 10
16.3222
 20
-20.3503
 30
0.0
 10
16.3236
 20
-20.3501
 30
0.0
 10
16.3236
 20
-20.3501
 30
0.0
  0
SPLINE
  5
56
330
1F
100
AcDbEntity
  8
DEFAULT_1
 62
   250
100
AcDbSpline
210
0.0
220
0.0
230
1.0
 70
    24
 71
     3
 72
     8
 73
     4
 74
     0
 42
0.0000000001
 43
0.0000000001
 40
0.0
 40
0.0
 40
0.0
 40
0.0
 40
1.0
 40
1.0
 40
1.0
 40
1.0
 10
9.5375
 20
-20.3503
 30
0.0
 10
9.5375
 20
-20.3503
 30
0.0
 10
16.3222
 20
-20.3503
 30
0.0
 10
16.3222
 20
-20.3503
 30
0.0
  0
SPLINE
  5
57
330
1F
100
AcDbEntity
  8
DEFAULT_1
 62
   250
100
AcDbSpline
210
0.0
220
0.0
230
1.0
 70
    24
 71
     3
 72
     8
 73
     4
 74
     0
 42
0.0000000001
 43
0.0000000001
 40
0.0
 40
0.0
 40
0.0
 40
0.0
 40
1.0
 40
1.0
 40
1.0
 40
1.0
 10
9.5375
 20
-11.8242
 30
0.0
 10
9.5375
 20
-11.8242
 30
0.0
 10
16.3222
 20
-11.8242
 30
0.0
 10
16.3222
 20
-11.8242
 30
0.0
  0
SPLINE
  5
58
330
1F
100
AcDbEntity
  8
DEFAULT_1
 62
   250
100
AcDbSpline
210
0.0
220
0.0
230
1.0
 70
    24
 71
     3
 72
     8
 73
     4
 74
     0
 42
0.0000000001
 43
0.0000000001
 40
0.0
 40
0.0
 40
0.0
 40
0.0
 40
1.0
 40
1.0
 40
1.0
 40
1.0
 10
5.2843
 20
-24.7839
 30
0.0
 10
5.2843
 20
-24.7839
 30
0.0
 10
5.2843
 20
-7.3906
 30
0.0
 10
5.2843
 20
-7.3906
 30
0.0
  0
SPLINE
  5
59
330
1F
100
AcDbEntity
  8
DEFAULT_1
 62
   250
100
AcDbSpline
210
0.0
220
0.0
230
1.0
 70
    24
 71
     3
 72
     8
 73
     4
 74
     0
 42
0.0000000001
 43
0.0000000001
 40
0.0
 40
0.0
 40
0.0
 40
0.0
 40
1.0
 40
1.0
 40
1.0
 40
1.0
 10
5.5401
 20
-24.9544
 30
0.0
 10
5.5401
 20
-24.9544
 30
0.0
 10
5.5401
 20
-7.22
 30
0.0
 10
5.5401
 20
-7.22
 30
0.0
  0
SPLINE
  5
5A
330
1F
100
AcDbEntity
  8
DEFAULT_1
 62
   250
100
AcDbSpline
210
0.0
220
0.0
230
1.0
 70
    24
 71
     3
 72
     8
 73
     4
 74
     0
 42
0.0000000001
 43
0.0000000001
 40
0.0
 40
0.0
 40
0.0
 40
0.0
 40
1.0
 40
1.0
 40
1.0
 40
1.0
 10
16.3236
 20
-11.8244
 30
0.0
 10
16.3236
 20
-11.8244
 30
0.0
 10
16.3222
 20
-11.8242
 30
0.0
 10
16.3222
 20
-11.8242
 30
0.0
  0
SPLINE
  5
5B
330
1F
100
AcDbEntity
  8
DEFAULT_1
 62
   250
100
AcDbSpline
210
0.0
220
0.0
230
1.0
 70
    24
 71
     3
 72
     8
 73
     4
 74
     0
 42
0.0000000001
 43
0.0000000001
 40
0.0
 40
0.0
 40
0.0
 40
0.0
 40
1.0
 40
1.0
 40
1.0
 40
1.0
 10
5.2843
 20
-7.3906
 30
0.0
 10
5.2843
 20
-7.3906
 30
0.0
 10
-12.109
 20
-7.3906
 30
0.0
 10
-12.109
 20
-7.3906
 30
0.0
  0
SPLINE
  5
5C
330
1F
100
AcDbEntity
  8
DEFAULT_1
 62
   250
100
AcDbSpline
210
0.0
220
0.0
230
1.0
 70
    24
 71
     3
 72
     8
 73
     4
 74
     0
 42
0.0000000001
 43
0.0000000001
 40
0.0
 40
0.0
 40
0.0
 40
0.0
 40
1.0
 40
1.0
 40
1.0
 40
1.0
 10
17.0052
 20
-12.0071
 30
0.0
 10
17.0052
 20
-12.0071
 30
0.0
 10
16.3236
 20
-11.8244
 30
0.0
 10
16.3236
 20
-11.8244
 30
0.0
  0
SPLINE
  5
5D
330
1F
100
AcDbEntity
  8
DEFAULT_1
 62
   250
100
AcDbSpline
210
0.0
220
0.0
230
1.0
 70
    24
 71
     3
 72
     8
 73
     4
 74
     0
 42
0.0000000001
 43
0.0000000001
 40
0.0
 40
0.0
 40
0.0
 40
0.0
 40
1.0
 40
1.0
 40
1.0
 40
1.0
 10
5.4548
 20
-7.1348
 30
0.0
 10
5.4548
 20
-7.1348
 30
0.0
 10
-12.2796
 20
-7.1348
 30
0.0
 10
-12.2796
 20
-7.1348
 30
0.0
  0
SPLINE
  5
5E
330
1F
100
AcDbEntity
  8
DEFAULT_1
 62
   250
100
AcDbSpline
210
0.0
220
0.0
230
1.0
 70
     8
 71
     3
 72
     8
 73
     4
 74
     0
 42
0.0000000001
 43
0.0000000001
 40
0.0
 40
0.0
 40
0.0
 40
0.0
 40
1.0
 40
1.0
 40
1.0
 40
1.0
 10
5.5401
 20
-7.22
 30
0.0
 10
5.5401
 20
-7.173
 30
0.0
 10
5.5019
 20
-7.1348
 30
0.0
 10
5.4548
 20
-7.1348
 30
0.0
  0
SPLINE
  5
5F
330
1F
100
AcDbEntity
  8
DEFAULT_1
 62
   250
100
AcDbSpline
210
0.0
220
0.0
230
1.0
 70
     8
 71
     3
 72
     8
 73
     4
 74
     0
 42
0.0000000001
 43
0.0000000001
 40
0.0
 40
0.0
 40
0.0
 40
0.0
 40
1.0
 40
1.0
 40
1.0
 40
1.0
 10
-12.2796
 20
-7.1348
 30
0.0
 10
-12.3267
 20
-7.1348
 30
0.0
 10
-12.3648
 20
-7.173
 30
0.0
 10
-12.3648
 20
-7.22
 30
0.0
  0
SPLINE
  5
60
330
1F
100
AcDbEntity
  8
DEFAULT_1
 62
   250
100
AcDbSpline
210
0.0
220
0.0
230
1.0
 70
     8
 71
     3
 72
     8
 73
     4
 74
     0
 42
0.0000000001
 43
0.0000000001
 40
0.0
 40
0.0
 40
0.0
 40
0.0
 40
1.0
 40
1.0
 40
1.0
 40
1.0
 10
-12.3648
 20
-24.9544
 30
0.0
 10
-12.3648
 20
-25.0015
 30
0.0
 10
-12.3267
 20
-25.0397
 30
0.0
 10
-12.2796
 20
-25.0397
 30
0.0
  0
SPLINE
  5
61
330
1F
100
AcDbEntity
  8
DEFAULT_1
 62
   250
100
AcDbSpline
210
0.0
220
0.0
230
1.0
 70
     8
 71
     3
 72
     8
 73
     4
 74
     0
 42
0.0000000001
 43
0.0000000001
 40
0.0
 40
0.0
 40
0.0
 40
0.0
 40
1.0
 40
1.0
 40
1.0
 40
1.0
 10
5.4548
 20
-25.0397
 30
0.0
 10
5.5019
 20
-25.0397
 30
0.0
 10
5.5401
 20
-25.0015
 30
0.0
 10
5.5401
 20
-24.9544
 30
0.0
  0
SPLINE
  5
62
330
1F
100
AcDbEntity
  8
DEFAULT_1
 62
   250
100
AcDbSpline
210
0.0
220
0.0
230
1.0
 70
     8
 71
     3
 72
     8
 73
     4
 74
     0
 42
0.0000000001
 43
0.0000000001
 40
0.0
 40
0.0
 40
0.0
 40
0.0
 40
1.0
 40
1.0
 40
1.0
 40
1.0
 10
-0.6475
 20
-7.1253
 30
0.0
 10
-2.4489
 20
-6.5696
 30
0.0
 10
-4.3759
 20
-6.5696
 30
0.0
 10
-6.1772
 20
-7.1253
 30
0.0
  0
SPLINE
  5
63
330
1F
100
AcDbEntity
  8
DEFAULT_1
 62
   250
100
AcDbSpline
210
0.0
220
0.0
230
1.0
 70
     8
 71
     3
 72
     8
 73
     4
 74
     0
 42
0.0000000001
 43
0.0000000001
 40
0.0
 40
0.0
 40
0.0
 40
0.0
 40
1.0
 40
1.0
 40
1.0
 40
1.0
 10
5.5496
 20
-18.8521
 30
0.0
 10
6.1053
 20
-17.0508
 30
0.0
 10
6.1053
 20
-15.1237
 30
0.0
 10
5.5496
 20
-13.3224
 30
0.0
  0
SPLINE
  5
64
330
1F
100
AcDbEntity
  8
DEFAULT_1
 62
   250
100
AcDbSpline
210
0.0
220
0.0
230
1.0
 70
     8
 71
     3
 72
     8
 73
     4
 74
     0
 42
0.0000000001
 43
0.0000000001
 40
0.0
 40
0.0
 40
0.0
 40
0.0
 40
1.0
 40
1.0
 40
1.0
 40
1.0
 10
-6.1772
 20
-25.0492
 30
0.0
 10
-4.3759
 20
-25.6049
 30
0.0
 10
-2.4489
 20
-25.6049
 30
0.0
 10
-0.6475
 20
-25.0492
 30
0.0
  0
SPLINE
  5
65
330
1F
100
AcDbEntity
  8
DEFAULT_1
 62
   250
100
AcDbSpline
210
0.0
220
0.0
230
1.0
 70
     8
 71
     3
 72
     8
 73
     4
 74
     0
 42
0.0000000001
 43
0.0000000001
 40
0.0
 40
0.0
 40
0.0
 40
0.0
 40
1.0
 40
1.0
 40
1.0
 40
1.0
 10
-12.3743
 20
-13.3224
 30
0.0
 10
-12.9301
 20
-15.1237
 30
0.0
 10
-12.9301
 20
-17.0508
 30
0.0
 10
-12.3743
 20
-18.8521
 30
0.0
  0
SPLINE
  5
66
330
1F
100
AcDbEntity
  8
DEFAULT_1
 62
   250
100
AcDbSpline
210
0.0
220
0.0
230
1.0
 70
    11
 71
     3
 72
    20
 73
    16
 74
     0
 42
0.0000000001
 43
0.0000000001
 40
0.0
 40
0.0
 40
0.0
 40
0.0
 40
0.2
 40
0.2
 40
0.2
 40
0.2
 40
0.4
 40
0.4
 40
0.4
 40
0.4
 40
0.6
 40
0.6
 40
0.6
 40
0.6
 40
1.0
 40
1.0
 40
1.0
 40
1.0
 10
10.2295
 20
-16.0872
 30
0.0
 10
10.2295
 20
-8.5531
 30
0.0
 10
4.1218
 20
-2.4454
 30
0.0
 10
-3.4124
 20
-2.4454
 30
0.0
 10
-3.4124
 20
-2.4454
 30
0.0
 10
-10.9465
 20
-2.4454
 30
0.0
 10
-17.0542
 20
-8.553
 30
0.0
 10
-17.0542
 20
-16.0872
 30
0.0
 10
-17.0542
 20
-16.0872
 30
0.0
 10
-17.0542
 20
-23.6214
 30
0.0
 10
-10.9465
 20
-29.7291
 30
0.0
 10
-3.4124
 20
-29.7291
 30
0.0
 10
-3.4124
 20
-29.7291
 30
0.0
 10
4.1218
 20
-29.7291
 30
0.0
 10
10.2295
 20
-23.6214
 30
0.0
 10
10.2295
 20
-16.0872
 30
0.0
  0
SPLINE
  5
67
330
1F
100
AcDbEntity
  8
DEFAULT_1
 62
   250
100
AcDbSpline
210
0.0
220
0.0
230
1.0
 70
     8
 71
     3
 72
    40
 73
    36
 74
     0
 42
0.0000000001
 43
0.0000000001
 40
0.0
 40
0.0
 40
0.0
 40
0.0
 40
0.1
 40
0.1
 40
0.1
 40
0.1
 40
0.2
 40
0.2
 40
0.2
 40
0.2
 40
0.3
 40
0.3
 40
0.3
 40
0.3
 40
0.4
 40
0.4
 40
0.4
 40
0.4
 40
0.5
 40
0.5
 40
0.5
 40
0.5
 40
0.6
 40
0.6
 40
0.6
 40
0.6
 40
0.7
 40
0.7
 40
0.7
 40
0.7
 40
0.8
 40
0.8
 40
0.8
 40
0.8
 40
1.0
 40
1.0
 40
1.0
 40
1.0
 10
17.005
 20
-20.1515
 30
0.0
 10
17.005
 20
-20.1515
 30
0.0
 10
17.0171
 20
-20.15
 30
0.0
 10
17.0171
 20
-20.15
 30
0.0
 10
17.0171
 20
-20.15
 30
0.0
 10
17.0171
 20
-20.15
 30
0.0
 10
17.0431
 20
-20.0102
 30
0.0
 10
17.0431
 20
-20.0102
 30
0.0
 10
17.0431
 20
-20.0102
 30
0.0
 10
17.0431
 20
-20.0102
 30
0.0
 10
17.0677
 20
-19.7354
 30
0.0
 10
17.0677
 20
-19.7354
 30
0.0
 10
17.0677
 20
-19.7354
 30
0.0
 10
17.0677
 20
-19.7354
 30
0.0
 10
17.0901
 20
-19.3354
 30
0.0
 10
17.0901
 20
-19.3354
 30
0.0
 10
17.0901
 20
-19.3354
 30
0.0
 10
17.0901
 20
-19.3354
 30
0.0
 10
17.1095
 20
-18.8236
 30
0.0
 10
17.1095
 20
-18.8236
 30
0.0
 10
17.1095
 20
-18.8236
 30
0.0
 10
17.1095
 20
-18.8236
 30
0.0
 10
17.1254
 20
-18.2165
 30
0.0
 10
17.1254
 20
-18.2165
 30
0.0
 10
17.1254
 20
-18.2165
 30
0.0
 10
17.1254
 20
-18.2165
 30
0.0
 10
17.137
 20
-17.5378
 30
0.0
 10
17.137
 20
-17.5378
 30
0.0
 10
17.137
 20
-17.5378
 30
0.0
 10
17.137
 20
-17.5378
 30
0.0
 10
17.144
 20
-16.8175
 30
0.0
 10
17.144
 20
-16.8175
 30
0.0
 10
17.144
 20
-16.8175
 30
0.0
 10
17.144
 20
-16.8175
 30
0.0
 10
17.1463
 20
-16.0872
 30
0.0
 10
17.1463
 20
-16.0872
 30
0.0
  0
SPLINE
  5
68
330
1F
100
AcDbEntity
  8
DEFAULT_1
 62
   250
100
AcDbSpline
210
0.0
220
0.0
230
1.0
 70
     8
 71
     3
 72
    40
 73
    36
 74
     0
 42
0.0000000001
 43
0.0000000001
 40
0.0
 40
0.0
 40
0.0
 40
0.0
 40
0.1
 40
0.1
 40
0.1
 40
0.1
 40
0.2
 40
0.2
 40
0.2
 40
0.2
 40
0.3
 40
0.3
 40
0.3
 40
0.3
 40
0.4
 40
0.4
 40
0.4
 40
0.4
 40
0.5
 40
0.5
 40
0.5
 40
0.5
 40
0.6
 40
0.6
 40
0.6
 40
0.6
 40
0.7
 40
0.7
 40
0.7
 40
0.7
 40
0.8
 40
0.8
 40
0.8
 40
0.8
 40
1.0
 40
1.0
 40
1.0
 40
1.0
 10
17.1463
 20
-16.0872
 30
0.0
 10
17.1463
 20
-16.0872
 30
0.0
 10
17.1438
 20
-15.335
 30
0.0
 10
17.1438
 20
-15.335
 30
0.0
 10
17.1438
 20
-15.335
 30
0.0
 10
17.1438
 20
-15.335
 30
0.0
 10
17.1366
 20
-14.6082
 30
0.0
 10
17.1366
 20
-14.6082
 30
0.0
 10
17.1366
 20
-14.6082
 30
0.0
 10
17.1366
 20
-14.6082
 30
0.0
 10
17.1248
 20
-13.9321
 30
0.0
 10
17.1248
 20
-13.9321
 30
0.0
 10
17.1248
 20
-13.9321
 30
0.0
 10
17.1248
 20
-13.9321
 30
0.0
 10
17.1089
 20
-13.33
 30
0.0
 10
17.1089
 20
-13.33
 30
0.0
 10
17.1089
 20
-13.33
 30
0.0
 10
17.1089
 20
-13.33
 30
0.0
 10
17.0893
 20
-12.8225
 30
0.0
 10
17.0893
 20
-12.8225
 30
0.0
 10
17.0893
 20
-12.8225
 30
0.0
 10
17.0893
 20
-12.8225
 30
0.0
 10
17.0668
 20
-12.427
 30
0.0
 10
17.0668
 20
-12.427
 30
0.0
 10
17.0668
 20
-12.427
 30
0.0
 10
17.0668
 20
-12.427
 30
0.0
 10
17.0422
 20
-12.1572
 30
0.0
 10
17.0422
 20
-12.1572
 30
0.0
 10
17.0422
 20
-12.1572
 30
0.0
 10
17.0422
 20
-12.1572
 30
0.0
 10
17.0162
 20
-12.0223
 30
0.0
 10
17.0162
 20
-12.0223
 30
0.0
 10
17.0162
 20
-12.0223
 30
0.0
 10
17.0162
 20
-12.0223
 30
0.0
 10
17.0069
 20
-12.0224
 30
0.0
 10
17.0069
 20
-12.0224
 30
0.0
  0
SPLINE
  5
69
330
1F
100
AcDbEntity
  8
DEFAULT_1
 62
   250
100
AcDbSpline
210
0.0
220
0.0
230
1.0
 70
     8
 71
     3
 72
    40
 73
    36
 74
     0
 42
0.0000000001
 43
0.0000000001
 40
0.0
 40
0.0
 40
0.0
 40
0.0
 40
0.1
 40
0.1
 40
0.1
 40
0.1
 40
0.2
 40
0.2
 40
0.2
 40
0.2
 40
0.3
 40
0.3
 40
0.3
 40
0.3
 40
0.4
 40
0.4
 40
0.4
 40
0.4
 40
0.5
 40
0.5
 40
0.5
 40
0.5
 40
0.6
 40
0.6
 40
0.6
 40
0.6
 40
0.7
 40
0.7
 40
0.7
 40
0.7
 40
0.8
 40
0.8
 40
0.8
 40
0.8
 40
1.0
 40
1.0
 40
1.0
 40
1.0
 10
16.3234
 20
-20.3335
 30
0.0
 10
16.3234
 20
-20.3335
 30
0.0
 10
16.336
 20
-20.332
 30
0.0
 10
16.336
 20
-20.332
 30
0.0
 10
16.336
 20
-20.332
 30
0.0
 10
16.336
 20
-20.332
 30
0.0
 10
16.3632
 20
-20.1859
 30
0.0
 10
16.3632
 20
-20.1859
 30
0.0
 10
16.3632
 20
-20.1859
 30
0.0
 10
16.3632
 20
-20.1859
 30
0.0
 10
16.3889
 20
-19.8988
 30
0.0
 10
16.3889
 20
-19.8988
 30
0.0
 10
16.3889
 20
-19.8988
 30
0.0
 10
16.3889
 20
-19.8988
 30
0.0
 10
16.4123
 20
-19.481
 30
0.0
 10
16.4123
 20
-19.481
 30
0.0
 10
16.4123
 20
-19.481
 30
0.0
 10
16.4123
 20
-19.481
 30
0.0
 10
16.4326
 20
-18.9464
 30
0.0
 10
16.4326
 20
-18.9464
 30
0.0
 10
16.4326
 20
-18.9464
 30
0.0
 10
16.4326
 20
-18.9464
 30
0.0
 10
16.4491
 20
-18.3121
 30
0.0
 10
16.4491
 20
-18.3121
 30
0.0
 10
16.4491
 20
-18.3121
 30
0.0
 10
16.4491
 20
-18.3121
 30
0.0
 10
16.4613
 20
-17.603
 30
0.0
 10
16.4613
 20
-17.603
 30
0.0
 10
16.4613
 20
-17.603
 30
0.0
 10
16.4613
 20
-17.603
 30
0.0
 10
16.4685
 20
-16.8505
 30
0.0
 10
16.4685
 20
-16.8505
 30
0.0
 10
16.4685
 20
-16.8505
 30
0.0
 10
16.4685
 20
-16.8505
 30
0.0
 10
16.471
 20
-16.0872
 30
0.0
 10
16.471
 20
-16.0872
 30
0.0
  0
SPLINE
  5
6A
330
1F
100
AcDbEntity
  8
DEFAULT_1
 62
   250
100
AcDbSpline
210
0.0
220
0.0
230
1.0
 70
     8
 71
     3
 72
    40
 73
    36
 74
     0
 42
0.0000000001
 43
0.0000000001
 40
0.0
 40
0.0
 40
0.0
 40
0.0
 40
0.1
 40
0.1
 40
0.1
 40
0.1
 40
0.2
 40
0.2
 40
0.2
 40
0.2
 40
0.3
 40
0.3
 40
0.3
 40
0.3
 40
0.4
 40
0.4
 40
0.4
 40
0.4
 40
0.5
 40
0.5
 40
0.5
 40
0.5
 40
0.6
 40
0.6
 40
0.6
 40
0.6
 40
0.7
 40
0.7
 40
0.7
 40
0.7
 40
0.8
 40
0.8
 40
0.8
 40
0.8
 40
1.0
 40
1.0
 40
1.0
 40
1.0
 10
16.471
 20
-16.0872
 30
0.0
 10
16.471
 20
-16.0872
 30
0.0
 10
16.4684
 20
-15.3009
 30
0.0
 10
16.4684
 20
-15.3009
 30
0.0
 10
16.4684
 20
-15.3009
 30
0.0
 10
16.4684
 20
-15.3009
 30
0.0
 10
16.4609
 20
-14.5415
 30
0.0
 10
16.4609
 20
-14.5415
 30
0.0
 10
16.4609
 20
-14.5415
 30
0.0
 10
16.4609
 20
-14.5415
 30
0.0
 10
16.4485
 20
-13.8352
 30
0.0
 10
16.4485
 20
-13.8352
 30
0.0
 10
16.4485
 20
-13.8352
 30
0.0
 10
16.4485
 20
-13.8352
 30
0.0
 10
16.4319
 20
-13.2061
 30
0.0
 10
16.4319
 20
-13.2061
 30
0.0
 10
16.4319
 20
-13.2061
 30
0.0
 10
16.4319
 20
-13.2061
 30
0.0
 10
16.4114
 20
-12.676
 30
0.0
 10
16.4114
 20
-12.676
 30
0.0
 10
16.4114
 20
-12.676
 30
0.0
 10
16.4114
 20
-12.676
 30
0.0
 10
16.388
 20
-12.2629
 30
0.0
 10
16.388
 20
-12.2629
 30
0.0
 10
16.388
 20
-12.2629
 30
0.0
 10
16.388
 20
-12.2629
 30
0.0
 10
16.3622
 20
-11.9811
 30
0.0
 10
16.3622
 20
-11.9811
 30
0.0
 10
16.3622
 20
-11.9811
 30
0.0
 10
16.3622
 20
-11.9811
 30
0.0
 10
16.3351
 20
-11.8402
 30
0.0
 10
16.3351
 20
-11.8402
 30
0.0
 10
16.3351
 20
-11.8402
 30
0.0
 10
16.3351
 20
-11.8402
 30
0.0
 10
16.3254
 20
-11.8404
 30
0.0
 10
16.3254
 20
-11.8404
 30
0.0
  0
SPLINE
  5
6B
330
1F
100
AcDbEntity
  8
DEFAULT_1
 62
   250
100
AcDbSpline
210
0.0
220
0.0
230
1.0
 70
    24
 71
     3
 72
     8
 73
     4
 74
     0
 42
0.0000000001
 43
0.0000000001
 40
0.0
 40
0.0
 40
0.0
 40
0.0
 40
1.0
 40
1.0
 40
1.0
 40
1.0
 10
-12.8071
 20
30.1995
 30
0.0
 10
-12.8071
 20
30.1995
 30
0.0
 10
-20.294
 20
30.1995
 30
0.0
 10
-20.294
 20
30.1995
 30
0.0
  0
SPLINE
  5
6C
330
1F
100
AcDbEntity
  8
DEFAULT_1
 62
   250
100
AcDbSpline
210
0.0
220
0.0
230
1.0
 70
    24
 71
     3
 72
     8
 73
     4
 74
     0
 42
0.0000000001
 43
0.0000000001
 40
0.0
 40
0.0
 40
0.0
 40
0.0
 40
1.0
 40
1.0
 40
1.0
 40
1.0
 10
-12.8867
 20
14.4187
 30
0.0
 10
-12.8867
 20
14.4187
 30
0.0
 10
-20.3245
 20
14.4187
 30
0.0
 10
-20.3245
 20
14.4187
 30
0.0
  0
SPLINE
  5
6D
330
1F
100
AcDbEntity
  8
DEFAULT_1
 62
   250
100
AcDbSpline
210
0.0
220
0.0
230
1.0
 70
    24
 71
     3
 72
     8
 73
     4
 74
     0
 42
0.0000000001
 43
0.0000000001
 40
0.0
 40
0.0
 40
0.0
 40
0.0
 40
1.0
 40
1.0
 40
1.0
 40
1.0
 10
17.7513
 20
8.986
 30
0.0
 10
17.7513
 20
8.986
 30
0.0
 10
22.2176
 20
8.8078
 30
0.0
 10
22.2176
 20
8.8078
 30
0.0
  0
SPLINE
  5
6E
330
1F
100
AcDbEntity
  8
DEFAULT_1
 62
   250
100
AcDbSpline
210
0.0
220
0.0
230
1.0
 70
    11
 71
     3
 72
    40
 73
    36
 74
     0
 42
0.0000000001
 43
0.0000000001
 40
0.0
 40
0.0
 40
0.0
 40
0.0
 40
0.1
 40
0.1
 40
0.1
 40
0.1
 40
0.2
 40
0.2
 40
0.2
 40
0.2
 40
0.3
 40
0.3
 40
0.3
 40
0.3
 40
0.4
 40
0.4
 40
0.4
 40
0.4
 40
0.5
 40
0.5
 40
0.5
 40
0.5
 40
0.6
 40
0.6
 40
0.6
 40
0.6
 40
0.7
 40
0.7
 40
0.7
 40
0.7
 40
0.8
 40
0.8
 40
0.8
 40
0.8
 40
1.0
 40
1.0
 40
1.0
 40
1.0
 10
16.0779
 20
0.4651
 30
0.0
 10
16.0779
 20
0.4651
 30
0.0
 10
16.0787
 20
0.4869
 30
0.0
 10
16.0787
 20
0.4869
 30
0.0
 10
16.0787
 20
0.4869
 30
0.0
 10
16.0787
 20
0.4869
 30
0.0
 10
16.3742
 20
8.9508
 30
0.0
 10
16.3742
 20
8.9508
 30
0.0
 10
16.3742
 20
8.9508
 30
0.0
 10
16.3742
 20
8.9508
 30
0.0
 10
16.3754
 20
8.9859
 30
0.0
 10
16.3754
 20
8.9859
 30
0.0
 10
16.3754
 20
8.9859
 30
0.0
 10
16.3754
 20
8.9859
 30
0.0
 10
4.8563
 20
9.388
 30
0.0
 10
4.8563
 20
9.388
 30
0.0
 10
4.8563
 20
9.388
 30
0.0
 10
4.8563
 20
9.388
 30
0.0
 10
4.8653
 20
9.3877
 30
0.0
 10
4.8653
 20
9.3877
 30
0.0
 10
4.8653
 20
9.3877
 30
0.0
 10
4.8653
 20
9.3877
 30
0.0
 10
16.3754
 20
8.9859
 30
0.0
 10
16.3754
 20
8.9859
 30
0.0
 10
16.3754
 20
8.9859
 30
0.0
 10
16.3754
 20
8.9859
 30
0.0
 10
16.3742
 20
8.9508
 30
0.0
 10
16.3742
 20
8.9508
 30
0.0
 10
16.3742
 20
8.9508
 30
0.0
 10
16.3742
 20
8.9508
 30
0.0
 10
16.0787
 20
0.4869
 30
0.0
 10
16.0787
 20
0.4869
 30
0.0
 10
16.0787
 20
0.4869
 30
0.0
 10
16.0787
 20
0.4869
 30
0.0
 10
16.0779
 20
0.4651
 30
0.0
 10
16.0779
 20
0.4651
 30
0.0
  0
SPLINE
  5
6F
330
1F
100
AcDbEntity
  8
DEFAULT_1
 62
   250
100
AcDbSpline
210
0.0
220
0.0
230
1.0
 70
    11
 71
     3
 72
    36
 73
    32
 74
     0
 42
0.0000000001
 43
0.0000000001
 40
0.0
 40
0.0
 40
0.0
 40
0.0
 40
0.1111111111111111
 40
0.1111111111111111
 40
0.1111111111111111
 40
0.1111111111111111
 40
0.2222222222222222
 40
0.2222222222222222
 40
0.2222222222222222
 40
0.2222222222222222
 40
0.3333333333333333
 40
0.3333333333333333
 40
0.3333333333333333
 40
0.3333333333333333
 40
0.4444444444444444
 40
0.4444444444444444
 40
0.4444444444444444
 40
0.4444444444444444
 40
0.5555555555555556
 40
0.5555555555555556
 40
0.5555555555555556
 40
0.5555555555555556
 40
0.6666666666666666
 40
0.6666666666666666
 40
0.6666666666666666
 40
0.6666666666666666
 40
0.7777777777777778
 40
0.7777777777777778
 40
0.7777777777777778
 40
0.7777777777777778
 40
1.0
 40
1.0
 40
1.0
 40
1.0
 10
10.1033
 20
11.5027
 30
0.0
 10
10.1033
 20
11.5027
 30
0.0
 10
10.1033
 20
11.7799
 30
0.0
 10
10.1033
 20
11.7799
 30
0.0
 10
10.1033
 20
11.7799
 30
0.0
 10
10.1033
 20
11.7799
 30
0.0
 10
5.8709
 20
11.837
 30
0.0
 10
5.8709
 20
11.837
 30
0.0
 10
5.8709
 20
11.837
 30
0.0
 10
5.8709
 20
11.837
 30
0.0
 10
-12.8867
 20
11.837
 30
0.0
 10
-12.8867
 20
11.837
 30
0.0
 10
-12.8867
 20
11.837
 30
0.0
 10
-12.8867
 20
11.837
 30
0.0
 10
-17.2009
 20
11.7106
 30
0.0
 10
-17.2009
 20
11.7106
 30
0.0
 10
-17.2009
 20
11.7106
 30
0.0
 10
-17.2009
 20
11.7106
 30
0.0
 10
-17.2009
 20
11.4565
 30
0.0
 10
-17.2009
 20
11.4565
 30
0.0
 10
-17.2009
 20
11.4565
 30
0.0
 10
-17.2009
 20
11.4565
 30
0.0
 10
-12.373
 20
11.2948
 30
0.0
 10
-12.373
 20
11.2948
 30
0.0
 10
-12.373
 20
11.2948
 30
0.0
 10
-12.373
 20
11.2948
 30
0.0
 10
5.0906
 20
11.341
 30
0.0
 10
5.0906
 20
11.341
 30
0.0
 10
5.0906
 20
11.341
 30
0.0
 10
5.0906
 20
11.341
 30
0.0
 10
10.1033
 20
11.5027
 30
0.0
 10
10.1033
 20
11.5027
 30
0.0
  0
SPLINE
  5
70
330
1F
100
AcDbEntity
  8
DEFAULT_1
 62
   250
100
AcDbSpline
210
0.0
220
0.0
230
1.0
 70
     8
 71
     3
 72
    16
 73
    12
 74
     0
 42
0.0000000001
 43
0.0000000001
 40
0.0
 40
0.0
 40
0.0
 40
0.0
 40
0.25
 40
0.25
 40
0.25
 40
0.25
 40
0.5
 40
0.5
 40
0.5
 40
0.5
 40
1.0
 40
1.0
 40
1.0
 40
1.0
 10
-12.3169
 20
11.3439
 30
0.0
 10
-12.3169
 20
11.3439
 30
0.0
 10
-12.3204
 20
10.6672
 30
0.0
 10
-12.3204
 20
10.6672
 30
0.0
 10
-12.3204
 20
10.6672
 30
0.0
 10
-12.3204
 20
10.6672
 30
0.0
 10
5.3046
 20
10.6672
 30
0.0
 10
5.3046
 20
10.6672
 30
0.0
 10
5.3046
 20
10.6672
 30
0.0
 10
5.3046
 20
10.6672
 30
0.0
 10
5.3298
 20
11.4167
 30
0.0
 10
5.3298
 20
11.4167
 30
0.0
  0
SPLINE
  5
71
330
1F
100
AcDbEntity
  8
DEFAULT_1
 62
   250
100
AcDbSpline
210
0.0
220
0.0
230
1.0
 70
     8
 71
     3
 72
    12
 73
     8
 74
     0
 42
0.0000000001
 43
0.0000000001
 40
0.0
 40
0.0
 40
0.0
 40
0.0
 40
0.3333333333333333
 40
0.3333333333333333
 40
0.3333333333333333
 40
0.3333333333333333
 40
1.0
 40
1.0
 40
1.0
 40
1.0
 10
-9.211
 20
0.9473
 30
0.0
 10
-10.6063
 20
0.9473
 30
0.0
 10
-11.7441
 20
2.0655
 30
0.0
 10
-11.7684
 20
3.4605
 30
0.0
 10
-11.7684
 20
3.4605
 30
0.0
 10
-11.7684
 20
3.4605
 30
0.0
 10
-11.899
 20
10.6597
 30
0.0
 10
-11.899
 20
10.6597
 30
0.0
  0
SPLINE
  5
72
330
1F
100
AcDbEntity
  8
DEFAULT_1
 62
   250
100
AcDbSpline
210
0.0
220
0.0
230
1.0
 70
     8
 71
     3
 72
    28
 73
    24
 74
     0
 42
0.0000000001
 43
0.0000000001
 40
0.0
 40
0.0
 40
0.0
 40
0.0
 40
0.1428571428571428
 40
0.1428571428571428
 40
0.1428571428571428
 40
0.1428571428571428
 40
0.2857142857142857
 40
0.2857142857142857
 40
0.2857142857142857
 40
0.2857142857142857
 40
0.4285714285714285
 40
0.4285714285714285
 40
0.4285714285714285
 40
0.4285714285714285
 40
0.5714285714285714
 40
0.5714285714285714
 40
0.5714285714285714
 40
0.5714285714285714
 40
0.7142857142857143
 40
0.7142857142857143
 40
0.7142857142857143
 40
0.7142857142857143
 40
1.0
 40
1.0
 40
1.0
 40
1.0
 10
-9.211
 20
0.9473
 30
0.0
 10
-9.211
 20
0.9473
 30
0.0
 10
2.1952
 20
0.9473
 30
0.0
 10
2.1952
 20
0.9473
 30
0.0
 10
2.1952
 20
0.9473
 30
0.0
 10
2.1952
 20
0.9473
 30
0.0
 10
15.9936
 20
0.4676
 30
0.0
 10
15.9936
 20
0.4676
 30
0.0
 10
15.9936
 20
0.4676
 30
0.0
 10
15.9936
 20
0.4676
 30
0.0
 10
16.0787
 20
0.4869
 30
0.0
 10
16.0787
 20
0.4869
 30
0.0
 10
16.0787
 20
0.4869
 30
0.0
 10
16.0787
 20
0.4869
 30
0.0
 10
16.724
 20
0.6336
 30
0.0
 10
16.724
 20
0.6336
 30
0.0
 10
16.724
 20
0.6336
 30
0.0
 10
16.724
 20
0.6336
 30
0.0
 10
17.0892
 20
8.7676
 30
0.0
 10
17.0892
 20
8.7676
 30
0.0
 10
17.0892
 20
8.7676
 30
0.0
 10
17.0892
 20
8.7676
 30
0.0
 10
16.4252
 20
8.9668
 30
0.0
 10
16.4252
 20
8.9668
 30
0.0
  0
SPLINE
  5
73
330
1F
100
AcDbEntity
  8
DEFAULT_1
 62
   250
100
AcDbSpline
210
0.0
220
0.0
230
1.0
 70
     8
 71
     3
 72
   112
 73
   108
 74
     0
 42
0.0000000001
 43
0.0000000001
 40
0.0
 40
0.0
 40
0.0
 40
0.0
 40
0.0357142857142857
 40
0.0357142857142857
 40
0.0357142857142857
 40
0.0357142857142857
 40
0.0714285714285714
 40
0.0714285714285714
 40
0.0714285714285714
 40
0.0714285714285714
 40
0.1071428571428571
 40
0.1071428571428571
 40
0.1071428571428571
 40
0.1071428571428571
 40
0.1428571428571428
 40
0.1428571428571428
 40
0.1428571428571428
 40
0.1428571428571428
 40
0.1785714285714286
 40
0.1785714285714286
 40
0.1785714285714286
 40
0.1785714285714286
 40
0.2142857142857143
 40
0.2142857142857143
 40
0.2142857142857143
 40
0.2142857142857143
 40
0.25
 40
0.25
 40
0.25
 40
0.25
 40
0.2857142857142857
 40
0.2857142857142857
 40
0.2857142857142857
 40
0.2857142857142857
 40
0.3214285714285715
 40
0.3214285714285715
 40
0.3214285714285715
 40
0.3214285714285715
 40
0.3571428571428572
 40
0.3571428571428572
 40
0.3571428571428572
 40
0.3571428571428572
 40
0.3928571428571428
 40
0.3928571428571428
 40
0.3928571428571428
 40
0.3928571428571428
 40
0.4285714285714285
 40
0.4285714285714285
 40
0.4285714285714285
 40
0.4285714285714285
 40
0.4642857142857143
 40
0.4642857142857143
 40
0.4642857142857143
 40
0.4642857142857143
 40
0.5
 40
0.5
 40
0.5
 40
0.5
 40
0.5357142857142857
 40
0.5357142857142857
 40
0.5357142857142857
 40
0.5357142857142857
 40
0.5714285714285714
 40
0.5714285714285714
 40
0.5714285714285714
 40
0.5714285714285714
 40
0.6071428571428571
 40
0.6071428571428571
 40
0.6071428571428571
 40
0.6071428571428571
 40
0.6428571428571429
 40
0.6428571428571429
 40
0.6428571428571429
 40
0.6428571428571429
 40
0.6785714285714286
 40
0.6785714285714286
 40
0.6785714285714286
 40
0.6785714285714286
 40
0.7142857142857143
 40
0.7142857142857143
 40
0.7142857142857143
 40
0.7142857142857143
 40
0.75
 40
0.75
 40
0.75
 40
0.75
 40
0.7857142857142857
 40
0.7857142857142857
 40
0.7857142857142857
 40
0.7857142857142857
 40
0.8214285714285714
 40
0.8214285714285714
 40
0.8214285714285714
 40
0.8214285714285714
 40
0.8571428571428571
 40
0.8571428571428571
 40
0.8571428571428571
 40
0.8571428571428571
 40
0.8928571428571429
 40
0.8928571428571429
 40
0.8928571428571429
 40
0.8928571428571429
 40
0.9285714285714286
 40
0.9285714285714286
 40
0.9285714285714286
 40
0.9285714285714286
 40
1.0
 40
1.0
 40
1.0
 40
1.0
 10
2.2493
 20
0.9479
 30
0.0
 10
2.2493
 20
0.9479
 30
0.0
 10
2.2718
 20
0.9485
 30
0.0
 10
2.2718
 20
0.9485
 30
0.0
 10
2.2718
 20
0.9485
 30
0.0
 10
2.2718
 20
0.9485
 30
0.0
 10
2.3266
 20
0.951
 30
0.0
 10
2.3266
 20
0.951
 30
0.0
 10
2.3266
 20
0.951
 30
0.0
 10
2.3266
 20
0.951
 30
0.0
 10
2.3959
 20
0.956
 30
0.0
 10
2.3959
 20
0.956
 30
0.0
 10
2.3959
 20
0.956
 30
0.0
 10
2.3959
 20
0.956
 30
0.0
 10
2.4748
 20
0.9647
 30
0.0
 10
2.4748
 20
0.9647
 30
0.0
 10
2.4748
 20
0.9647
 30
0.0
 10
2.4748
 20
0.9647
 30
0.0
 10
2.5609
 20
0.9779
 30
0.0
 10
2.5609
 20
0.9779
 30
0.0
 10
2.5609
 20
0.9779
 30
0.0
 10
2.5609
 20
0.9779
 30
0.0
 10
2.6537
 20
0.997
 30
0.0
 10
2.6537
 20
0.997
 30
0.0
 10
2.6537
 20
0.997
 30
0.0
 10
2.6537
 20
0.997
 30
0.0
 10
2.7528
 20
1.0237
 30
0.0
 10
2.7528
 20
1.0237
 30
0.0
 10
2.7528
 20
1.0237
 30
0.0
 10
2.7528
 20
1.0237
 30
0.0
 10
2.8581
 20
1.0598
 30
0.0
 10
2.8581
 20
1.0598
 30
0.0
 10
2.8581
 20
1.0598
 30
0.0
 10
2.8581
 20
1.0598
 30
0.0
 10
2.969
 20
1.1078
 30
0.0
 10
2.969
 20
1.1078
 30
0.0
 10
2.969
 20
1.1078
 30
0.0
 10
2.969
 20
1.1078
 30
0.0
 10
3.0843
 20
1.1707
 30
0.0
 10
3.0843
 20
1.1707
 30
0.0
 10
3.0843
 20
1.1707
 30
0.0
 10
3.0843
 20
1.1707
 30
0.0
 10
3.2026
 20
1.2515
 30
0.0
 10
3.2026
 20
1.2515
 30
0.0
 10
3.2026
 20
1.2515
 30
0.0
 10
3.2026
 20
1.2515
 30
0.0
 10
3.3223
 20
1.3547
 30
0.0
 10
3.3223
 20
1.3547
 30
0.0
 10
3.3223
 20
1.3547
 30
0.0
 10
3.3223
 20
1.3547
 30
0.0
 10
3.4432
 20
1.4879
 30
0.0
 10
3.4432
 20
1.4879
 30
0.0
 10
3.4432
 20
1.4879
 30
0.0
 10
3.4432
 20
1.4879
 30
0.0
 10
3.5626
 20
1.6609
 30
0.0
 10
3.5626
 20
1.6609
 30
0.0
 10
3.5626
 20
1.6609
 30
0.0
 10
3.5626
 20
1.6609
 30
0.0
 10
3.6746
 20
1.8859
 30
0.0
 10
3.6746
 20
1.8859
 30
0.0
 10
3.6746
 20
1.8859
 30
0.0
 10
3.6746
 20
1.8859
 30
0.0
 10
3.7689
 20
2.1763
 30
0.0
 10
3.7689
 20
2.1763
 30
0.0
 10
3.7689
 20
2.1763
 30
0.0
 10
3.7689
 20
2.1763
 30
0.0
 10
3.8294
 20
2.545
 30
0.0
 10
3.8294
 20
2.545
 30
0.0
 10
3.8294
 20
2.545
 30
0.0
 10
3.8294
 20
2.545
 30
0.0
 10
3.8342
 20
2.9845
 30
0.0
 10
3.8342
 20
2.9845
 30
0.0
 10
3.8342
 20
2.9845
 30
0.0
 10
3.8342
 20
2.9845
 30
0.0
 10
3.7687
 20
3.4605
 30
0.0
 10
3.7687
 20
3.4605
 30
0.0
 10
3.7687
 20
3.4605
 30
0.0
 10
3.7687
 20
3.4605
 30
0.0
 10
3.6652
 20
4.4295
 30
0.0
 10
3.6652
 20
4.4295
 30
0.0
 10
3.6652
 20
4.4295
 30
0.0
 10
3.6652
 20
4.4295
 30
0.0
 10
3.5712
 20
5.4968
 30
0.0
 10
3.5712
 20
5.4968
 30
0.0
 10
3.5712
 20
5.4968
 30
0.0
 10
3.5712
 20
5.4968
 30
0.0
 10
3.7592
 20
6.564
 30
0.0
 10
3.7592
 20
6.564
 30
0.0
 10
3.7592
 20
6.564
 30
0.0
 10
3.7592
 20
6.564
 30
0.0
 10
4.1351
 20
7.8196
 30
0.0
 10
4.1351
 20
7.8196
 30
0.0
 10
4.1351
 20
7.8196
 30
0.0
 10
4.1351
 20
7.8196
 30
0.0
 10
4.605
 20
8.9183
 30
0.0
 10
4.605
 20
8.9183
 30
0.0
 10
4.605
 20
8.9183
 30
0.0
 10
4.605
 20
8.9183
 30
0.0
 10
4.8653
 20
9.3877
 30
0.0
 10
4.8653
 20
9.3877
 30
0.0
 10
4.8653
 20
9.3877
 30
0.0
 10
4.8653
 20
9.3877
 30
0.0
 10
4.9183
 20
9.4833
 30
0.0
 10
4.9183
 20
9.4833
 30
0.0
 10
4.9183
 20
9.4833
 30
0.0
 10
4.9183
 20
9.4833
 30
0.0
 10
4.9183
 20
10.582
 30
0.0
 10
4.9183
 20
10.582
 30
0.0
  0
SPLINE
  5
74
330
1F
100
AcDbEntity
  8
DEFAULT_1
 62
   250
100
AcDbSpline
210
0.0
220
0.0
230
1.0
 70
     8
 71
     3
 72
    16
 73
    12
 74
     0
 42
0.0000000001
 43
0.0000000001
 40
0.0
 40
0.0
 40
0.0
 40
0.0
 40
0.25
 40
0.25
 40
0.25
 40
0.25
 40
0.5
 40
0.5
 40
0.5
 40
0.5
 40
1.0
 40
1.0
 40
1.0
 40
1.0
 10
-12.8801
 20
11.8547
 30
0.0
 10
-12.8801
 20
11.8547
 30
0.0
 10
-12.8867
 20
14.4187
 30
0.0
 10
-12.8867
 20
14.4187
 30
0.0
 10
-12.8867
 20
14.4187
 30
0.0
 10
-12.8867
 20
14.4187
 30
0.0
 10
5.8709
 20
14.4187
 30
0.0
 10
5.8709
 20
14.4187
 30
0.0
 10
5.8709
 20
14.4187
 30
0.0
 10
5.8709
 20
14.4187
 30
0.0
 10
5.8672
 20
11.8294
 30
0.0
 10
5.8672
 20
11.8294
 30
0.0
  0
SPLINE
  5
75
330
1F
100
AcDbEntity
  8
DEFAULT_1
  6
NEW_LINE1
 62
   250
100
AcDbSpline
210
0.0
220
0.0
230
1.0
 70
    24
 71
     3
 72
     8
 73
     4
 74
     0
 42
0.0000000001
 43
0.0000000001
 40
0.0
 40
0.0
 40
0.0
 40
0.0
 40
1.0
 40
1.0
 40
1.0
 40
1.0
 10
17.5392
 20
4.6796
 30
0.0
 10
17.5392
 20
4.6796
 30
0.0
 10
-3.8414
 20
5.4263
 30
0.0
 10
-3.8414
 20
5.4263
 30
0.0
  0
SPLINE
  5
77
330
1F
100
AcDbEntity
  8
DEFAULT_1
  6
NEW_LINE2
 62
   250
100
AcDbSpline
210
0.0
220
0.0
230
1.0
 70
    24
 71
     3
 72
     8
 73
     4
 74
     0
 42
0.0000000001
 43
0.0000000001
 40
0.0
 40
0.0
 40
0.0
 40
0.0
 40
1.0
 40
1.0
 40
1.0
 40
1.0
 10
-3.5079
 20
0.5604
 30
0.0
 10
-3.5079
 20
0.5604
 30
0.0
 10
-3.5079
 20
22.9948
 30
0.0
 10
-3.5079
 20
22.9948
 30
0.0
  0
SPLINE
  5
79
330
1F
100
AcDbEntity
  8
DEFAULT_1
  6
NEW_LINE3
 62
   250
100
AcDbSpline
210
0.0
220
0.0
230
1.0
 70
    24
 71
     3
 72
     8
 73
     4
 74
     0
 42
0.0000000001
 43
0.0000000001
 40
0.0
 40
0.0
 40
0.0
 40
0.0
 40
1.0
 40
1.0
 40
1.0
 40
1.0
 10
-3.4124
 20
-30.4673
 30
0.0
 10
-3.4124
 20
-30.4673
 30
0.0
 10
-3.4124
 20
-2.1043
 30
0.0
 10
-3.4124
 20
-2.1043
 30
0.0
  0
SPLINE
  5
7B
330
1F
100
AcDbEntity
  8
DEFAULT_1
  6
NEW_LINE4
 62
   250
100
AcDbSpline
210
0.0
220
0.0
230
1.0
 70
    24
 71
     3
 72
     8
 73
     4
 74
     0
 42
0.0000000001
 43
0.0000000001
 40
0.0
 40
0.0
 40
0.0
 40
0.0
 40
1.0
 40
1.0
 40
1.0
 40
1.0
 10
17.635
 20
-16.0872
 30
0.0
 10
17.635
 20
-16.0872
 30
0.0
 10
-17.5859
 20
-16.0872
 30
0.0
 10
-17.5859
 20
-16.0872
 30
0.0
  0
SPLINE
  5
7D
330
1F
100
AcDbEntity
  8
DEFAULT_1
 62
   250
100
AcDbSpline
210
0.0
220
0.0
230
1.0
 70
    27
 71
     3
 72
    12
 73
     8
 74
     0
 42
0.0000000001
 43
0.0000000001
 40
0.0
 40
0.0
 40
0.0
 40
0.0
 40
0.3333333333333333
 40
0.3333333333333333
 40
0.3333333333333333
 40
0.3333333333333333
 40
1.0
 40
1.0
 40
1.0
 40
1.0
 10
2.852
 20
-18.331
 30
0.0
 10
2.852
 20
-18.331
 30
0.0
 10
-1.883
 20
-18.331
 30
0.0
 10
-1.883
 20
-18.331
 30
0.0
 10
-1.883
 20
-18.331
 30
0.0
 10
-1.883
 20
-18.331
 30
0.0
 10
2.852
 20
-18.331
 30
0.0
 10
2.852
 20
-18.331
 30
0.0
  0
SPLINE
  5
7E
330
1F
100
AcDbEntity
  8
DEFAULT_1
 62
   250
100
AcDbSpline
210
0.0
220
0.0
230
1.0
 70
    27
 71
     3
 72
    12
 73
     8
 74
     0
 42
0.0000000001
 43
0.0000000001
 40
0.0
 40
0.0
 40
0.0
 40
0.0
 40
0.3333333333333333
 40
0.3333333333333333
 40
0.3333333333333333
 40
0.3333333333333333
 40
1.0
 40
1.0
 40
1.0
 40
1.0
 10
2.852
 20
-23.0637
 30
0.0
 10
2.852
 20
-23.0637
 30
0.0
 10
-1.883
 20
-23.0637
 30
0.0
 10
-1.883
 20
-23.0637
 30
0.0
 10
-1.883
 20
-23.0637
 30
0.0
 10
-1.883
 20
-23.0637
 30
0.0
 10
2.852
 20
-23.0637
 30
0.0
 10
2.852
 20
-23.0637
 30
0.0
  0
SPLINE
  5
7F
330
1F
100
AcDbEntity
  8
DEFAULT_1
 62
   250
100
AcDbSpline
210
0.0
220
0.0
230
1.0
 70
    27
 71
     3
 72
    12
 73
     8
 74
     0
 42
0.0000000001
 43
0.0000000001
 40
0.0
 40
0.0
 40
0.0
 40
0.0
 40
0.3333333333333333
 40
0.3333333333333333
 40
0.3333333333333333
 40
0.3333333333333333
 40
1.0
 40
1.0
 40
1.0
 40
1.0
 10
-1.883
 20
-21.6253
 30
0.0
 10
-1.883
 20
-21.6253
 30
0.0
 10
2.852
 20
-21.6253
 30
0.0
 10
2.852
 20
-21.6253
 30
0.0
 10
2.852
 20
-21.6253
 30
0.0
 10
2.852
 20
-21.6253
 30
0.0
 10
-1.883
 20
-21.6253
 30
0.0
 10
-1.883
 20
-21.6253
 30
0.0
  0
SPLINE
  5
80
330
1F
100
AcDbEntity
  8
DEFAULT_1
 62
   250
100
AcDbSpline
210
0.0
220
0.0
230
1.0
 70
    27
 71
     3
 72
    12
 73
     8
 74
     0
 42
0.0000000001
 43
0.0000000001
 40
0.0
 40
0.0
 40
0.0
 40
0.0
 40
0.3333333333333333
 40
0.3333333333333333
 40
0.3333333333333333
 40
0.3333333333333333
 40
1.0
 40
1.0
 40
1.0
 40
1.0
 10
2.8675
 20
-20.7081
 30
0.0
 10
2.8675
 20
-20.7081
 30
0.0
 10
-1.8675
 20
-20.7081
 30
0.0
 10
-1.8675
 20
-20.7081
 30
0.0
 10
-1.8675
 20
-20.7081
 30
0.0
 10
-1.8675
 20
-20.7081
 30
0.0
 10
2.8675
 20
-20.7081
 30
0.0
 10
2.8675
 20
-20.7081
 30
0.0
  0
SPLINE
  5
81
330
1F
100
AcDbEntity
  8
DEFAULT_1
 62
   250
100
AcDbSpline
210
0.0
220
0.0
230
1.0
 70
    27
 71
     3
 72
    12
 73
     8
 74
     0
 42
0.0000000001
 43
0.0000000001
 40
0.0
 40
0.0
 40
0.0
 40
0.0
 40
0.3333333333333333
 40
0.3333333333333333
 40
0.3333333333333333
 40
0.3333333333333333
 40
1.0
 40
1.0
 40
1.0
 40
1.0
 10
-1.8675
 20
-19.2697
 30
0.0
 10
-1.8675
 20
-19.2697
 30
0.0
 10
2.8675
 20
-19.2697
 30
0.0
 10
2.8675
 20
-19.2697
 30
0.0
 10
2.8675
 20
-19.2697
 30
0.0
 10
2.8675
 20
-19.2697
 30
0.0
 10
-1.8675
 20
-19.2697
 30
0.0
 10
-1.8675
 20
-19.2697
 30
0.0
  0
SPLINE
  5
82
330
1F
100
AcDbEntity
  8
DEFAULT_1
 62
   250
100
AcDbSpline
210
0.0
220
0.0
230
1.0
 70
    27
 71
     3
 72
    12
 73
     8
 74
     0
 42
0.0000000001
 43
0.0000000001
 40
0.0
 40
0.0
 40
0.0
 40
0.0
 40
0.3333333333333333
 40
0.3333333333333333
 40
0.3333333333333333
 40
0.3333333333333333
 40
1.0
 40
1.0
 40
1.0
 40
1.0
 10
-1.883
 20
-16.8926
 30
0.0
 10
-1.883
 20
-16.8926
 30
0.0
 10
2.852
 20
-16.8926
 30
0.0
 10
2.852
 20
-16.8926
 30
0.0
 10
2.852
 20
-16.8926
 30
0.0
 10
2.852
 20
-16.8926
 30
0.0
 10
-1.883
 20
-16.8926
 30
0.0
 10
-1.883
 20
-16.8926
 30
0.0
  0
SPLINE
  5
83
330
1F
100
AcDbEntity
  8
DEFAULT_1
 62
   250
100
AcDbSpline
210
0.0
220
0.0
230
1.0
 70
     8
 71
     3
 72
    12
 73
     8
 74
     0
 42
0.0000000001
 43
0.0000000001
 40
0.0
 40
0.0
 40
0.0
 40
0.0
 40
0.3333333333333333
 40
0.3333333333333333
 40
0.3333333333333333
 40
0.3333333333333333
 40
1.0
 40
1.0
 40
1.0
 40
1.0
 10
-1.883
 20
-16.8926
 30
0.0
 10
-2.28
 20
-16.8926
 30
0.0
 10
-2.6017
 20
-17.2146
 30
0.0
 10
-2.6017
 20
-17.6118
 30
0.0
 10
-2.6017
 20
-17.6118
 30
0.0
 10
-2.6017
 20
-18.009
 30
0.0
 10
-2.28
 20
-18.331
 30
0.0
 10
-1.883
 20
-18.331
 30
0.0
  0
SPLINE
  5
84
330
1F
100
AcDbEntity
  8
DEFAULT_1
 62
   250
100
AcDbSpline
210
0.0
220
0.0
230
1.0
 70
     8
 71
     3
 72
    12
 73
     8
 74
     0
 42
0.0000000001
 43
0.0000000001
 40
0.0
 40
0.0
 40
0.0
 40
0.0
 40
0.3333333333333333
 40
0.3333333333333333
 40
0.3333333333333333
 40
0.3333333333333333
 40
1.0
 40
1.0
 40
1.0
 40
1.0
 10
-1.883
 20
-21.6253
 30
0.0
 10
-2.28
 20
-21.6253
 30
0.0
 10
-2.6017
 20
-21.9473
 30
0.0
 10
-2.6017
 20
-22.3445
 30
0.0
 10
-2.6017
 20
-22.3445
 30
0.0
 10
-2.6017
 20
-22.7417
 30
0.0
 10
-2.28
 20
-23.0637
 30
0.0
 10
-1.883
 20
-23.0637
 30
0.0
  0
SPLINE
  5
85
330
1F
100
AcDbEntity
  8
DEFAULT_1
 62
   250
100
AcDbSpline
210
0.0
220
0.0
230
1.0
 70
     8
 71
     3
 72
    12
 73
     8
 74
     0
 42
0.0000000001
 43
0.0000000001
 40
0.0
 40
0.0
 40
0.0
 40
0.0
 40
0.3333333333333333
 40
0.3333333333333333
 40
0.3333333333333333
 40
0.3333333333333333
 40
1.0
 40
1.0
 40
1.0
 40
1.0
 10
2.852
 20
-23.0637
 30
0.0
 10
3.2489
 20
-23.0637
 30
0.0
 10
3.5706
 20
-22.7417
 30
0.0
 10
3.5706
 20
-22.3445
 30
0.0
 10
3.5706
 20
-22.3445
 30
0.0
 10
3.5706
 20
-21.9473
 30
0.0
 10
3.2489
 20
-21.6253
 30
0.0
 10
2.852
 20
-21.6253
 30
0.0
  0
SPLINE
  5
86
330
1F
100
AcDbEntity
  8
DEFAULT_1
 62
   250
100
AcDbSpline
210
0.0
220
0.0
230
1.0
 70
     8
 71
     3
 72
    12
 73
     8
 74
     0
 42
0.0000000001
 43
0.0000000001
 40
0.0
 40
0.0
 40
0.0
 40
0.0
 40
0.3333333333333333
 40
0.3333333333333333
 40
0.3333333333333333
 40
0.3333333333333333
 40
1.0
 40
1.0
 40
1.0
 40
1.0
 10
-1.8675
 20
-19.2697
 30
0.0
 10
-2.2645
 20
-19.2697
 30
0.0
 10
-2.5862
 20
-19.5917
 30
0.0
 10
-2.5862
 20
-19.9889
 30
0.0
 10
-2.5862
 20
-19.9889
 30
0.0
 10
-2.5862
 20
-20.3861
 30
0.0
 10
-2.2645
 20
-20.7081
 30
0.0
 10
-1.8675
 20
-20.7081
 30
0.0
  0
SPLINE
  5
87
330
1F
100
AcDbEntity
  8
DEFAULT_1
 62
   250
100
AcDbSpline
210
0.0
220
0.0
230
1.0
 70
     8
 71
     3
 72
    12
 73
     8
 74
     0
 42
0.0000000001
 43
0.0000000001
 40
0.0
 40
0.0
 40
0.0
 40
0.0
 40
0.3333333333333333
 40
0.3333333333333333
 40
0.3333333333333333
 40
0.3333333333333333
 40
1.0
 40
1.0
 40
1.0
 40
1.0
 10
2.8675
 20
-20.7081
 30
0.0
 10
3.2644
 20
-20.7081
 30
0.0
 10
3.5862
 20
-20.3861
 30
0.0
 10
3.5862
 20
-19.9889
 30
0.0
 10
3.5862
 20
-19.9889
 30
0.0
 10
3.5862
 20
-19.5917
 30
0.0
 10
3.2644
 20
-19.2697
 30
0.0
 10
2.8675
 20
-19.2697
 30
0.0
  0
SPLINE
  5
88
330
1F
100
AcDbEntity
  8
DEFAULT_1
 62
   250
100
AcDbSpline
210
0.0
220
0.0
230
1.0
 70
     8
 71
     3
 72
    12
 73
     8
 74
     0
 42
0.0000000001
 43
0.0000000001
 40
0.0
 40
0.0
 40
0.0
 40
0.0
 40
0.3333333333333333
 40
0.3333333333333333
 40
0.3333333333333333
 40
0.3333333333333333
 40
1.0
 40
1.0
 40
1.0
 40
1.0
 10
2.852
 20
-18.331
 30
0.0
 10
3.2489
 20
-18.331
 30
0.0
 10
3.5706
 20
-18.009
 30
0.0
 10
3.5706
 20
-17.6118
 30
0.0
 10
3.5706
 20
-17.6118
 30
0.0
 10
3.5706
 20
-17.2146
 30
0.0
 10
3.2489
 20
-16.8926
 30
0.0
 10
2.852
 20
-16.8926
 30
0.0
  0
SPLINE
  5
89
330
1F
100
AcDbEntity
  8
DEFAULT_1
 62
   250
100
AcDbSpline
210
0.0
220
0.0
230
1.0
 70
    27
 71
     3
 72
    12
 73
     8
 74
     0
 42
0.0000000001
 43
0.0000000001
 40
0.0
 40
0.0
 40
0.0
 40
0.0
 40
0.3333333333333333
 40
0.3333333333333333
 40
0.3333333333333333
 40
0.3333333333333333
 40
1.0
 40
1.0
 40
1.0
 40
1.0
 10
-1.1624
 20
-9.8304
 30
0.0
 10
-1.1624
 20
-9.8304
 30
0.0
 10
-1.1624
 20
-14.5684
 30
0.0
 10
-1.1624
 20
-14.5684
 30
0.0
 10
-1.1624
 20
-14.5684
 30
0.0
 10
-1.1624
 20
-14.5684
 30
0.0
 10
-1.1624
 20
-9.8304
 30
0.0
 10
-1.1624
 20
-9.8304
 30
0.0
  0
SPLINE
  5
8A
330
1F
100
AcDbEntity
  8
DEFAULT_1
 62
   250
100
AcDbSpline
210
0.0
220
0.0
230
1.0
 70
    27
 71
     3
 72
    12
 73
     8
 74
     0
 42
0.0000000001
 43
0.0000000001
 40
0.0
 40
0.0
 40
0.0
 40
0.0
 40
0.3333333333333333
 40
0.3333333333333333
 40
0.3333333333333333
 40
0.3333333333333333
 40
1.0
 40
1.0
 40
1.0
 40
1.0
 10
3.5673
 20
-9.8304
 30
0.0
 10
3.5673
 20
-9.8304
 30
0.0
 10
3.5673
 20
-14.5684
 30
0.0
 10
3.5673
 20
-14.5684
 30
0.0
 10
3.5673
 20
-14.5684
 30
0.0
 10
3.5673
 20
-14.5684
 30
0.0
 10
3.5673
 20
-9.8304
 30
0.0
 10
3.5673
 20
-9.8304
 30
0.0
  0
SPLINE
  5
8B
330
1F
100
AcDbEntity
  8
DEFAULT_1
 62
   250
100
AcDbSpline
210
0.0
220
0.0
230
1.0
 70
    27
 71
     3
 72
    12
 73
     8
 74
     0
 42
0.0000000001
 43
0.0000000001
 40
0.0
 40
0.0
 40
0.0
 40
0.0
 40
0.3333333333333333
 40
0.3333333333333333
 40
0.3333333333333333
 40
0.3333333333333333
 40
1.0
 40
1.0
 40
1.0
 40
1.0
 10
2.1298
 20
-14.5684
 30
0.0
 10
2.1298
 20
-14.5684
 30
0.0
 10
2.1298
 20
-9.8304
 30
0.0
 10
2.1298
 20
-9.8304
 30
0.0
 10
2.1298
 20
-9.8304
 30
0.0
 10
2.1298
 20
-9.8304
 30
0.0
 10
2.1298
 20
-14.5684
 30
0.0
 10
2.1298
 20
-14.5684
 30
0.0
  0
SPLINE
  5
8C
330
1F
100
AcDbEntity
  8
DEFAULT_1
 62
   250
100
AcDbSpline
210
0.0
220
0.0
230
1.0
 70
    27
 71
     3
 72
    12
 73
     8
 74
     0
 42
0.0000000001
 43
0.0000000001
 40
0.0
 40
0.0
 40
0.0
 40
0.0
 40
0.3333333333333333
 40
0.3333333333333333
 40
0.3333333333333333
 40
0.3333333333333333
 40
1.0
 40
1.0
 40
1.0
 40
1.0
 10
1.2132
 20
-9.8149
 30
0.0
 10
1.2132
 20
-9.8149
 30
0.0
 10
1.2132
 20
-14.5529
 30
0.0
 10
1.2132
 20
-14.5529
 30
0.0
 10
1.2132
 20
-14.5529
 30
0.0
 10
1.2132
 20
-14.5529
 30
0.0
 10
1.2132
 20
-9.8149
 30
0.0
 10
1.2132
 20
-9.8149
 30
0.0
  0
SPLINE
  5
8D
330
1F
100
AcDbEntity
  8
DEFAULT_1
 62
   250
100
AcDbSpline
210
0.0
220
0.0
230
1.0
 70
    27
 71
     3
 72
    12
 73
     8
 74
     0
 42
0.0000000001
 43
0.0000000001
 40
0.0
 40
0.0
 40
0.0
 40
0.0
 40
0.3333333333333333
 40
0.3333333333333333
 40
0.3333333333333333
 40
0.3333333333333333
 40
1.0
 40
1.0
 40
1.0
 40
1.0
 10
-0.2243
 20
-14.5529
 30
0.0
 10
-0.2243
 20
-14.5529
 30
0.0
 10
-0.2243
 20
-9.8149
 30
0.0
 10
-0.2243
 20
-9.8149
 30
0.0
 10
-0.2243
 20
-9.8149
 30
0.0
 10
-0.2243
 20
-9.8149
 30
0.0
 10
-0.2243
 20
-14.5529
 30
0.0
 10
-0.2243
 20
-14.5529
 30
0.0
  0
SPLINE
  5
8E
330
1F
100
AcDbEntity
  8
DEFAULT_1
 62
   250
100
AcDbSpline
210
0.0
220
0.0
230
1.0
 70
    27
 71
     3
 72
    12
 73
     8
 74
     0
 42
0.0000000001
 43
0.0000000001
 40
0.0
 40
0.0
 40
0.0
 40
0.0
 40
0.3333333333333333
 40
0.3333333333333333
 40
0.3333333333333333
 40
0.3333333333333333
 40
1.0
 40
1.0
 40
1.0
 40
1.0
 10
-2.5999
 20
-14.5684
 30
0.0
 10
-2.5999
 20
-14.5684
 30
0.0
 10
-2.5999
 20
-9.8304
 30
0.0
 10
-2.5999
 20
-9.8304
 30
0.0
 10
-2.5999
 20
-9.8304
 30
0.0
 10
-2.5999
 20
-9.8304
 30
0.0
 10
-2.5999
 20
-14.5684
 30
0.0
 10
-2.5999
 20
-14.5684
 30
0.0
  0
SPLINE
  5
8F
330
1F
100
AcDbEntity
  8
DEFAULT_1
 62
   250
100
AcDbSpline
210
0.0
220
0.0
230
1.0
 70
     8
 71
     3
 72
    12
 73
     8
 74
     0
 42
0.0000000001
 43
0.0000000001
 40
0.0
 40
0.0
 40
0.0
 40
0.0
 40
0.3333333333333333
 40
0.3333333333333333
 40
0.3333333333333333
 40
0.3333333333333333
 40
1.0
 40
1.0
 40
1.0
 40
1.0
 10
-2.5999
 20
-14.5684
 30
0.0
 10
-2.5999
 20
-14.9656
 30
0.0
 10
-2.2781
 20
-15.2876
 30
0.0
 10
-1.8811
 20
-15.2876
 30
0.0
 10
-1.8811
 20
-15.2876
 30
0.0
 10
-1.4842
 20
-15.2876
 30
0.0
 10
-1.1624
 20
-14.9656
 30
0.0
 10
-1.1624
 20
-14.5684
 30
0.0
  0
SPLINE
  5
90
330
1F
100
AcDbEntity
  8
DEFAULT_1
 62
   250
100
AcDbSpline
210
0.0
220
0.0
230
1.0
 70
     8
 71
     3
 72
    12
 73
     8
 74
     0
 42
0.0000000001
 43
0.0000000001
 40
0.0
 40
0.0
 40
0.0
 40
0.0
 40
0.3333333333333333
 40
0.3333333333333333
 40
0.3333333333333333
 40
0.3333333333333333
 40
1.0
 40
1.0
 40
1.0
 40
1.0
 10
2.1298
 20
-14.5684
 30
0.0
 10
2.1298
 20
-14.9656
 30
0.0
 10
2.4516
 20
-15.2876
 30
0.0
 10
2.8485
 20
-15.2876
 30
0.0
 10
2.8485
 20
-15.2876
 30
0.0
 10
3.2455
 20
-15.2876
 30
0.0
 10
3.5673
 20
-14.9656
 30
0.0
 10
3.5673
 20
-14.5684
 30
0.0
  0
SPLINE
  5
91
330
1F
100
AcDbEntity
  8
DEFAULT_1
 62
   250
100
AcDbSpline
210
0.0
220
0.0
230
1.0
 70
     8
 71
     3
 72
    12
 73
     8
 74
     0
 42
0.0000000001
 43
0.0000000001
 40
0.0
 40
0.0
 40
0.0
 40
0.0
 40
0.3333333333333333
 40
0.3333333333333333
 40
0.3333333333333333
 40
0.3333333333333333
 40
1.0
 40
1.0
 40
1.0
 40
1.0
 10
3.5673
 20
-9.8304
 30
0.0
 10
3.5673
 20
-9.4332
 30
0.0
 10
3.2455
 20
-9.1112
 30
0.0
 10
2.8485
 20
-9.1112
 30
0.0
 10
2.8485
 20
-9.1112
 30
0.0
 10
2.4516
 20
-9.1112
 30
0.0
 10
2.1298
 20
-9.4332
 30
0.0
 10
2.1298
 20
-9.8304
 30
0.0
  0
SPLINE
  5
92
330
1F
100
AcDbEntity
  8
DEFAULT_1
 62
   250
100
AcDbSpline
210
0.0
220
0.0
230
1.0
 70
     8
 71
     3
 72
    12
 73
     8
 74
     0
 42
0.0000000001
 43
0.0000000001
 40
0.0
 40
0.0
 40
0.0
 40
0.0
 40
0.3333333333333333
 40
0.3333333333333333
 40
0.3333333333333333
 40
0.3333333333333333
 40
1.0
 40
1.0
 40
1.0
 40
1.0
 10
-0.2243
 20
-14.5529
 30
0.0
 10
-0.2243
 20
-14.9501
 30
0.0
 10
0.0975
 20
-15.2721
 30
0.0
 10
0.4945
 20
-15.2721
 30
0.0
 10
0.4945
 20
-15.2721
 30
0.0
 10
0.8914
 20
-15.2721
 30
0.0
 10
1.2132
 20
-14.9501
 30
0.0
 10
1.2132
 20
-14.5529
 30
0.0
  0
SPLINE
  5
93
330
1F
100
AcDbEntity
  8
DEFAULT_1
 62
   250
100
AcDbSpline
210
0.0
220
0.0
230
1.0
 70
     8
 71
     3
 72
    12
 73
     8
 74
     0
 42
0.0000000001
 43
0.0000000001
 40
0.0
 40
0.0
 40
0.0
 40
0.0
 40
0.3333333333333333
 40
0.3333333333333333
 40
0.3333333333333333
 40
0.3333333333333333
 40
1.0
 40
1.0
 40
1.0
 40
1.0
 10
1.2132
 20
-9.8149
 30
0.0
 10
1.2132
 20
-9.4177
 30
0.0
 10
0.8914
 20
-9.0957
 30
0.0
 10
0.4945
 20
-9.0957
 30
0.0
 10
0.4945
 20
-9.0957
 30
0.0
 10
0.0975
 20
-9.0957
 30
0.0
 10
-0.2243
 20
-9.4177
 30
0.0
 10
-0.2243
 20
-9.8149
 30
0.0
  0
SPLINE
  5
94
330
1F
100
AcDbEntity
  8
DEFAULT_1
 62
   250
100
AcDbSpline
210
0.0
220
0.0
230
1.0
 70
     8
 71
     3
 72
    12
 73
     8
 74
     0
 42
0.0000000001
 43
0.0000000001
 40
0.0
 40
0.0
 40
0.0
 40
0.0
 40
0.3333333333333333
 40
0.3333333333333333
 40
0.3333333333333333
 40
0.3333333333333333
 40
1.0
 40
1.0
 40
1.0
 40
1.0
 10
-1.1624
 20
-9.8304
 30
0.0
 10
-1.1624
 20
-9.4332
 30
0.0
 10
-1.4842
 20
-9.1112
 30
0.0
 10
-1.8811
 20
-9.1112
 30
0.0
 10
-1.8811
 20
-9.1112
 30
0.0
 10
-2.2781
 20
-9.1112
 30
0.0
 10
-2.5999
 20
-9.4332
 30
0.0
 10
-2.5999
 20
-9.8304
 30
0.0
  0
SPLINE
  5
95
330
1F
100
AcDbEntity
  8
DEFAULT_1
 62
   250
100
AcDbSpline
210
0.0
220
0.0
230
1.0
 70
    27
 71
     3
 72
    12
 73
     8
 74
     0
 42
0.0000000001
 43
0.0000000001
 40
0.0
 40
0.0
 40
0.0
 40
0.0
 40
0.3333333333333333
 40
0.3333333333333333
 40
0.3333333333333333
 40
0.3333333333333333
 40
1.0
 40
1.0
 40
1.0
 40
1.0
 10
-8.9354
 20
-17.6254
 30
0.0
 10
-8.9354
 20
-17.6254
 30
0.0
 10
-8.9354
 20
-22.3634
 30
0.0
 10
-8.9354
 20
-22.3634
 30
0.0
 10
-8.9354
 20
-22.3634
 30
0.0
 10
-8.9354
 20
-22.3634
 30
0.0
 10
-8.9354
 20
-17.6254
 30
0.0
 10
-8.9354
 20
-17.6254
 30
0.0
  0
SPLINE
  5
96
330
1F
100
AcDbEntity
  8
DEFAULT_1
 62
   250
100
AcDbSpline
210
0.0
220
0.0
230
1.0
 70
    27
 71
     3
 72
    12
 73
     8
 74
     0
 42
0.0000000001
 43
0.0000000001
 40
0.0
 40
0.0
 40
0.0
 40
0.0
 40
0.3333333333333333
 40
0.3333333333333333
 40
0.3333333333333333
 40
0.3333333333333333
 40
1.0
 40
1.0
 40
1.0
 40
1.0
 10
-4.2057
 20
-17.6254
 30
0.0
 10
-4.2057
 20
-17.6254
 30
0.0
 10
-4.2057
 20
-22.3634
 30
0.0
 10
-4.2057
 20
-22.3634
 30
0.0
 10
-4.2057
 20
-22.3634
 30
0.0
 10
-4.2057
 20
-22.3634
 30
0.0
 10
-4.2057
 20
-17.6254
 30
0.0
 10
-4.2057
 20
-17.6254
 30
0.0
  0
SPLINE
  5
97
330
1F
100
AcDbEntity
  8
DEFAULT_1
 62
   250
100
AcDbSpline
210
0.0
220
0.0
230
1.0
 70
    27
 71
     3
 72
    12
 73
     8
 74
     0
 42
0.0000000001
 43
0.0000000001
 40
0.0
 40
0.0
 40
0.0
 40
0.0
 40
0.3333333333333333
 40
0.3333333333333333
 40
0.3333333333333333
 40
0.3333333333333333
 40
1.0
 40
1.0
 40
1.0
 40
1.0
 10
-5.6432
 20
-22.3634
 30
0.0
 10
-5.6432
 20
-22.3634
 30
0.0
 10
-5.6432
 20
-17.6254
 30
0.0
 10
-5.6432
 20
-17.6254
 30
0.0
 10
-5.6432
 20
-17.6254
 30
0.0
 10
-5.6432
 20
-17.6254
 30
0.0
 10
-5.6432
 20
-22.3634
 30
0.0
 10
-5.6432
 20
-22.3634
 30
0.0
  0
SPLINE
  5
98
330
1F
100
AcDbEntity
  8
DEFAULT_1
 62
   250
100
AcDbSpline
210
0.0
220
0.0
230
1.0
 70
    27
 71
     3
 72
    12
 73
     8
 74
     0
 42
0.0000000001
 43
0.0000000001
 40
0.0
 40
0.0
 40
0.0
 40
0.0
 40
0.3333333333333333
 40
0.3333333333333333
 40
0.3333333333333333
 40
0.3333333333333333
 40
1.0
 40
1.0
 40
1.0
 40
1.0
 10
-6.5598
 20
-17.6099
 30
0.0
 10
-6.5598
 20
-17.6099
 30
0.0
 10
-6.5598
 20
-22.3479
 30
0.0
 10
-6.5598
 20
-22.3479
 30
0.0
 10
-6.5598
 20
-22.3479
 30
0.0
 10
-6.5598
 20
-22.3479
 30
0.0
 10
-6.5598
 20
-17.6099
 30
0.0
 10
-6.5598
 20
-17.6099
 30
0.0
  0
SPLINE
  5
99
330
1F
100
AcDbEntity
  8
DEFAULT_1
 62
   250
100
AcDbSpline
210
0.0
220
0.0
230
1.0
 70
    27
 71
     3
 72
    12
 73
     8
 74
     0
 42
0.0000000001
 43
0.0000000001
 40
0.0
 40
0.0
 40
0.0
 40
0.0
 40
0.3333333333333333
 40
0.3333333333333333
 40
0.3333333333333333
 40
0.3333333333333333
 40
1.0
 40
1.0
 40
1.0
 40
1.0
 10
-7.9973
 20
-22.3479
 30
0.0
 10
-7.9973
 20
-22.3479
 30
0.0
 10
-7.9973
 20
-17.6099
 30
0.0
 10
-7.9973
 20
-17.6099
 30
0.0
 10
-7.9973
 20
-17.6099
 30
0.0
 10
-7.9973
 20
-17.6099
 30
0.0
 10
-7.9973
 20
-22.3479
 30
0.0
 10
-7.9973
 20
-22.3479
 30
0.0
  0
SPLINE
  5
9A
330
1F
100
AcDbEntity
  8
DEFAULT_1
 62
   250
100
AcDbSpline
210
0.0
220
0.0
230
1.0
 70
    27
 71
     3
 72
    12
 73
     8
 74
     0
 42
0.0000000001
 43
0.0000000001
 40
0.0
 40
0.0
 40
0.0
 40
0.0
 40
0.3333333333333333
 40
0.3333333333333333
 40
0.3333333333333333
 40
0.3333333333333333
 40
1.0
 40
1.0
 40
1.0
 40
1.0
 10
-10.3729
 20
-22.3634
 30
0.0
 10
-10.3729
 20
-22.3634
 30
0.0
 10
-10.3729
 20
-17.6254
 30
0.0
 10
-10.3729
 20
-17.6254
 30
0.0
 10
-10.3729
 20
-17.6254
 30
0.0
 10
-10.3729
 20
-17.6254
 30
0.0
 10
-10.3729
 20
-22.3634
 30
0.0
 10
-10.3729
 20
-22.3634
 30
0.0
  0
SPLINE
  5
9B
330
1F
100
AcDbEntity
  8
DEFAULT_1
 62
   250
100
AcDbSpline
210
0.0
220
0.0
230
1.0
 70
     8
 71
     3
 72
    12
 73
     8
 74
     0
 42
0.0000000001
 43
0.0000000001
 40
0.0
 40
0.0
 40
0.0
 40
0.0
 40
0.3333333333333333
 40
0.3333333333333333
 40
0.3333333333333333
 40
0.3333333333333333
 40
1.0
 40
1.0
 40
1.0
 40
1.0
 10
-10.3729
 20
-22.3634
 30
0.0
 10
-10.3729
 20
-22.7606
 30
0.0
 10
-10.0511
 20
-23.0826
 30
0.0
 10
-9.6541
 20
-23.0826
 30
0.0
 10
-9.6541
 20
-23.0826
 30
0.0
 10
-9.2572
 20
-23.0826
 30
0.0
 10
-8.9354
 20
-22.7606
 30
0.0
 10
-8.9354
 20
-22.3634
 30
0.0
  0
SPLINE
  5
9C
330
1F
100
AcDbEntity
  8
DEFAULT_1
 62
   250
100
AcDbSpline
210
0.0
220
0.0
230
1.0
 70
     8
 71
     3
 72
    12
 73
     8
 74
     0
 42
0.0000000001
 43
0.0000000001
 40
0.0
 40
0.0
 40
0.0
 40
0.0
 40
0.3333333333333333
 40
0.3333333333333333
 40
0.3333333333333333
 40
0.3333333333333333
 40
1.0
 40
1.0
 40
1.0
 40
1.0
 10
-5.6432
 20
-22.3634
 30
0.0
 10
-5.6432
 20
-22.7606
 30
0.0
 10
-5.3214
 20
-23.0826
 30
0.0
 10
-4.9245
 20
-23.0826
 30
0.0
 10
-4.9245
 20
-23.0826
 30
0.0
 10
-4.5275
 20
-23.0826
 30
0.0
 10
-4.2057
 20
-22.7606
 30
0.0
 10
-4.2057
 20
-22.3634
 30
0.0
  0
SPLINE
  5
9D
330
1F
100
AcDbEntity
  8
DEFAULT_1
 62
   250
100
AcDbSpline
210
0.0
220
0.0
230
1.0
 70
     8
 71
     3
 72
    12
 73
     8
 74
     0
 42
0.0000000001
 43
0.0000000001
 40
0.0
 40
0.0
 40
0.0
 40
0.0
 40
0.3333333333333333
 40
0.3333333333333333
 40
0.3333333333333333
 40
0.3333333333333333
 40
1.0
 40
1.0
 40
1.0
 40
1.0
 10
-4.2057
 20
-17.6254
 30
0.0
 10
-4.2057
 20
-17.2282
 30
0.0
 10
-4.5275
 20
-16.9062
 30
0.0
 10
-4.9245
 20
-16.9062
 30
0.0
 10
-4.9245
 20
-16.9062
 30
0.0
 10
-5.3214
 20
-16.9062
 30
0.0
 10
-5.6432
 20
-17.2282
 30
0.0
 10
-5.6432
 20
-17.6254
 30
0.0
  0
SPLINE
  5
9E
330
1F
100
AcDbEntity
  8
DEFAULT_1
 62
   250
100
AcDbSpline
210
0.0
220
0.0
230
1.0
 70
     8
 71
     3
 72
    12
 73
     8
 74
     0
 42
0.0000000001
 43
0.0000000001
 40
0.0
 40
0.0
 40
0.0
 40
0.0
 40
0.3333333333333333
 40
0.3333333333333333
 40
0.3333333333333333
 40
0.3333333333333333
 40
1.0
 40
1.0
 40
1.0
 40
1.0
 10
-7.9973
 20
-22.3479
 30
0.0
 10
-7.9973
 20
-22.7451
 30
0.0
 10
-7.6755
 20
-23.0671
 30
0.0
 10
-7.2785
 20
-23.0671
 30
0.0
 10
-7.2785
 20
-23.0671
 30
0.0
 10
-6.8816
 20
-23.0671
 30
0.0
 10
-6.5598
 20
-22.7451
 30
0.0
 10
-6.5598
 20
-22.3479
 30
0.0
  0
SPLINE
  5
9F
330
1F
100
AcDbEntity
  8
DEFAULT_1
 62
   250
100
AcDbSpline
210
0.0
220
0.0
230
1.0
 70
     8
 71
     3
 72
    12
 73
     8
 74
     0
 42
0.0000000001
 43
0.0000000001
 40
0.0
 40
0.0
 40
0.0
 40
0.0
 40
0.3333333333333333
 40
0.3333333333333333
 40
0.3333333333333333
 40
0.3333333333333333
 40
1.0
 40
1.0
 40
1.0
 40
1.0
 10
-6.5598
 20
-17.6099
 30
0.0
 10
-6.5598
 20
-17.2127
 30
0.0
 10
-6.8816
 20
-16.8907
 30
0.0
 10
-7.2785
 20
-16.8907
 30
0.0
 10
-7.2785
 20
-16.8907
 30
0.0
 10
-7.6755
 20
-16.8907
 30
0.0
 10
-7.9973
 20
-17.2127
 30
0.0
 10
-7.9973
 20
-17.6099
 30
0.0
  0
SPLINE
  5
A0
330
1F
100
AcDbEntity
  8
DEFAULT_1
 62
   250
100
AcDbSpline
210
0.0
220
0.0
230
1.0
 70
     8
 71
     3
 72
    12
 73
     8
 74
     0
 42
0.0000000001
 43
0.0000000001
 40
0.0
 40
0.0
 40
0.0
 40
0.0
 40
0.3333333333333333
 40
0.3333333333333333
 40
0.3333333333333333
 40
0.3333333333333333
 40
1.0
 40
1.0
 40
1.0
 40
1.0
 10
-8.9354
 20
-17.6254
 30
0.0
 10
-8.9354
 20
-17.2282
 30
0.0
 10
-9.2572
 20
-16.9062
 30
0.0
 10
-9.6541
 20
-16.9062
 30
0.0
 10
-9.6541
 20
-16.9062
 30
0.0
 10
-10.0511
 20
-16.9062
 30
0.0
 10
-10.3729
 20
-17.2282
 30
0.0
 10
-10.3729
 20
-17.6254
 30
0.0
  0
SPLINE
  5
A1
330
1F
100
AcDbEntity
  8
DEFAULT_1
 62
   250
100
AcDbSpline
210
0.0
220
0.0
230
1.0
 70
    24
 71
     3
 72
     8
 73
     4
 74
     0
 42
0.0000000001
 43
0.0000000001
 40
0.0
 40
0.0
 40
0.0
 40
0.0
 40
1.0
 40
1.0
 40
1.0
 40
1.0
 10
4.8702
 20
-7.4648
 30
0.0
 10
4.8702
 20
-7.4648
 30
0.0
 10
-11.7023
 20
-7.4648
 30
0.0
 10
-11.7023
 20
-7.4648
 30
0.0
  0
SPLINE
  5
A2
330
1F
100
AcDbEntity
  8
DEFAULT_1
 62
   250
100
AcDbSpline
210
0.0
220
0.0
230
1.0
 70
    24
 71
     3
 72
     8
 73
     4
 74
     0
 42
0.0000000001
 43
0.0000000001
 40
0.0
 40
0.0
 40
0.0
 40
0.0
 40
1.0
 40
1.0
 40
1.0
 40
1.0
 10
-11.7023
 20
-24.7248
 30
0.0
 10
-11.7023
 20
-24.7248
 30
0.0
 10
4.8702
 20
-24.7248
 30
0.0
 10
4.8702
 20
-24.7248
 30
0.0
  0
SPLINE
  5
A3
330
1F
100
AcDbEntity
  8
DEFAULT_1
 62
   250
100
AcDbSpline
210
0.0
220
0.0
230
1.0
 70
    24
 71
     3
 72
     8
 73
     4
 74
     0
 42
0.0000000001
 43
0.0000000001
 40
0.0
 40
0.0
 40
0.0
 40
0.0
 40
1.0
 40
1.0
 40
1.0
 40
1.0
 10
-12.0405
 20
-7.8032
 30
0.0
 10
-12.0405
 20
-7.8032
 30
0.0
 10
-12.0405
 20
-24.3863
 30
0.0
 10
-12.0405
 20
-24.3863
 30
0.0
  0
SPLINE
  5
A4
330
1F
100
AcDbEntity
  8
DEFAULT_1
 62
   250
100
AcDbSpline
210
0.0
220
0.0
230
1.0
 70
    24
 71
     3
 72
     8
 73
     4
 74
     0
 42
0.0000000001
 43
0.0000000001
 40
0.0
 40
0.0
 40
0.0
 40
0.0
 40
1.0
 40
1.0
 40
1.0
 40
1.0
 10
5.2084
 20
-24.3863
 30
0.0
 10
5.2084
 20
-24.3863
 30
0.0
 10
5.2084
 20
-7.8032
 30
0.0
 10
5.2084
 20
-7.8032
 30
0.0
  0
SPLINE
  5
A5
330
1F
100
AcDbEntity
  8
DEFAULT_1
 62
   250
100
AcDbSpline
210
0.0
220
0.0
230
1.0
 70
     8
 71
     3
 72
     8
 73
     4
 74
     0
 42
0.0000000001
 43
0.0000000001
 40
0.0
 40
0.0
 40
0.0
 40
0.0
 40
1.0
 40
1.0
 40
1.0
 40
1.0
 10
-11.7023
 20
-7.4648
 30
0.0
 10
-11.8891
 20
-7.4648
 30
0.0
 10
-12.0405
 20
-7.6163
 30
0.0
 10
-12.0405
 20
-7.8032
 30
0.0
  0
SPLINE
  5
A6
330
1F
100
AcDbEntity
  8
DEFAULT_1
 62
   250
100
AcDbSpline
210
0.0
220
0.0
230
1.0
 70
     8
 71
     3
 72
     8
 73
     4
 74
     0
 42
0.0000000001
 43
0.0000000001
 40
0.0
 40
0.0
 40
0.0
 40
0.0
 40
1.0
 40
1.0
 40
1.0
 40
1.0
 10
5.2084
 20
-7.8032
 30
0.0
 10
5.2084
 20
-7.6163
 30
0.0
 10
5.057
 20
-7.4648
 30
0.0
 10
4.8702
 20
-7.4648
 30
0.0
  0
SPLINE
  5
A7
330
1F
100
AcDbEntity
  8
DEFAULT_1
 62
   250
100
AcDbSpline
210
0.0
220
0.0
230
1.0
 70
     8
 71
     3
 72
     8
 73
     4
 74
     0
 42
0.0000000001
 43
0.0000000001
 40
0.0
 40
0.0
 40
0.0
 40
0.0
 40
1.0
 40
1.0
 40
1.0
 40
1.0
 10
-12.0405
 20
-24.3863
 30
0.0
 10
-12.0405
 20
-24.5733
 30
0.0
 10
-11.8891
 20
-24.7248
 30
0.0
 10
-11.7023
 20
-24.7248
 30
0.0
  0
SPLINE
  5
A8
330
1F
100
AcDbEntity
  8
DEFAULT_1
 62
   250
100
AcDbSpline
210
0.0
220
0.0
230
1.0
 70
     8
 71
     3
 72
     8
 73
     4
 74
     0
 42
0.0000000001
 43
0.0000000001
 40
0.0
 40
0.0
 40
0.0
 40
0.0
 40
1.0
 40
1.0
 40
1.0
 40
1.0
 10
4.8702
 20
-24.7248
 30
0.0
 10
5.057
 20
-24.7248
 30
0.0
 10
5.2084
 20
-24.5733
 30
0.0
 10
5.2084
 20
-24.3863
 30
0.0
  0
SPLINE
  5
A9
330
1F
100
AcDbEntity
  8
DEFAULT_1
 62
   250
100
AcDbSpline
210
0.0
220
0.0
230
1.0
 70
    27
 71
     3
 72
    12
 73
     8
 74
     0
 42
0.0000000001
 43
0.0000000001
 40
0.0
 40
0.0
 40
0.0
 40
0.0
 40
0.3333333333333333
 40
0.3333333333333333
 40
0.3333333333333333
 40
0.3333333333333333
 40
1.0
 40
1.0
 40
1.0
 40
1.0
 10
-4.938
 20
-10.553
 30
0.0
 10
-4.938
 20
-10.553
 30
0.0
 10
-9.6731
 20
-10.553
 30
0.0
 10
-9.6731
 20
-10.553
 30
0.0
 10
-9.6731
 20
-10.553
 30
0.0
 10
-9.6731
 20
-10.553
 30
0.0
 10
-4.938
 20
-10.553
 30
0.0
 10
-4.938
 20
-10.553
 30
0.0
  0
SPLINE
  5
AA
330
1F
100
AcDbEntity
  8
DEFAULT_1
 62
   250
100
AcDbSpline
210
0.0
220
0.0
230
1.0
 70
    27
 71
     3
 72
    12
 73
     8
 74
     0
 42
0.0000000001
 43
0.0000000001
 40
0.0
 40
0.0
 40
0.0
 40
0.0
 40
0.3333333333333333
 40
0.3333333333333333
 40
0.3333333333333333
 40
0.3333333333333333
 40
1.0
 40
1.0
 40
1.0
 40
1.0
 10
-4.938
 20
-15.2857
 30
0.0
 10
-4.938
 20
-15.2857
 30
0.0
 10
-9.6731
 20
-15.2857
 30
0.0
 10
-9.6731
 20
-15.2857
 30
0.0
 10
-9.6731
 20
-15.2857
 30
0.0
 10
-9.6731
 20
-15.2857
 30
0.0
 10
-4.938
 20
-15.2857
 30
0.0
 10
-4.938
 20
-15.2857
 30
0.0
  0
SPLINE
  5
AB
330
1F
100
AcDbEntity
  8
DEFAULT_1
 62
   250
100
AcDbSpline
210
0.0
220
0.0
230
1.0
 70
    27
 71
     3
 72
    12
 73
     8
 74
     0
 42
0.0000000001
 43
0.0000000001
 40
0.0
 40
0.0
 40
0.0
 40
0.0
 40
0.3333333333333333
 40
0.3333333333333333
 40
0.3333333333333333
 40
0.3333333333333333
 40
1.0
 40
1.0
 40
1.0
 40
1.0
 10
-9.6731
 20
-13.8473
 30
0.0
 10
-9.6731
 20
-13.8473
 30
0.0
 10
-4.938
 20
-13.8473
 30
0.0
 10
-4.938
 20
-13.8473
 30
0.0
 10
-4.938
 20
-13.8473
 30
0.0
 10
-4.938
 20
-13.8473
 30
0.0
 10
-9.6731
 20
-13.8473
 30
0.0
 10
-9.6731
 20
-13.8473
 30
0.0
  0
SPLINE
  5
AC
330
1F
100
AcDbEntity
  8
DEFAULT_1
 62
   250
100
AcDbSpline
210
0.0
220
0.0
230
1.0
 70
    27
 71
     3
 72
    12
 73
     8
 74
     0
 42
0.0000000001
 43
0.0000000001
 40
0.0
 40
0.0
 40
0.0
 40
0.0
 40
0.3333333333333333
 40
0.3333333333333333
 40
0.3333333333333333
 40
0.3333333333333333
 40
1.0
 40
1.0
 40
1.0
 40
1.0
 10
-4.9225
 20
-12.9301
 30
0.0
 10
-4.9225
 20
-12.9301
 30
0.0
 10
-9.6575
 20
-12.9301
 30
0.0
 10
-9.6575
 20
-12.9301
 30
0.0
 10
-9.6575
 20
-12.9301
 30
0.0
 10
-9.6575
 20
-12.9301
 30
0.0
 10
-4.9225
 20
-12.9301
 30
0.0
 10
-4.9225
 20
-12.9301
 30
0.0
  0
SPLINE
  5
AD
330
1F
100
AcDbEntity
  8
DEFAULT_1
 62
   250
100
AcDbSpline
210
0.0
220
0.0
230
1.0
 70
    27
 71
     3
 72
    12
 73
     8
 74
     0
 42
0.0000000001
 43
0.0000000001
 40
0.0
 40
0.0
 40
0.0
 40
0.0
 40
0.3333333333333333
 40
0.3333333333333333
 40
0.3333333333333333
 40
0.3333333333333333
 40
1.0
 40
1.0
 40
1.0
 40
1.0
 10
-9.6575
 20
-11.4918
 30
0.0
 10
-9.6575
 20
-11.4918
 30
0.0
 10
-4.9225
 20
-11.4918
 30
0.0
 10
-4.9225
 20
-11.4918
 30
0.0
 10
-4.9225
 20
-11.4918
 30
0.0
 10
-4.9225
 20
-11.4918
 30
0.0
 10
-9.6575
 20
-11.4918
 30
0.0
 10
-9.6575
 20
-11.4918
 30
0.0
  0
SPLINE
  5
AE
330
1F
100
AcDbEntity
  8
DEFAULT_1
 62
   250
100
AcDbSpline
210
0.0
220
0.0
230
1.0
 70
    27
 71
     3
 72
    12
 73
     8
 74
     0
 42
0.0000000001
 43
0.0000000001
 40
0.0
 40
0.0
 40
0.0
 40
0.0
 40
0.3333333333333333
 40
0.3333333333333333
 40
0.3333333333333333
 40
0.3333333333333333
 40
1.0
 40
1.0
 40
1.0
 40
1.0
 10
-9.6731
 20
-9.1146
 30
0.0
 10
-9.6731
 20
-9.1146
 30
0.0
 10
-4.938
 20
-9.1146
 30
0.0
 10
-4.938
 20
-9.1146
 30
0.0
 10
-4.938
 20
-9.1146
 30
0.0
 10
-4.938
 20
-9.1146
 30
0.0
 10
-9.6731
 20
-9.1146
 30
0.0
 10
-9.6731
 20
-9.1146
 30
0.0
  0
SPLINE
  5
AF
330
1F
100
AcDbEntity
  8
DEFAULT_1
 62
   250
100
AcDbSpline
210
0.0
220
0.0
230
1.0
 70
     8
 71
     3
 72
    12
 73
     8
 74
     0
 42
0.0000000001
 43
0.0000000001
 40
0.0
 40
0.0
 40
0.0
 40
0.0
 40
0.3333333333333333
 40
0.3333333333333333
 40
0.3333333333333333
 40
0.3333333333333333
 40
1.0
 40
1.0
 40
1.0
 40
1.0
 10
-9.6731
 20
-9.1146
 30
0.0
 10
-10.07
 20
-9.1146
 30
0.0
 10
-10.3918
 20
-9.4366
 30
0.0
 10
-10.3918
 20
-9.8338
 30
0.0
 10
-10.3918
 20
-9.8338
 30
0.0
 10
-10.3918
 20
-10.231
 30
0.0
 10
-10.07
 20
-10.553
 30
0.0
 10
-9.6731
 20
-10.553
 30
0.0
  0
SPLINE
  5
B0
330
1F
100
AcDbEntity
  8
DEFAULT_1
 62
   250
100
AcDbSpline
210
0.0
220
0.0
230
1.0
 70
     8
 71
     3
 72
    12
 73
     8
 74
     0
 42
0.0000000001
 43
0.0000000001
 40
0.0
 40
0.0
 40
0.0
 40
0.0
 40
0.3333333333333333
 40
0.3333333333333333
 40
0.3333333333333333
 40
0.3333333333333333
 40
1.0
 40
1.0
 40
1.0
 40
1.0
 10
-9.6731
 20
-13.8473
 30
0.0
 10
-10.07
 20
-13.8473
 30
0.0
 10
-10.3918
 20
-14.1693
 30
0.0
 10
-10.3918
 20
-14.5665
 30
0.0
 10
-10.3918
 20
-14.5665
 30
0.0
 10
-10.3918
 20
-14.9637
 30
0.0
 10
-10.07
 20
-15.2857
 30
0.0
 10
-9.6731
 20
-15.2857
 30
0.0
  0
SPLINE
  5
B1
330
1F
100
AcDbEntity
  8
DEFAULT_1
 62
   250
100
AcDbSpline
210
0.0
220
0.0
230
1.0
 70
     8
 71
     3
 72
    12
 73
     8
 74
     0
 42
0.0000000001
 43
0.0000000001
 40
0.0
 40
0.0
 40
0.0
 40
0.0
 40
0.3333333333333333
 40
0.3333333333333333
 40
0.3333333333333333
 40
0.3333333333333333
 40
1.0
 40
1.0
 40
1.0
 40
1.0
 10
-4.938
 20
-15.2857
 30
0.0
 10
-4.5411
 20
-15.2857
 30
0.0
 10
-4.2194
 20
-14.9637
 30
0.0
 10
-4.2194
 20
-14.5665
 30
0.0
 10
-4.2194
 20
-14.5665
 30
0.0
 10
-4.2194
 20
-14.1693
 30
0.0
 10
-4.5411
 20
-13.8473
 30
0.0
 10
-4.938
 20
-13.8473
 30
0.0
  0
SPLINE
  5
B2
330
1F
100
AcDbEntity
  8
DEFAULT_1
 62
   250
100
AcDbSpline
210
0.0
220
0.0
230
1.0
 70
     8
 71
     3
 72
    12
 73
     8
 74
     0
 42
0.0000000001
 43
0.0000000001
 40
0.0
 40
0.0
 40
0.0
 40
0.0
 40
0.3333333333333333
 40
0.3333333333333333
 40
0.3333333333333333
 40
0.3333333333333333
 40
1.0
 40
1.0
 40
1.0
 40
1.0
 10
-9.6575
 20
-11.4918
 30
0.0
 10
-10.0545
 20
-11.4918
 30
0.0
 10
-10.3763
 20
-11.8137
 30
0.0
 10
-10.3763
 20
-12.2109
 30
0.0
 10
-10.3763
 20
-12.2109
 30
0.0
 10
-10.3763
 20
-12.6081
 30
0.0
 10
-10.0545
 20
-12.9301
 30
0.0
 10
-9.6575
 20
-12.9301
 30
0.0
  0
SPLINE
  5
B3
330
1F
100
AcDbEntity
  8
DEFAULT_1
 62
   250
100
AcDbSpline
210
0.0
220
0.0
230
1.0
 70
     8
 71
     3
 72
    12
 73
     8
 74
     0
 42
0.0000000001
 43
0.0000000001
 40
0.0
 40
0.0
 40
0.0
 40
0.0
 40
0.3333333333333333
 40
0.3333333333333333
 40
0.3333333333333333
 40
0.3333333333333333
 40
1.0
 40
1.0
 40
1.0
 40
1.0
 10
-4.9225
 20
-12.9301
 30
0.0
 10
-4.5256
 20
-12.9301
 30
0.0
 10
-4.2039
 20
-12.6081
 30
0.0
 10
-4.2039
 20
-12.2109
 30
0.0
 10
-4.2039
 20
-12.2109
 30
0.0
 10
-4.2039
 20
-11.8137
 30
0.0
 10
-4.5256
 20
-11.4918
 30
0.0
 10
-4.9225
 20
-11.4918
 30
0.0
  0
SPLINE
  5
B4
330
1F
100
AcDbEntity
  8
DEFAULT_1
 62
   250
100
AcDbSpline
210
0.0
220
0.0
230
1.0
 70
     8
 71
     3
 72
    12
 73
     8
 74
     0
 42
0.0000000001
 43
0.0000000001
 40
0.0
 40
0.0
 40
0.0
 40
0.0
 40
0.3333333333333333
 40
0.3333333333333333
 40
0.3333333333333333
 40
0.3333333333333333
 40
1.0
 40
1.0
 40
1.0
 40
1.0
 10
-4.938
 20
-10.553
 30
0.0
 10
-4.5411
 20
-10.553
 30
0.0
 10
-4.2194
 20
-10.231
 30
0.0
 10
-4.2194
 20
-9.8338
 30
0.0
 10
-4.2194
 20
-9.8338
 30
0.0
 10
-4.2194
 20
-9.4366
 30
0.0
 10
-4.5411
 20
-9.1146
 30
0.0
 10
-4.938
 20
-9.1146
 30
0.0
  0
SPLINE
  5
B5
330
1F
100
AcDbEntity
  8
DEFAULT_1
 62
   250
100
AcDbSpline
210
0.0
220
0.0
230
1.0
 70
    11
 71
     3
 72
    40
 73
    36
 74
     0
 42
0.0000000001
 43
0.0000000001
 40
0.0
 40
0.0
 40
0.0
 40
0.0
 40
0.1
 40
0.1
 40
0.1
 40
0.1
 40
0.2
 40
0.2
 40
0.2
 40
0.2
 40
0.3
 40
0.3
 40
0.3
 40
0.3
 40
0.4
 40
0.4
 40
0.4
 40
0.4
 40
0.5
 40
0.5
 40
0.5
 40
0.5
 40
0.6
 40
0.6
 40
0.6
 40
0.6
 40
0.7
 40
0.7
 40
0.7
 40
0.7
 40
0.8
 40
0.8
 40
0.8
 40
0.8
 40
1.0
 40
1.0
 40
1.0
 40
1.0
 10
-4.8544
 20
-33.3193
 30
0.0
 10
-4.8544
 20
-33.3193
 30
0.0
 10
-5.1023
 20
-33.3193
 30
0.0
 10
-5.1023
 20
-33.3193
 30
0.0
 10
-5.1023
 20
-33.3193
 30
0.0
 10
-5.1023
 20
-33.3193
 30
0.0
 10
-5.1023
 20
-31.7389
 30
0.0
 10
-5.1023
 20
-31.7389
 30
0.0
 10
-5.1023
 20
-31.7389
 30
0.0
 10
-5.1621
 20
-31.7958
 30
0.0
 10
-5.2401
 20
-31.8527
 30
0.0
 10
-5.337
 20
-31.9096
 30
0.0
 10
-5.337
 20
-31.9096
 30
0.0
 10
-5.4344
 20
-31.9665
 30
0.0
 10
-5.5214
 20
-32.0093
 30
0.0
 10
-5.5986
 20
-32.0376
 30
0.0
 10
-5.5986
 20
-32.0376
 30
0.0
 10
-5.5986
 20
-32.0376
 30
0.0
 10
-5.5986
 20
-31.7981
 30
0.0
 10
-5.5986
 20
-31.7981
 30
0.0
 10
-5.5986
 20
-31.7981
 30
0.0
 10
-5.4598
 20
-31.7328
 30
0.0
 10
-5.3384
 20
-31.6537
 30
0.0
 10
-5.2345
 20
-31.5611
 30
0.0
 10
-5.2345
 20
-31.5611
 30
0.0
 10
-5.131
 20
-31.4679
 30
0.0
 10
-5.0572
 20
-31.3781
 30
0.0
 10
-5.0139
 20
-31.2906
 30
0.0
 10
-5.0139
 20
-31.2906
 30
0.0
 10
-5.0139
 20
-31.2906
 30
0.0
 10
-4.8544
 20
-31.2906
 30
0.0
 10
-4.8544
 20
-31.2906
 30
0.0
 10
-4.8544
 20
-31.2906
 30
0.0
 10
-4.8544
 20
-31.2906
 30
0.0
 10
-4.8544
 20
-33.3193
 30
0.0
 10
-4.8544
 20
-33.3193
 30
0.0
  0
SPLINE
  5
B6
330
1F
100
AcDbEntity
  8
DEFAULT_1
 62
   250
100
AcDbSpline
210
0.0
220
0.0
230
1.0
 70
    11
 71
     3
 72
    52
 73
    48
 74
     0
 42
0.0000000001
 43
0.0000000001
 40
0.0
 40
0.0
 40
0.0
 40
0.0
 40
0.0769230769230769
 40
0.0769230769230769
 40
0.0769230769230769
 40
0.0769230769230769
 40
0.1538461538461539
 40
0.1538461538461539
 40
0.1538461538461539
 40
0.1538461538461539
 40
0.2307692307692308
 40
0.2307692307692308
 40
0.2307692307692308
 40
0.2307692307692308
 40
0.3076923076923077
 40
0.3076923076923077
 40
0.3076923076923077
 40
0.3076923076923077
 40
0.3846153846153846
 40
0.3846153846153846
 40
0.3846153846153846
 40
0.3846153846153846
 40
0.4615384615384616
 40
0.4615384615384616
 40
0.4615384615384616
 40
0.4615384615384616
 40
0.5384615384615384
 40
0.5384615384615384
 40
0.5384615384615384
 40
0.5384615384615384
 40
0.6153846153846154
 40
0.6153846153846154
 40
0.6153846153846154
 40
0.6153846153846154
 40
0.6923076923076923
 40
0.6923076923076923
 40
0.6923076923076923
 40
0.6923076923076923
 40
0.7692307692307693
 40
0.7692307692307693
 40
0.7692307692307693
 40
0.7692307692307693
 40
0.8461538461538461
 40
0.8461538461538461
 40
0.8461538461538461
 40
0.8461538461538461
 40
1.0
 40
1.0
 40
1.0
 40
1.0
 10
-4.219
 20
-32.3231
 30
0.0
 10
-4.219
 20
-32.0841
 30
0.0
 10
-4.1945
 20
-31.8917
 30
0.0
 10
-4.1451
 20
-31.7464
 30
0.0
 10
-4.1451
 20
-31.7464
 30
0.0
 10
-4.0962
 20
-31.6006
 30
0.0
 10
-4.0228
 20
-31.4882
 30
0.0
 10
-3.9259
 20
-31.4091
 30
0.0
 10
-3.9259
 20
-31.4091
 30
0.0
 10
-3.829
 20
-31.3301
 30
0.0
 10
-3.7072
 20
-31.2906
 30
0.0
 10
-3.5605
 20
-31.2906
 30
0.0
 10
-3.5605
 20
-31.2906
 30
0.0
 10
-3.4518
 20
-31.2906
 30
0.0
 10
-3.3568
 20
-31.3127
 30
0.0
 10
-3.275
 20
-31.3565
 30
0.0
 10
-3.275
 20
-31.3565
 30
0.0
 10
-3.1931
 20
-31.3997
 30
0.0
 10
-3.1258
 20
-31.4628
 30
0.0
 10
-3.0722
 20
-31.5451
 30
0.0
 10
-3.0722
 20
-31.5451
 30
0.0
 10
-3.0191
 20
-31.6274
 30
0.0
 10
-2.9772
 20
-31.7276
 30
0.0
 10
-2.9471
 20
-31.8456
 30
0.0
 10
-2.9471
 20
-31.8456
 30
0.0
 10
-2.9165
 20
-31.9637
 30
0.0
 10
-2.9015
 20
-32.1227
 30
0.0
 10
-2.9015
 20
-32.3231
 30
0.0
 10
-2.9015
 20
-32.3231
 30
0.0
 10
-2.9015
 20
-32.5601
 30
0.0
 10
-2.9259
 20
-32.7511
 30
0.0
 10
-2.9744
 20
-32.8969
 30
0.0
 10
-2.9744
 20
-32.8969
 30
0.0
 10
-3.0233
 20
-33.0427
 30
0.0
 10
-3.0962
 20
-33.1551
 30
0.0
 10
-3.1931
 20
-33.2346
 30
0.0
 10
-3.1931
 20
-33.2346
 30
0.0
 10
-3.29
 20
-33.3141
 30
0.0
 10
-3.4123
 20
-33.3536
 30
0.0
 10
-3.5605
 20
-33.3536
 30
0.0
 10
-3.5605
 20
-33.3536
 30
0.0
 10
-3.7552
 20
-33.3536
 30
0.0
 10
-3.9081
 20
-33.284
 30
0.0
 10
-4.0191
 20
-33.1443
 30
0.0
 10
-4.0191
 20
-33.1443
 30
0.0
 10
-4.1522
 20
-32.9764
 30
0.0
 10
-4.219
 20
-32.7022
 30
0.0
 10
-4.219
 20
-32.3231
 30
0.0
  0
SPLINE
  5
B7
330
1F
100
AcDbEntity
  8
DEFAULT_1
 62
   250
100
AcDbSpline
210
0.0
220
0.0
230
1.0
 70
    11
 71
     3
 72
    36
 73
    32
 74
     0
 42
0.0000000001
 43
0.0000000001
 40
0.0
 40
0.0
 40
0.0
 40
0.0
 40
0.1111111111111111
 40
0.1111111111111111
 40
0.1111111111111111
 40
0.1111111111111111
 40
0.2222222222222222
 40
0.2222222222222222
 40
0.2222222222222222
 40
0.2222222222222222
 40
0.3333333333333333
 40
0.3333333333333333
 40
0.3333333333333333
 40
0.3333333333333333
 40
0.4444444444444444
 40
0.4444444444444444
 40
0.4444444444444444
 40
0.4444444444444444
 40
0.5555555555555556
 40
0.5555555555555556
 40
0.5555555555555556
 40
0.5555555555555556
 40
0.6666666666666666
 40
0.6666666666666666
 40
0.6666666666666666
 40
0.6666666666666666
 40
0.7777777777777778
 40
0.7777777777777778
 40
0.7777777777777778
 40
0.7777777777777778
 40
1.0
 40
1.0
 40
1.0
 40
1.0
 10
-3.964
 20
-32.3231
 30
0.0
 10
-3.964
 20
-32.6547
 30
0.0
 10
-3.925
 20
-32.8753
 30
0.0
 10
-3.8474
 20
-32.9853
 30
0.0
 10
-3.8474
 20
-32.9853
 30
0.0
 10
-3.7698
 20
-33.0949
 30
0.0
 10
-3.6743
 20
-33.15
 30
0.0
 10
-3.5605
 20
-33.15
 30
0.0
 10
-3.5605
 20
-33.15
 30
0.0
 10
-3.4462
 20
-33.15
 30
0.0
 10
-3.3507
 20
-33.0945
 30
0.0
 10
-3.2731
 20
-32.9844
 30
0.0
 10
-3.2731
 20
-32.9844
 30
0.0
 10
-3.1955
 20
-32.8743
 30
0.0
 10
-3.1564
 20
-32.6537
 30
0.0
 10
-3.1564
 20
-32.3231
 30
0.0
 10
-3.1564
 20
-32.3231
 30
0.0
 10
-3.1564
 20
-31.9905
 30
0.0
 10
-3.1955
 20
-31.7694
 30
0.0
 10
-3.2731
 20
-31.6603
 30
0.0
 10
-3.2731
 20
-31.6603
 30
0.0
 10
-3.3507
 20
-31.5507
 30
0.0
 10
-3.4471
 20
-31.4962
 30
0.0
 10
-3.5628
 20
-31.4962
 30
0.0
 10
-3.5628
 20
-31.4962
 30
0.0
 10
-3.6771
 20
-31.4962
 30
0.0
 10
-3.7679
 20
-31.5446
 30
0.0
 10
-3.8361
 20
-31.641
 30
0.0
 10
-3.8361
 20
-31.641
 30
0.0
 10
-3.9212
 20
-31.7638
 30
0.0
 10
-3.964
 20
-31.9915
 30
0.0
 10
-3.964
 20
-32.3231
 30
0.0
  0
SPLINE
  5
B8
330
1F
100
AcDbEntity
  8
DEFAULT_1
 62
   250
100
AcDbSpline
210
0.0
220
0.0
230
1.0
 70
    11
 71
     3
 72
    92
 73
    88
 74
     0
 42
0.0000000001
 43
0.0000000001
 40
0.0
 40
0.0
 40
0.0
 40
0.0
 40
0.0434782608695652
 40
0.0434782608695652
 40
0.0434782608695652
 40
0.0434782608695652
 40
0.0869565217391304
 40
0.0869565217391304
 40
0.0869565217391304
 40
0.0869565217391304
 40
0.1304347826086956
 40
0.1304347826086956
 40
0.1304347826086956
 40
0.1304347826086956
 40
0.1739130434782609
 40
0.1739130434782609
 40
0.1739130434782609
 40
0.1739130434782609
 40
0.2173913043478261
 40
0.2173913043478261
 40
0.2173913043478261
 40
0.2173913043478261
 40
0.2608695652173913
 40
0.2608695652173913
 40
0.2608695652173913
 40
0.2608695652173913
 40
0.3043478260869565
 40
0.3043478260869565
 40
0.3043478260869565
 40
0.3043478260869565
 40
0.3478260869565217
 40
0.3478260869565217
 40
0.3478260869565217
 40
0.3478260869565217
 40
0.391304347826087
 40
0.391304347826087
 40
0.391304347826087
 40
0.391304347826087
 40
0.4347826086956522
 40
0.4347826086956522
 40
0.4347826086956522
 40
0.4347826086956522
 40
0.4782608695652174
 40
0.4782608695652174
 40
0.4782608695652174
 40
0.4782608695652174
 40
0.5217391304347826
 40
0.5217391304347826
 40
0.5217391304347826
 40
0.5217391304347826
 40
0.5652173913043478
 40
0.5652173913043478
 40
0.5652173913043478
 40
0.5652173913043478
 40
0.6086956521739131
 40
0.6086956521739131
 40
0.6086956521739131
 40
0.6086956521739131
 40
0.6521739130434783
 40
0.6521739130434783
 40
0.6521739130434783
 40
0.6521739130434783
 40
0.6956521739130435
 40
0.6956521739130435
 40
0.6956521739130435
 40
0.6956521739130435
 40
0.7391304347826086
 40
0.7391304347826086
 40
0.7391304347826086
 40
0.7391304347826086
 40
0.782608695652174
 40
0.782608695652174
 40
0.782608695652174
 40
0.782608695652174
 40
0.8260869565217391
 40
0.8260869565217391
 40
0.8260869565217391
 40
0.8260869565217391
 40
0.8695652173913043
 40
0.8695652173913043
 40
0.8695652173913043
 40
0.8695652173913043
 40
0.9130434782608695
 40
0.9130434782608695
 40
0.9130434782608695
 40
0.9130434782608695
 40
1.0
 40
1.0
 40
1.0
 40
1.0
 10
-2.6494
 20
-32.7901
 30
0.0
 10
-2.6494
 20
-32.7901
 30
0.0
 10
-2.3888
 20
-32.768
 30
0.0
 10
-2.3888
 20
-32.768
 30
0.0
 10
-2.3888
 20
-32.768
 30
0.0
 10
-2.3695
 20
-32.895
 30
0.0
 10
-2.3248
 20
-32.99
 30
0.0
 10
-2.2547
 20
-33.054
 30
0.0
 10
-2.2547
 20
-33.054
 30
0.0
 10
-2.1842
 20
-33.118
 30
0.0
 10
-2.0995
 20
-33.15
 30
0.0
 10
-2.0003
 20
-33.15
 30
0.0
 10
-2.0003
 20
-33.15
 30
0.0
 10
-1.8808
 20
-33.15
 30
0.0
 10
-1.7797
 20
-33.1048
 30
0.0
 10
-1.6974
 20
-33.015
 30
0.0
 10
-1.6974
 20
-33.015
 30
0.0
 10
-1.6146
 20
-32.9247
 30
0.0
 10
-1.5732
 20
-32.8052
 30
0.0
 10
-1.5732
 20
-32.6566
 30
0.0
 10
-1.5732
 20
-32.6566
 30
0.0
 10
-1.5732
 20
-32.515
 30
0.0
 10
-1.6127
 20
-32.4035
 30
0.0
 10
-1.6922
 20
-32.3217
 30
0.0
 10
-1.6922
 20
-32.3217
 30
0.0
 10
-1.7717
 20
-32.2398
 30
0.0
 10
-1.8756
 20
-32.1989
 30
0.0
 10
-2.0045
 20
-32.1989
 30
0.0
 10
-2.0045
 20
-32.1989
 30
0.0
 10
-2.0845
 20
-32.1989
 30
0.0
 10
-2.1564
 20
-32.2172
 30
0.0
 10
-2.2209
 20
-32.2534
 30
0.0
 10
-2.2209
 20
-32.2534
 30
0.0
 10
-2.2853
 20
-32.2897
 30
0.0
 10
-2.3356
 20
-32.3367
 30
0.0
 10
-2.3723
 20
-32.3946
 30
0.0
 10
-2.3723
 20
-32.3946
 30
0.0
 10
-2.3723
 20
-32.3946
 30
0.0
 10
-2.6052
 20
-32.3645
 30
0.0
 10
-2.6052
 20
-32.3645
 30
0.0
 10
-2.6052
 20
-32.3645
 30
0.0
 10
-2.6052
 20
-32.3645
 30
0.0
 10
-2.4095
 20
-31.3268
 30
0.0
 10
-2.4095
 20
-31.3268
 30
0.0
 10
-2.4095
 20
-31.3268
 30
0.0
 10
-2.4095
 20
-31.3268
 30
0.0
 10
-1.4048
 20
-31.3268
 30
0.0
 10
-1.4048
 20
-31.3268
 30
0.0
 10
-1.4048
 20
-31.3268
 30
0.0
 10
-1.4048
 20
-31.3268
 30
0.0
 10
-1.4048
 20
-31.5639
 30
0.0
 10
-1.4048
 20
-31.5639
 30
0.0
 10
-1.4048
 20
-31.5639
 30
0.0
 10
-1.4048
 20
-31.5639
 30
0.0
 10
-2.211
 20
-31.5639
 30
0.0
 10
-2.211
 20
-31.5639
 30
0.0
 10
-2.211
 20
-31.5639
 30
0.0
 10
-2.211
 20
-31.5639
 30
0.0
 10
-2.3201
 20
-32.1067
 30
0.0
 10
-2.3201
 20
-32.1067
 30
0.0
 10
-2.3201
 20
-32.1067
 30
0.0
 10
-2.1988
 20
-32.022
 30
0.0
 10
-2.0713
 20
-31.9797
 30
0.0
 10
-1.9382
 20
-31.9797
 30
0.0
 10
-1.9382
 20
-31.9797
 30
0.0
 10
-1.7618
 20
-31.9797
 30
0.0
 10
-1.6132
 20
-32.0408
 30
0.0
 10
-1.4918
 20
-32.1631
 30
0.0
 10
-1.4918
 20
-32.1631
 30
0.0
 10
-1.3705
 20
-32.2854
 30
0.0
 10
-1.3098
 20
-32.4425
 30
0.0
 10
-1.3098
 20
-32.6344
 30
0.0
 10
-1.3098
 20
-32.6344
 30
0.0
 10
-1.3098
 20
-32.8174
 30
0.0
 10
-1.3634
 20
-32.9755
 30
0.0
 10
-1.4697
 20
-33.1086
 30
0.0
 10
-1.4697
 20
-33.1086
 30
0.0
 10
-1.5995
 20
-33.2718
 30
0.0
 10
-1.7764
 20
-33.3536
 30
0.0
 10
-2.0003
 20
-33.3536
 30
0.0
 10
-2.0003
 20
-33.3536
 30
0.0
 10
-2.1842
 20
-33.3536
 30
0.0
 10
-2.3342
 20
-33.3024
 30
0.0
 10
-2.4504
 20
-33.1994
 30
0.0
 10
-2.4504
 20
-33.1994
 30
0.0
 10
-2.5666
 20
-33.0963
 30
0.0
 10
-2.6329
 20
-32.9599
 30
0.0
 10
-2.6494
 20
-32.7901
 30
0.0
  0
SPLINE
  5
B9
330
1F
100
AcDbEntity
  8
DEFAULT_1
 62
   250
100
AcDbSpline
210
0.0
220
0.0
230
1.0
 70
    11
 71
     3
 72
    20
 73
    16
 74
     0
 42
0.0000000001
 43
0.0000000001
 40
0.0
 40
0.0
 40
0.0
 40
0.0
 40
0.2
 40
0.2
 40
0.2
 40
0.2
 40
0.4
 40
0.4
 40
0.4
 40
0.4
 40
0.6
 40
0.6
 40
0.6
 40
0.6
 40
1.0
 40
1.0
 40
1.0
 40
1.0
 10
3.0004
 20
-33.2611
 30
0.0
 10
3.0004
 20
-33.2611
 30
0.0
 10
5.5004
 20
-33.614
 30
0.0
 10
5.5004
 20
-33.614
 30
0.0
 10
5.5004
 20
-33.614
 30
0.0
 10
5.5004
 20
-33.614
 30
0.0
 10
5.5004
 20
-33.6923
 30
0.0
 10
5.5004
 20
-33.6923
 30
0.0
 10
5.5004
 20
-33.6923
 30
0.0
 10
5.5004
 20
-33.6923
 30
0.0
 10
3.0004
 20
-34.0686
 30
0.0
 10
3.0004
 20
-34.0686
 30
0.0
 10
3.0004
 20
-34.0686
 30
0.0
 10
3.0004
 20
-34.0686
 30
0.0
 10
3.0004
 20
-33.2611
 30
0.0
 10
3.0004
 20
-33.2611
 30
0.0
  0
SPLINE
  5
BA
330
1F
100
AcDbEntity
  8
DEFAULT_1
 62
   250
100
AcDbSpline
210
0.0
220
0.0
230
1.0
 70
    11
 71
     3
 72
    20
 73
    16
 74
     0
 42
0.0000000001
 43
0.0000000001
 40
0.0
 40
0.0
 40
0.0
 40
0.0
 40
0.2
 40
0.2
 40
0.2
 40
0.2
 40
0.4
 40
0.4
 40
0.4
 40
0.4
 40
0.6
 40
0.6
 40
0.6
 40
0.6
 40
1.0
 40
1.0
 40
1.0
 40
1.0
 10
-9.7816
 20
-34.0576
 30
0.0
 10
-9.7816
 20
-34.0576
 30
0.0
 10
-12.2816
 20
-33.7047
 30
0.0
 10
-12.2816
 20
-33.7047
 30
0.0
 10
-12.2816
 20
-33.7047
 30
0.0
 10
-12.2816
 20
-33.7047
 30
0.0
 10
-12.2816
 20
-33.6264
 30
0.0
 10
-12.2816
 20
-33.6264
 30
0.0
 10
-12.2816
 20
-33.6264
 30
0.0
 10
-12.2816
 20
-33.6264
 30
0.0
 10
-9.7816
 20
-33.2501
 30
0.0
 10
-9.7816
 20
-33.2501
 30
0.0
 10
-9.7816
 20
-33.2501
 30
0.0
 10
-9.7816
 20
-33.2501
 30
0.0
 10
-9.7816
 20
-34.0576
 30
0.0
 10
-9.7816
 20
-34.0576
 30
0.0
  0
SPLINE
  5
BB
330
1F
100
AcDbEntity
  8
DEFAULT_1
 62
   250
100
AcDbSpline
210
0.0
220
0.0
230
1.0
 70
    11
 71
     3
 72
    40
 73
    36
 74
     0
 42
0.0000000001
 43
0.0000000001
 40
0.0
 40
0.0
 40
0.0
 40
0.0
 40
0.1
 40
0.1
 40
0.1
 40
0.1
 40
0.2
 40
0.2
 40
0.2
 40
0.2
 40
0.3
 40
0.3
 40
0.3
 40
0.3
 40
0.4
 40
0.4
 40
0.4
 40
0.4
 40
0.5
 40
0.5
 40
0.5
 40
0.5
 40
0.6
 40
0.6
 40
0.6
 40
0.6
 40
0.7
 40
0.7
 40
0.7
 40
0.7
 40
0.8
 40
0.8
 40
0.8
 40
0.8
 40
1.0
 40
1.0
 40
1.0
 40
1.0
 10
-19.2102
 20
-17.4732
 30
0.0
 10
-19.2102
 20
-17.4732
 30
0.0
 10
-19.2102
 20
-17.7211
 30
0.0
 10
-19.2102
 20
-17.7211
 30
0.0
 10
-19.2102
 20
-17.7211
 30
0.0
 10
-19.2102
 20
-17.7211
 30
0.0
 10
-20.7906
 20
-17.7211
 30
0.0
 10
-20.7906
 20
-17.7211
 30
0.0
 10
-20.7906
 20
-17.7211
 30
0.0
 10
-20.7337
 20
-17.7809
 30
0.0
 10
-20.6768
 20
-17.8589
 30
0.0
 10
-20.6199
 20
-17.9558
 30
0.0
 10
-20.6199
 20
-17.9558
 30
0.0
 10
-20.563
 20
-18.0532
 30
0.0
 10
-20.5202
 20
-18.1402
 30
0.0
 10
-20.4919
 20
-18.2174
 30
0.0
 10
-20.4919
 20
-18.2174
 30
0.0
 10
-20.4919
 20
-18.2174
 30
0.0
 10
-20.7314
 20
-18.2174
 30
0.0
 10
-20.7314
 20
-18.2174
 30
0.0
 10
-20.7314
 20
-18.2174
 30
0.0
 10
-20.7967
 20
-18.0786
 30
0.0
 10
-20.8758
 20
-17.9572
 30
0.0
 10
-20.9684
 20
-17.8533
 30
0.0
 10
-20.9684
 20
-17.8533
 30
0.0
 10
-21.0616
 20
-17.7498
 30
0.0
 10
-21.1514
 20
-17.676
 30
0.0
 10
-21.2389
 20
-17.6327
 30
0.0
 10
-21.2389
 20
-17.6327
 30
0.0
 10
-21.2389
 20
-17.6327
 30
0.0
 10
-21.2389
 20
-17.4732
 30
0.0
 10
-21.2389
 20
-17.4732
 30
0.0
 10
-21.2389
 20
-17.4732
 30
0.0
 10
-21.2389
 20
-17.4732
 30
0.0
 10
-19.2102
 20
-17.4732
 30
0.0
 10
-19.2102
 20
-17.4732
 30
0.0
  0
SPLINE
  5
BC
330
1F
100
AcDbEntity
  8
DEFAULT_1
 62
   250
100
AcDbSpline
210
0.0
220
0.0
230
1.0
 70
    11
 71
     3
 72
    52
 73
    48
 74
     0
 42
0.0000000001
 43
0.0000000001
 40
0.0
 40
0.0
 40
0.0
 40
0.0
 40
0.0769230769230769
 40
0.0769230769230769
 40
0.0769230769230769
 40
0.0769230769230769
 40
0.1538461538461539
 40
0.1538461538461539
 40
0.1538461538461539
 40
0.1538461538461539
 40
0.2307692307692308
 40
0.2307692307692308
 40
0.2307692307692308
 40
0.2307692307692308
 40
0.3076923076923077
 40
0.3076923076923077
 40
0.3076923076923077
 40
0.3076923076923077
 40
0.3846153846153846
 40
0.3846153846153846
 40
0.3846153846153846
 40
0.3846153846153846
 40
0.4615384615384616
 40
0.4615384615384616
 40
0.4615384615384616
 40
0.4615384615384616
 40
0.5384615384615384
 40
0.5384615384615384
 40
0.5384615384615384
 40
0.5384615384615384
 40
0.6153846153846154
 40
0.6153846153846154
 40
0.6153846153846154
 40
0.6153846153846154
 40
0.6923076923076923
 40
0.6923076923076923
 40
0.6923076923076923
 40
0.6923076923076923
 40
0.7692307692307693
 40
0.7692307692307693
 40
0.7692307692307693
 40
0.7692307692307693
 40
0.8461538461538461
 40
0.8461538461538461
 40
0.8461538461538461
 40
0.8461538461538461
 40
1.0
 40
1.0
 40
1.0
 40
1.0
 10
-20.2064
 20
-16.8378
 30
0.0
 10
-20.4454
 20
-16.8378
 30
0.0
 10
-20.6378
 20
-16.8133
 30
0.0
 10
-20.7831
 20
-16.7639
 30
0.0
 10
-20.7831
 20
-16.7639
 30
0.0
 10
-20.9289
 20
-16.715
 30
0.0
 10
-21.0413
 20
-16.6416
 30
0.0
 10
-21.1204
 20
-16.5447
 30
0.0
 10
-21.1204
 20
-16.5447
 30
0.0
 10
-21.1994
 20
-16.4478
 30
0.0
 10
-21.2389
 20
-16.326
 30
0.0
 10
-21.2389
 20
-16.1793
 30
0.0
 10
-21.2389
 20
-16.1793
 30
0.0
 10
-21.2389
 20
-16.0706
 30
0.0
 10
-21.2168
 20
-15.9756
 30
0.0
 10
-21.173
 20
-15.8938
 30
0.0
 10
-21.173
 20
-15.8938
 30
0.0
 10
-21.1298
 20
-15.8119
 30
0.0
 10
-21.0667
 20
-15.7446
 30
0.0
 10
-20.9844
 20
-15.691
 30
0.0
 10
-20.9844
 20
-15.691
 30
0.0
 10
-20.9021
 20
-15.6379
 30
0.0
 10
-20.8019
 20
-15.596
 30
0.0
 10
-20.6839
 20
-15.5659
 30
0.0
 10
-20.6839
 20
-15.5659
 30
0.0
 10
-20.5658
 20
-15.5353
 30
0.0
 10
-20.4068
 20
-15.5203
 30
0.0
 10
-20.2064
 20
-15.5203
 30
0.0
 10
-20.2064
 20
-15.5203
 30
0.0
 10
-19.9694
 20
-15.5203
 30
0.0
 10
-19.7784
 20
-15.5447
 30
0.0
 10
-19.6326
 20
-15.5932
 30
0.0
 10
-19.6326
 20
-15.5932
 30
0.0
 10
-19.4868
 20
-15.6421
 30
0.0
 10
-19.3744
 20
-15.715
 30
0.0
 10
-19.2949
 20
-15.8119
 30
0.0
 10
-19.2949
 20
-15.8119
 30
0.0
 10
-19.2154
 20
-15.9088
 30
0.0
 10
-19.1759
 20
-16.0311
 30
0.0
 10
-19.1759
 20
-16.1793
 30
0.0
 10
-19.1759
 20
-16.1793
 30
0.0
 10
-19.1759
 20
-16.374
 30
0.0
 10
-19.2455
 20
-16.5269
 30
0.0
 10
-19.3852
 20
-16.6379
 30
0.0
 10
-19.3852
 20
-16.6379
 30
0.0
 10
-19.5531
 20
-16.771
 30
0.0
 10
-19.8273
 20
-16.8378
 30
0.0
 10
-20.2064
 20
-16.8378
 30
0.0
  0
SPLINE
  5
BD
330
1F
100
AcDbEntity
  8
DEFAULT_1
 62
   250
100
AcDbSpline
210
0.0
220
0.0
230
1.0
 70
    11
 71
     3
 72
    36
 73
    32
 74
     0
 42
0.0000000001
 43
0.0000000001
 40
0.0
 40
0.0
 40
0.0
 40
0.0
 40
0.1111111111111111
 40
0.1111111111111111
 40
0.1111111111111111
 40
0.1111111111111111
 40
0.2222222222222222
 40
0.2222222222222222
 40
0.2222222222222222
 40
0.2222222222222222
 40
0.3333333333333333
 40
0.3333333333333333
 40
0.3333333333333333
 40
0.3333333333333333
 40
0.4444444444444444
 40
0.4444444444444444
 40
0.4444444444444444
 40
0.4444444444444444
 40
0.5555555555555556
 40
0.5555555555555556
 40
0.5555555555555556
 40
0.5555555555555556
 40
0.6666666666666666
 40
0.6666666666666666
 40
0.6666666666666666
 40
0.6666666666666666
 40
0.7777777777777778
 40
0.7777777777777778
 40
0.7777777777777778
 40
0.7777777777777778
 40
1.0
 40
1.0
 40
1.0
 40
1.0
 10
-20.2064
 20
-16.5828
 30
0.0
 10
-19.8748
 20
-16.5828
 30
0.0
 10
-19.6542
 20
-16.5438
 30
0.0
 10
-19.5442
 20
-16.4662
 30
0.0
 10
-19.5442
 20
-16.4662
 30
0.0
 10
-19.4346
 20
-16.3886
 30
0.0
 10
-19.3795
 20
-16.2931
 30
0.0
 10
-19.3795
 20
-16.1793
 30
0.0
 10
-19.3795
 20
-16.1793
 30
0.0
 10
-19.3795
 20
-16.065
 30
0.0
 10
-19.435
 20
-15.9695
 30
0.0
 10
-19.5451
 20
-15.8919
 30
0.0
 10
-19.5451
 20
-15.8919
 30
0.0
 10
-19.6552
 20
-15.8143
 30
0.0
 10
-19.8758
 20
-15.7752
 30
0.0
 10
-20.2064
 20
-15.7752
 30
0.0
 10
-20.2064
 20
-15.7752
 30
0.0
 10
-20.539
 20
-15.7752
 30
0.0
 10
-20.7601
 20
-15.8143
 30
0.0
 10
-20.8692
 20
-15.8919
 30
0.0
 10
-20.8692
 20
-15.8919
 30
0.0
 10
-20.9788
 20
-15.9695
 30
0.0
 10
-21.0333
 20
-16.0659
 30
0.0
 10
-21.0333
 20
-16.1816
 30
0.0
 10
-21.0333
 20
-16.1816
 30
0.0
 10
-21.0333
 20
-16.2959
 30
0.0
 10
-20.9849
 20
-16.3867
 30
0.0
 10
-20.8885
 20
-16.4549
 30
0.0
 10
-20.8885
 20
-16.4549
 30
0.0
 10
-20.7657
 20
-16.54
 30
0.0
 10
-20.538
 20
-16.5828
 30
0.0
 10
-20.2064
 20
-16.5828
 30
0.0
  0
SPLINE
  5
BE
330
1F
100
AcDbEntity
  8
DEFAULT_1
 62
   250
100
AcDbSpline
210
0.0
220
0.0
230
1.0
 70
    11
 71
     3
 72
    92
 73
    88
 74
     0
 42
0.0000000001
 43
0.0000000001
 40
0.0
 40
0.0
 40
0.0
 40
0.0
 40
0.0434782608695652
 40
0.0434782608695652
 40
0.0434782608695652
 40
0.0434782608695652
 40
0.0869565217391304
 40
0.0869565217391304
 40
0.0869565217391304
 40
0.0869565217391304
 40
0.1304347826086956
 40
0.1304347826086956
 40
0.1304347826086956
 40
0.1304347826086956
 40
0.1739130434782609
 40
0.1739130434782609
 40
0.1739130434782609
 40
0.1739130434782609
 40
0.2173913043478261
 40
0.2173913043478261
 40
0.2173913043478261
 40
0.2173913043478261
 40
0.2608695652173913
 40
0.2608695652173913
 40
0.2608695652173913
 40
0.2608695652173913
 40
0.3043478260869565
 40
0.3043478260869565
 40
0.3043478260869565
 40
0.3043478260869565
 40
0.3478260869565217
 40
0.3478260869565217
 40
0.3478260869565217
 40
0.3478260869565217
 40
0.391304347826087
 40
0.391304347826087
 40
0.391304347826087
 40
0.391304347826087
 40
0.4347826086956522
 40
0.4347826086956522
 40
0.4347826086956522
 40
0.4347826086956522
 40
0.4782608695652174
 40
0.4782608695652174
 40
0.4782608695652174
 40
0.4782608695652174
 40
0.5217391304347826
 40
0.5217391304347826
 40
0.5217391304347826
 40
0.5217391304347826
 40
0.5652173913043478
 40
0.5652173913043478
 40
0.5652173913043478
 40
0.5652173913043478
 40
0.6086956521739131
 40
0.6086956521739131
 40
0.6086956521739131
 40
0.6086956521739131
 40
0.6521739130434783
 40
0.6521739130434783
 40
0.6521739130434783
 40
0.6521739130434783
 40
0.6956521739130435
 40
0.6956521739130435
 40
0.6956521739130435
 40
0.6956521739130435
 40
0.7391304347826086
 40
0.7391304347826086
 40
0.7391304347826086
 40
0.7391304347826086
 40
0.782608695652174
 40
0.782608695652174
 40
0.782608695652174
 40
0.782608695652174
 40
0.8260869565217391
 40
0.8260869565217391
 40
0.8260869565217391
 40
0.8260869565217391
 40
0.8695652173913043
 40
0.8695652173913043
 40
0.8695652173913043
 40
0.8695652173913043
 40
0.9130434782608695
 40
0.9130434782608695
 40
0.9130434782608695
 40
0.9130434782608695
 40
1.0
 40
1.0
 40
1.0
 40
1.0
 10
-19.7394
 20
-15.2682
 30
0.0
 10
-19.7394
 20
-15.2682
 30
0.0
 10
-19.7615
 20
-15.0076
 30
0.0
 10
-19.7615
 20
-15.0076
 30
0.0
 10
-19.7615
 20
-15.0076
 30
0.0
 10
-19.6345
 20
-14.9883
 30
0.0
 10
-19.5395
 20
-14.9436
 30
0.0
 10
-19.4755
 20
-14.8735
 30
0.0
 10
-19.4755
 20
-14.8735
 30
0.0
 10
-19.4115
 20
-14.803
 30
0.0
 10
-19.3795
 20
-14.7183
 30
0.0
 10
-19.3795
 20
-14.6191
 30
0.0
 10
-19.3795
 20
-14.6191
 30
0.0
 10
-19.3795
 20
-14.4996
 30
0.0
 10
-19.4247
 20
-14.3985
 30
0.0
 10
-19.5145
 20
-14.3162
 30
0.0
 10
-19.5145
 20
-14.3162
 30
0.0
 10
-19.6048
 20
-14.2334
 30
0.0
 10
-19.7243
 20
-14.192
 30
0.0
 10
-19.8729
 20
-14.192
 30
0.0
 10
-19.8729
 20
-14.192
 30
0.0
 10
-20.0145
 20
-14.192
 30
0.0
 10
-20.126
 20
-14.2315
 30
0.0
 10
-20.2078
 20
-14.311
 30
0.0
 10
-20.2078
 20
-14.311
 30
0.0
 10
-20.2897
 20
-14.3905
 30
0.0
 10
-20.3306
 20
-14.4944
 30
0.0
 10
-20.3306
 20
-14.6233
 30
0.0
 10
-20.3306
 20
-14.6233
 30
0.0
 10
-20.3306
 20
-14.7033
 30
0.0
 10
-20.3123
 20
-14.7752
 30
0.0
 10
-20.2761
 20
-14.8397
 30
0.0
 10
-20.2761
 20
-14.8397
 30
0.0
 10
-20.2398
 20
-14.9041
 30
0.0
 10
-20.1928
 20
-14.9544
 30
0.0
 10
-20.1349
 20
-14.9911
 30
0.0
 10
-20.1349
 20
-14.9911
 30
0.0
 10
-20.1349
 20
-14.9911
 30
0.0
 10
-20.165
 20
-15.224
 30
0.0
 10
-20.165
 20
-15.224
 30
0.0
 10
-20.165
 20
-15.224
 30
0.0
 10
-20.165
 20
-15.224
 30
0.0
 10
-21.2027
 20
-15.0283
 30
0.0
 10
-21.2027
 20
-15.0283
 30
0.0
 10
-21.2027
 20
-15.0283
 30
0.0
 10
-21.2027
 20
-15.0283
 30
0.0
 10
-21.2027
 20
-14.0236
 30
0.0
 10
-21.2027
 20
-14.0236
 30
0.0
 10
-21.2027
 20
-14.0236
 30
0.0
 10
-21.2027
 20
-14.0236
 30
0.0
 10
-20.9656
 20
-14.0236
 30
0.0
 10
-20.9656
 20
-14.0236
 30
0.0
 10
-20.9656
 20
-14.0236
 30
0.0
 10
-20.9656
 20
-14.0236
 30
0.0
 10
-20.9656
 20
-14.8298
 30
0.0
 10
-20.9656
 20
-14.8298
 30
0.0
 10
-20.9656
 20
-14.8298
 30
0.0
 10
-20.9656
 20
-14.8298
 30
0.0
 10
-20.4228
 20
-14.9389
 30
0.0
 10
-20.4228
 20
-14.9389
 30
0.0
 10
-20.4228
 20
-14.9389
 30
0.0
 10
-20.5075
 20
-14.8176
 30
0.0
 10
-20.5498
 20
-14.6901
 30
0.0
 10
-20.5498
 20
-14.557
 30
0.0
 10
-20.5498
 20
-14.557
 30
0.0
 10
-20.5498
 20
-14.3806
 30
0.0
 10
-20.4887
 20
-14.232
 30
0.0
 10
-20.3664
 20
-14.1106
 30
0.0
 10
-20.3664
 20
-14.1106
 30
0.0
 10
-20.2441
 20
-13.9893
 30
0.0
 10
-20.087
 20
-13.9286
 30
0.0
 10
-19.8951
 20
-13.9286
 30
0.0
 10
-19.8951
 20
-13.9286
 30
0.0
 10
-19.7121
 20
-13.9286
 30
0.0
 10
-19.554
 20
-13.9822
 30
0.0
 10
-19.4209
 20
-14.0885
 30
0.0
 10
-19.4209
 20
-14.0885
 30
0.0
 10
-19.2577
 20
-14.2183
 30
0.0
 10
-19.1759
 20
-14.3952
 30
0.0
 10
-19.1759
 20
-14.6191
 30
0.0
 10
-19.1759
 20
-14.6191
 30
0.0
 10
-19.1759
 20
-14.803
 30
0.0
 10
-19.2271
 20
-14.953
 30
0.0
 10
-19.3301
 20
-15.0692
 30
0.0
 10
-19.3301
 20
-15.0692
 30
0.0
 10
-19.4332
 20
-15.1854
 30
0.0
 10
-19.5696
 20
-15.2517
 30
0.0
 10
-19.7394
 20
-15.2682
 30
0.0
  0
SPLINE
  5
BF
330
1F
100
AcDbEntity
  8
DEFAULT_1
 62
   250
100
AcDbSpline
210
0.0
220
0.0
230
1.0
 70
    11
 71
     3
 72
    20
 73
    16
 74
     0
 42
0.0000000001
 43
0.0000000001
 40
0.0
 40
0.0
 40
0.0
 40
0.0
 40
0.2
 40
0.2
 40
0.2
 40
0.2
 40
0.4
 40
0.4
 40
0.4
 40
0.4
 40
0.6
 40
0.6
 40
0.6
 40
0.6
 40
1.0
 40
1.0
 40
1.0
 40
1.0
 10
-18.8608
 20
-9.6981
 30
0.0
 10
-18.8608
 20
-9.6981
 30
0.0
 10
-18.5079
 20
-7.1981
 30
0.0
 10
-18.5079
 20
-7.1981
 30
0.0
 10
-18.5079
 20
-7.1981
 30
0.0
 10
-18.5079
 20
-7.1981
 30
0.0
 10
-18.4296
 20
-7.1981
 30
0.0
 10
-18.4296
 20
-7.1981
 30
0.0
 10
-18.4296
 20
-7.1981
 30
0.0
 10
-18.4296
 20
-7.1981
 30
0.0
 10
-18.0533
 20
-9.6981
 30
0.0
 10
-18.0533
 20
-9.6981
 30
0.0
 10
-18.0533
 20
-9.6981
 30
0.0
 10
-18.0533
 20
-9.6981
 30
0.0
 10
-18.8608
 20
-9.6981
 30
0.0
 10
-18.8608
 20
-9.6981
 30
0.0
  0
SPLINE
  5
C0
330
1F
100
AcDbEntity
  8
DEFAULT_1
 62
   250
100
AcDbSpline
210
0.0
220
0.0
230
1.0
 70
    11
 71
     3
 72
    20
 73
    16
 74
     0
 42
0.0000000001
 43
0.0000000001
 40
0.0
 40
0.0
 40
0.0
 40
0.0
 40
0.2
 40
0.2
 40
0.2
 40
0.2
 40
0.4
 40
0.4
 40
0.4
 40
0.4
 40
0.6
 40
0.6
 40
0.6
 40
0.6
 40
1.0
 40
1.0
 40
1.0
 40
1.0
 10
-18.0662
 20
-22.3941
 30
0.0
 10
-18.0662
 20
-22.3941
 30
0.0
 10
-18.4191
 20
-24.8941
 30
0.0
 10
-18.4191
 20
-24.8941
 30
0.0
 10
-18.4191
 20
-24.8941
 30
0.0
 10
-18.4191
 20
-24.8941
 30
0.0
 10
-18.4974
 20
-24.8941
 30
0.0
 10
-18.4974
 20
-24.8941
 30
0.0
 10
-18.4974
 20
-24.8941
 30
0.0
 10
-18.4974
 20
-24.8941
 30
0.0
 10
-18.8737
 20
-22.3941
 30
0.0
 10
-18.8737
 20
-22.3941
 30
0.0
 10
-18.8737
 20
-22.3941
 30
0.0
 10
-18.8737
 20
-22.3941
 30
0.0
 10
-18.0662
 20
-22.3941
 30
0.0
 10
-18.0662
 20
-22.3941
 30
0.0
  0
SPLINE
  5
C1
330
1F
100
AcDbEntity
  8
DEFAULT_1
 62
   250
100
AcDbSpline
210
0.0
220
0.0
230
1.0
 70
    11
 71
     3
 72
    48
 73
    44
 74
     0
 42
0.0000000001
 43
0.0000000001
 40
0.0
 40
0.0
 40
0.0
 40
0.0
 40
0.0833333333333333
 40
0.0833333333333333
 40
0.0833333333333333
 40
0.0833333333333333
 40
0.1666666666666667
 40
0.1666666666666667
 40
0.1666666666666667
 40
0.1666666666666667
 40
0.25
 40
0.25
 40
0.25
 40
0.25
 40
0.3333333333333333
 40
0.3333333333333333
 40
0.3333333333333333
 40
0.3333333333333333
 40
0.4166666666666667
 40
0.4166666666666667
 40
0.4166666666666667
 40
0.4166666666666667
 40
0.5
 40
0.5
 40
0.5
 40
0.5
 40
0.5833333333333334
 40
0.5833333333333334
 40
0.5833333333333334
 40
0.5833333333333334
 40
0.6666666666666666
 40
0.6666666666666666
 40
0.6666666666666666
 40
0.6666666666666666
 40
0.75
 40
0.75
 40
0.75
 40
0.75
 40
0.8333333333333334
 40
0.8333333333333334
 40
0.8333333333333334
 40
0.8333333333333334
 40
1.0
 40
1.0
 40
1.0
 40
1.0
 10
-21.8456
 20
7.0411
 30
0.0
 10
-21.8456
 20
7.0411
 30
0.0
 10
-22.0841
 20
7.0411
 30
0.0
 10
-22.0841
 20
7.0411
 30
0.0
 10
-22.0841
 20
7.0411
 30
0.0
 10
-22.0841
 20
7.0411
 30
0.0
 10
-22.0841
 20
8.3487
 30
0.0
 10
-22.0841
 20
8.3487
 30
0.0
 10
-22.0841
 20
8.3487
 30
0.0
 10
-22.0841
 20
8.3487
 30
0.0
 10
-21.8912
 20
8.3487
 30
0.0
 10
-21.8912
 20
8.3487
 30
0.0
 10
-21.8912
 20
8.3487
 30
0.0
 10
-21.7544
 20
8.2203
 30
0.0
 10
-21.5723
 20
8.0928
 30
0.0
 10
-21.3456
 20
7.9663
 30
0.0
 10
-21.3456
 20
7.9663
 30
0.0
 10
-21.1189
 20
7.8402
 30
0.0
 10
-20.8851
 20
7.7424
 30
0.0
 10
-20.6457
 20
7.6737
 30
0.0
 10
-20.6457
 20
7.6737
 30
0.0
 10
-20.4764
 20
7.6239
 30
0.0
 10
-20.2915
 20
7.5924
 30
0.0
 10
-20.0902
 20
7.5787
 30
0.0
 10
-20.0902
 20
7.5787
 30
0.0
 10
-20.0902
 20
7.5787
 30
0.0
 10
-20.0902
 20
7.3238
 30
0.0
 10
-20.0902
 20
7.3238
 30
0.0
 10
-20.0902
 20
7.3238
 30
0.0
 10
-20.2492
 20
7.3266
 30
0.0
 10
-20.4411
 20
7.3576
 30
0.0
 10
-20.6664
 20
7.4174
 30
0.0
 10
-20.6664
 20
7.4174
 30
0.0
 10
-20.8912
 20
7.4771
 30
0.0
 10
-21.1085
 20
7.5627
 30
0.0
 10
-21.3174
 20
7.6742
 30
0.0
 10
-21.3174
 20
7.6742
 30
0.0
 10
-21.5262
 20
7.7861
 30
0.0
 10
-21.7026
 20
7.9047
 30
0.0
 10
-21.8456
 20
8.0307
 30
0.0
 10
-21.8456
 20
8.0307
 30
0.0
 10
-21.8456
 20
8.0307
 30
0.0
 10
-21.8456
 20
7.0411
 30
0.0
 10
-21.8456
 20
7.0411
 30
0.0
  0
SPLINE
  5
C2
330
1F
100
AcDbEntity
  8
DEFAULT_1
 62
   250
100
AcDbSpline
210
0.0
220
0.0
230
1.0
 70
    11
 71
     3
 72
    92
 73
    88
 74
     0
 42
0.0000000001
 43
0.0000000001
 40
0.0
 40
0.0
 40
0.0
 40
0.0
 40
0.0434782608695652
 40
0.0434782608695652
 40
0.0434782608695652
 40
0.0434782608695652
 40
0.0869565217391304
 40
0.0869565217391304
 40
0.0869565217391304
 40
0.0869565217391304
 40
0.1304347826086956
 40
0.1304347826086956
 40
0.1304347826086956
 40
0.1304347826086956
 40
0.1739130434782609
 40
0.1739130434782609
 40
0.1739130434782609
 40
0.1739130434782609
 40
0.2173913043478261
 40
0.2173913043478261
 40
0.2173913043478261
 40
0.2173913043478261
 40
0.2608695652173913
 40
0.2608695652173913
 40
0.2608695652173913
 40
0.2608695652173913
 40
0.3043478260869565
 40
0.3043478260869565
 40
0.3043478260869565
 40
0.3043478260869565
 40
0.3478260869565217
 40
0.3478260869565217
 40
0.3478260869565217
 40
0.3478260869565217
 40
0.391304347826087
 40
0.391304347826087
 40
0.391304347826087
 40
0.391304347826087
 40
0.4347826086956522
 40
0.4347826086956522
 40
0.4347826086956522
 40
0.4347826086956522
 40
0.4782608695652174
 40
0.4782608695652174
 40
0.4782608695652174
 40
0.4782608695652174
 40
0.5217391304347826
 40
0.5217391304347826
 40
0.5217391304347826
 40
0.5217391304347826
 40
0.5652173913043478
 40
0.5652173913043478
 40
0.5652173913043478
 40
0.5652173913043478
 40
0.6086956521739131
 40
0.6086956521739131
 40
0.6086956521739131
 40
0.6086956521739131
 40
0.6521739130434783
 40
0.6521739130434783
 40
0.6521739130434783
 40
0.6521739130434783
 40
0.6956521739130435
 40
0.6956521739130435
 40
0.6956521739130435
 40
0.6956521739130435
 40
0.7391304347826086
 40
0.7391304347826086
 40
0.7391304347826086
 40
0.7391304347826086
 40
0.782608695652174
 40
0.782608695652174
 40
0.782608695652174
 40
0.782608695652174
 40
0.8260869565217391
 40
0.8260869565217391
 40
0.8260869565217391
 40
0.8260869565217391
 40
0.8695652173913043
 40
0.8695652173913043
 40
0.8695652173913043
 40
0.8695652173913043
 40
0.9130434782608695
 40
0.9130434782608695
 40
0.9130434782608695
 40
0.9130434782608695
 40
1.0
 40
1.0
 40
1.0
 40
1.0
 10
-20.5573
 20
8.6314
 30
0.0
 10
-20.5573
 20
8.6314
 30
0.0
 10
-20.5794
 20
8.8699
 30
0.0
 10
-20.5794
 20
8.8699
 30
0.0
 10
-20.5794
 20
8.8699
 30
0.0
 10
-20.4674
 20
8.8901
 30
0.0
 10
-20.3861
 20
8.9287
 30
0.0
 10
-20.3353
 20
8.9856
 30
0.0
 10
-20.3353
 20
8.9856
 30
0.0
 10
-20.2849
 20
9.0425
 30
0.0
 10
-20.2595
 20
9.1154
 30
0.0
 10
-20.2595
 20
9.2048
 30
0.0
 10
-20.2595
 20
9.2048
 30
0.0
 10
-20.2595
 20
9.281
 30
0.0
 10
-20.2769
 20
9.3477
 30
0.0
 10
-20.3122
 20
9.4051
 30
0.0
 10
-20.3122
 20
9.4051
 30
0.0
 10
-20.347
 20
9.4625
 30
0.0
 10
-20.3936
 20
9.5096
 30
0.0
 10
-20.4519
 20
9.5462
 30
0.0
 10
-20.4519
 20
9.5462
 30
0.0
 10
-20.5102
 20
9.5834
 30
0.0
 10
-20.5893
 20
9.614
 30
0.0
 10
-20.688
 20
9.6389
 30
0.0
 10
-20.688
 20
9.6389
 30
0.0
 10
-20.7873
 20
9.6634
 30
0.0
 10
-20.8884
 20
9.6761
 30
0.0
 10
-20.9914
 20
9.6761
 30
0.0
 10
-20.9914
 20
9.6761
 30
0.0
 10
-21.0022
 20
9.6761
 30
0.0
 10
-21.0192
 20
9.6756
 30
0.0
 10
-21.0408
 20
9.6747
 30
0.0
 10
-21.0408
 20
9.6747
 30
0.0
 10
-20.9623
 20
9.6248
 30
0.0
 10
-20.8978
 20
9.5571
 30
0.0
 10
-20.8489
 20
9.4715
 30
0.0
 10
-20.8489
 20
9.4715
 30
0.0
 10
-20.7995
 20
9.3854
 30
0.0
 10
-20.7751
 20
9.2922
 30
0.0
 10
-20.7751
 20
9.1925
 30
0.0
 10
-20.7751
 20
9.1925
 30
0.0
 10
-20.7751
 20
9.0251
 30
0.0
 10
-20.8357
 20
8.8835
 30
0.0
 10
-20.9571
 20
8.7678
 30
0.0
 10
-20.9571
 20
8.7678
 30
0.0
 10
-21.0784
 20
8.6521
 30
0.0
 10
-21.2379
 20
8.5942
 30
0.0
 10
-21.4364
 20
8.5942
 30
0.0
 10
-21.4364
 20
8.5942
 30
0.0
 10
-21.6415
 20
8.5942
 30
0.0
 10
-21.8061
 20
8.6544
 30
0.0
 10
-21.9312
 20
8.7753
 30
0.0
 10
-21.9312
 20
8.7753
 30
0.0
 10
-22.0563
 20
8.8962
 30
0.0
 10
-22.1189
 20
9.0477
 30
0.0
 10
-22.1189
 20
9.2297
 30
0.0
 10
-22.1189
 20
9.2297
 30
0.0
 10
-22.1189
 20
9.3609
 30
0.0
 10
-22.0831
 20
9.4809
 30
0.0
 10
-22.0126
 20
9.59
 30
0.0
 10
-22.0126
 20
9.59
 30
0.0
 10
-21.942
 20
9.6986
 30
0.0
 10
-21.8409
 20
9.7814
 30
0.0
 10
-21.7101
 20
9.8379
 30
0.0
 10
-21.7101
 20
9.8379
 30
0.0
 10
-21.5794
 20
9.8943
 30
0.0
 10
-21.3898
 20
9.9225
 30
0.0
 10
-21.1415
 20
9.9225
 30
0.0
 10
-21.1415
 20
9.9225
 30
0.0
 10
-20.8837
 20
9.9225
 30
0.0
 10
-20.6782
 20
9.8948
 30
0.0
 10
-20.5248
 20
9.8388
 30
0.0
 10
-20.5248
 20
9.8388
 30
0.0
 10
-20.3719
 20
9.7824
 30
0.0
 10
-20.2558
 20
9.6991
 30
0.0
 10
-20.1758
 20
9.5886
 30
0.0
 10
-20.1758
 20
9.5886
 30
0.0
 10
-20.0958
 20
9.4776
 30
0.0
 10
-20.0559
 20
9.3482
 30
0.0
 10
-20.0559
 20
9.1991
 30
0.0
 10
-20.0559
 20
9.1991
 30
0.0
 10
-20.0559
 20
9.0411
 30
0.0
 10
-20.0996
 20
8.9122
 30
0.0
 10
-20.1876
 20
8.812
 30
0.0
 10
-20.1876
 20
8.812
 30
0.0
 10
-20.2751
 20
8.7118
 30
0.0
 10
-20.3983
 20
8.6516
 30
0.0
 10
-20.5573
 20
8.6314
 30
0.0
  0
SPLINE
  5
C3
330
1F
100
AcDbEntity
  8
DEFAULT_1
 62
   250
100
AcDbSpline
210
0.0
220
0.0
230
1.0
 70
    11
 71
     3
 72
    36
 73
    32
 74
     0
 42
0.0000000001
 43
0.0000000001
 40
0.0
 40
0.0
 40
0.0
 40
0.0
 40
0.1111111111111111
 40
0.1111111111111111
 40
0.1111111111111111
 40
0.1111111111111111
 40
0.2222222222222222
 40
0.2222222222222222
 40
0.2222222222222222
 40
0.2222222222222222
 40
0.3333333333333333
 40
0.3333333333333333
 40
0.3333333333333333
 40
0.3333333333333333
 40
0.4444444444444444
 40
0.4444444444444444
 40
0.4444444444444444
 40
0.4444444444444444
 40
0.5555555555555556
 40
0.5555555555555556
 40
0.5555555555555556
 40
0.5555555555555556
 40
0.6666666666666666
 40
0.6666666666666666
 40
0.6666666666666666
 40
0.6666666666666666
 40
0.7777777777777778
 40
0.7777777777777778
 40
0.7777777777777778
 40
0.7777777777777778
 40
1.0
 40
1.0
 40
1.0
 40
1.0
 10
-21.4491
 20
9.6469
 30
0.0
 10
-21.5911
 20
9.6469
 30
0.0
 10
-21.7045
 20
9.6093
 30
0.0
 10
-21.7878
 20
9.5335
 30
0.0
 10
-21.7878
 20
9.5335
 30
0.0
 10
-21.8715
 20
9.4573
 30
0.0
 10
-21.9133
 20
9.3666
 30
0.0
 10
-21.9133
 20
9.2598
 30
0.0
 10
-21.9133
 20
9.2598
 30
0.0
 10
-21.9133
 20
9.1497
 30
0.0
 10
-21.8682
 20
9.0538
 30
0.0
 10
-21.7783
 20
8.9719
 30
0.0
 10
-21.7783
 20
8.9719
 30
0.0
 10
-21.688
 20
8.8901
 30
0.0
 10
-21.5714
 20
8.8492
 30
0.0
 10
-21.4284
 20
8.8492
 30
0.0
 10
-21.4284
 20
8.8492
 30
0.0
 10
-21.2995
 20
8.8492
 30
0.0
 10
-21.1951
 20
8.8882
 30
0.0
 10
-21.1147
 20
8.9658
 30
0.0
 10
-21.1147
 20
8.9658
 30
0.0
 10
-21.0342
 20
9.0434
 30
0.0
 10
-20.9942
 20
9.1389
 30
0.0
 10
-20.9942
 20
9.2527
 30
0.0
 10
-20.9942
 20
9.2527
 30
0.0
 10
-20.9942
 20
9.368
 30
0.0
 10
-21.0342
 20
9.462
 30
0.0
 10
-21.1147
 20
9.5359
 30
0.0
 10
-21.1147
 20
9.5359
 30
0.0
 10
-21.1951
 20
9.6102
 30
0.0
 10
-21.3066
 20
9.6469
 30
0.0
 10
-21.4491
 20
9.6469
 30
0.0
  0
SPLINE
  5
C4
330
1F
100
AcDbEntity
  8
DEFAULT_1
 62
   250
100
AcDbSpline
210
0.0
220
0.0
230
1.0
 70
    11
 71
     3
 72
    20
 73
    16
 74
     0
 42
0.0000000001
 43
0.0000000001
 40
0.0
 40
0.0
 40
0.0
 40
0.0
 40
0.2
 40
0.2
 40
0.2
 40
0.2
 40
0.4
 40
0.4
 40
0.4
 40
0.4
 40
0.6
 40
0.6
 40
0.6
 40
0.6
 40
1.0
 40
1.0
 40
1.0
 40
1.0
 10
-19.9857
 20
11.8426
 30
0.0
 10
-19.9857
 20
11.8426
 30
0.0
 10
-19.6328
 20
14.3426
 30
0.0
 10
-19.6328
 20
14.3426
 30
0.0
 10
-19.6328
 20
14.3426
 30
0.0
 10
-19.6328
 20
14.3426
 30
0.0
 10
-19.5545
 20
14.3426
 30
0.0
 10
-19.5545
 20
14.3426
 30
0.0
 10
-19.5545
 20
14.3426
 30
0.0
 10
-19.5545
 20
14.3426
 30
0.0
 10
-19.1782
 20
11.8426
 30
0.0
 10
-19.1782
 20
11.8426
 30
0.0
 10
-19.1782
 20
11.8426
 30
0.0
 10
-19.1782
 20
11.8426
 30
0.0
 10
-19.9857
 20
11.8426
 30
0.0
 10
-19.9857
 20
11.8426
 30
0.0
  0
SPLINE
  5
C5
330
1F
100
AcDbEntity
  8
DEFAULT_1
 62
   250
100
AcDbSpline
210
0.0
220
0.0
230
1.0
 70
    11
 71
     3
 72
    20
 73
    16
 74
     0
 42
0.0000000001
 43
0.0000000001
 40
0.0
 40
0.0
 40
0.0
 40
0.0
 40
0.2
 40
0.2
 40
0.2
 40
0.2
 40
0.4
 40
0.4
 40
0.4
 40
0.4
 40
0.6
 40
0.6
 40
0.6
 40
0.6
 40
1.0
 40
1.0
 40
1.0
 40
1.0
 10
-20.0128
 20
27.6243
 30
0.0
 10
-20.0128
 20
27.6243
 30
0.0
 10
-19.6599
 20
30.1243
 30
0.0
 10
-19.6599
 20
30.1243
 30
0.0
 10
-19.6599
 20
30.1243
 30
0.0
 10
-19.6599
 20
30.1243
 30
0.0
 10
-19.5816
 20
30.1243
 30
0.0
 10
-19.5816
 20
30.1243
 30
0.0
 10
-19.5816
 20
30.1243
 30
0.0
 10
-19.5816
 20
30.1243
 30
0.0
 10
-19.2053
 20
27.6243
 30
0.0
 10
-19.2053
 20
27.6243
 30
0.0
 10
-19.2053
 20
27.6243
 30
0.0
 10
-19.2053
 20
27.6243
 30
0.0
 10
-20.0128
 20
27.6243
 30
0.0
 10
-20.0128
 20
27.6243
 30
0.0
  0
SPLINE
  5
C6
330
1F
100
AcDbEntity
  8
DEFAULT_1
 62
   250
100
AcDbSpline
210
0.0
220
0.0
230
1.0
 70
    11
 71
     3
 72
    20
 73
    16
 74
     0
 42
0.0000000001
 43
0.0000000001
 40
0.0
 40
0.0
 40
0.0
 40
0.0
 40
0.2
 40
0.2
 40
0.2
 40
0.2
 40
0.4
 40
0.4
 40
0.4
 40
0.4
 40
0.6
 40
0.6
 40
0.6
 40
0.6
 40
1.0
 40
1.0
 40
1.0
 40
1.0
 10
-19.2057
 20
3.5884
 30
0.0
 10
-19.2057
 20
3.5884
 30
0.0
 10
-19.5586
 20
1.0884
 30
0.0
 10
-19.5586
 20
1.0884
 30
0.0
 10
-19.5586
 20
1.0884
 30
0.0
 10
-19.5586
 20
1.0884
 30
0.0
 10
-19.6369
 20
1.0884
 30
0.0
 10
-19.6369
 20
1.0884
 30
0.0
 10
-19.6369
 20
1.0884
 30
0.0
 10
-19.6369
 20
1.0884
 30
0.0
 10
-20.0132
 20
3.5884
 30
0.0
 10
-20.0132
 20
3.5884
 30
0.0
 10
-20.0132
 20
3.5884
 30
0.0
 10
-20.0132
 20
3.5884
 30
0.0
 10
-19.2057
 20
3.5884
 30
0.0
 10
-19.2057
 20
3.5884
 30
0.0
  0
SPLINE
  5
C7
330
1F
100
AcDbEntity
  8
DEFAULT_1
 62
   250
100
AcDbSpline
210
0.0
220
0.0
230
1.0
 70
    11
 71
     3
 72
   116
 73
   112
 74
     0
 42
0.0000000001
 43
0.0000000001
 40
0.0
 40
0.0
 40
0.0
 40
0.0
 40
0.0344827586206897
 40
0.0344827586206897
 40
0.0344827586206897
 40
0.0344827586206897
 40
0.0689655172413793
 40
0.0689655172413793
 40
0.0689655172413793
 40
0.0689655172413793
 40
0.103448275862069
 40
0.103448275862069
 40
0.103448275862069
 40
0.103448275862069
 40
0.1379310344827586
 40
0.1379310344827586
 40
0.1379310344827586
 40
0.1379310344827586
 40
0.1724137931034483
 40
0.1724137931034483
 40
0.1724137931034483
 40
0.1724137931034483
 40
0.2068965517241379
 40
0.2068965517241379
 40
0.2068965517241379
 40
0.2068965517241379
 40
0.2413793103448276
 40
0.2413793103448276
 40
0.2413793103448276
 40
0.2413793103448276
 40
0.2758620689655172
 40
0.2758620689655172
 40
0.2758620689655172
 40
0.2758620689655172
 40
0.3103448275862069
 40
0.3103448275862069
 40
0.3103448275862069
 40
0.3103448275862069
 40
0.3448275862068966
 40
0.3448275862068966
 40
0.3448275862068966
 40
0.3448275862068966
 40
0.3793103448275862
 40
0.3793103448275862
 40
0.3793103448275862
 40
0.3793103448275862
 40
0.4137931034482759
 40
0.4137931034482759
 40
0.4137931034482759
 40
0.4137931034482759
 40
0.4482758620689655
 40
0.4482758620689655
 40
0.4482758620689655
 40
0.4482758620689655
 40
0.4827586206896552
 40
0.4827586206896552
 40
0.4827586206896552
 40
0.4827586206896552
 40
0.5172413793103449
 40
0.5172413793103449
 40
0.5172413793103449
 40
0.5172413793103449
 40
0.5517241379310345
 40
0.5517241379310345
 40
0.5517241379310345
 40
0.5517241379310345
 40
0.5862068965517241
 40
0.5862068965517241
 40
0.5862068965517241
 40
0.5862068965517241
 40
0.6206896551724138
 40
0.6206896551724138
 40
0.6206896551724138
 40
0.6206896551724138
 40
0.6551724137931034
 40
0.6551724137931034
 40
0.6551724137931034
 40
0.6551724137931034
 40
0.6896551724137931
 40
0.6896551724137931
 40
0.6896551724137931
 40
0.6896551724137931
 40
0.7241379310344828
 40
0.7241379310344828
 40
0.7241379310344828
 40
0.7241379310344828
 40
0.7586206896551724
 40
0.7586206896551724
 40
0.7586206896551724
 40
0.7586206896551724
 40
0.7931034482758621
 40
0.7931034482758621
 40
0.7931034482758621
 40
0.7931034482758621
 40
0.8275862068965517
 40
0.8275862068965517
 40
0.8275862068965517
 40
0.8275862068965517
 40
0.8620689655172413
 40
0.8620689655172413
 40
0.8620689655172413
 40
0.8620689655172413
 40
0.896551724137931
 40
0.896551724137931
 40
0.896551724137931
 40
0.896551724137931
 40
0.9310344827586207
 40
0.9310344827586207
 40
0.9310344827586207
 40
0.9310344827586207
 40
1.0
 40
1.0
 40
1.0
 40
1.0
 10
-20.1889
 20
17.8056
 30
0.0
 10
-20.1889
 20
17.8056
 30
0.0
 10
-21.6522
 20
17.8056
 30
0.0
 10
-21.6522
 20
17.8056
 30
0.0
 10
-21.6522
 20
17.8056
 30
0.0
 10
-21.6522
 20
17.8056
 30
0.0
 10
-21.6522
 20
18.0271
 30
0.0
 10
-21.6522
 20
18.0271
 30
0.0
 10
-21.6522
 20
18.0271
 30
0.0
 10
-21.6522
 20
18.0271
 30
0.0
 10
-21.4471
 20
18.0271
 30
0.0
 10
-21.4471
 20
18.0271
 30
0.0
 10
-21.4471
 20
18.0271
 30
0.0
 10
-21.5186
 20
18.0732
 30
0.0
 10
-21.5765
 20
18.1344
 30
0.0
 10
-21.6198
 20
18.2106
 30
0.0
 10
-21.6198
 20
18.2106
 30
0.0
 10
-21.6635
 20
18.2868
 30
0.0
 10
-21.6856
 20
18.3738
 30
0.0
 10
-21.6856
 20
18.4711
 30
0.0
 10
-21.6856
 20
18.4711
 30
0.0
 10
-21.6856
 20
18.5793
 30
0.0
 10
-21.663
 20
18.6682
 30
0.0
 10
-21.6179
 20
18.7374
 30
0.0
 10
-21.6179
 20
18.7374
 30
0.0
 10
-21.5727
 20
18.807
 30
0.0
 10
-21.5102
 20
18.8559
 30
0.0
 10
-21.4293
 20
18.8841
 30
0.0
 10
-21.4293
 20
18.8841
 30
0.0
 10
-21.6
 20
19.0003
 30
0.0
 10
-21.6856
 20
19.1508
 30
0.0
 10
-21.6856
 20
19.3361
 30
0.0
 10
-21.6856
 20
19.3361
 30
0.0
 10
-21.6856
 20
19.4815
 30
0.0
 10
-21.6452
 20
19.593
 30
0.0
 10
-21.5647
 20
19.671
 30
0.0
 10
-21.5647
 20
19.671
 30
0.0
 10
-21.4843
 20
19.7491
 30
0.0
 10
-21.3606
 20
19.7882
 30
0.0
 10
-21.1936
 20
19.7882
 30
0.0
 10
-21.1936
 20
19.7882
 30
0.0
 10
-21.1936
 20
19.7882
 30
0.0
 10
-20.1889
 20
19.7882
 30
0.0
 10
-20.1889
 20
19.7882
 30
0.0
 10
-20.1889
 20
19.7882
 30
0.0
 10
-20.1889
 20
19.7882
 30
0.0
 10
-20.1889
 20
19.5417
 30
0.0
 10
-20.1889
 20
19.5417
 30
0.0
 10
-20.1889
 20
19.5417
 30
0.0
 10
-20.1889
 20
19.5417
 30
0.0
 10
-21.1108
 20
19.5417
 30
0.0
 10
-21.1108
 20
19.5417
 30
0.0
 10
-21.1108
 20
19.5417
 30
0.0
 10
-21.2101
 20
19.5417
 30
0.0
 10
-21.2816
 20
19.5337
 30
0.0
 10
-21.3253
 20
19.5177
 30
0.0
 10
-21.3253
 20
19.5177
 30
0.0
 10
-21.3686
 20
19.5012
 30
0.0
 10
-21.4039
 20
19.4721
 30
0.0
 10
-21.4307
 20
19.4302
 30
0.0
 10
-21.4307
 20
19.4302
 30
0.0
 10
-21.457
 20
19.3879
 30
0.0
 10
-21.4706
 20
19.338
 30
0.0
 10
-21.4706
 20
19.2811
 30
0.0
 10
-21.4706
 20
19.2811
 30
0.0
 10
-21.4706
 20
19.1781
 30
0.0
 10
-21.4363
 20
19.093
 30
0.0
 10
-21.3676
 20
19.0248
 30
0.0
 10
-21.3676
 20
19.0248
 30
0.0
 10
-21.2994
 20
18.957
 30
0.0
 10
-21.1898
 20
18.9227
 30
0.0
 10
-21.0393
 20
18.9227
 30
0.0
 10
-21.0393
 20
18.9227
 30
0.0
 10
-21.0393
 20
18.9227
 30
0.0
 10
-20.1889
 20
18.9227
 30
0.0
 10
-20.1889
 20
18.9227
 30
0.0
 10
-20.1889
 20
18.9227
 30
0.0
 10
-20.1889
 20
18.9227
 30
0.0
 10
-20.1889
 20
18.6748
 30
0.0
 10
-20.1889
 20
18.6748
 30
0.0
 10
-20.1889
 20
18.6748
 30
0.0
 10
-20.1889
 20
18.6748
 30
0.0
 10
-21.1395
 20
18.6748
 30
0.0
 10
-21.1395
 20
18.6748
 30
0.0
 10
-21.1395
 20
18.6748
 30
0.0
 10
-21.25
 20
18.6748
 30
0.0
 10
-21.3328
 20
18.6546
 30
0.0
 10
-21.3879
 20
18.6141
 30
0.0
 10
-21.3879
 20
18.6141
 30
0.0
 10
-21.4429
 20
18.5737
 30
0.0
 10
-21.4706
 20
18.5078
 30
0.0
 10
-21.4706
 20
18.4156
 30
0.0
 10
-21.4706
 20
18.4156
 30
0.0
 10
-21.4706
 20
18.346
 30
0.0
 10
-21.4523
 20
18.2816
 30
0.0
 10
-21.4151
 20
18.2223
 30
0.0
 10
-21.4151
 20
18.2223
 30
0.0
 10
-21.3785
 20
18.163
 30
0.0
 10
-21.3248
 20
18.1198
 30
0.0
 10
-21.2543
 20
18.0934
 30
0.0
 10
-21.2543
 20
18.0934
 30
0.0
 10
-21.1833
 20
18.0666
 30
0.0
 10
-21.0812
 20
18.0534
 30
0.0
 10
-20.9481
 20
18.0534
 30
0.0
 10
-20.9481
 20
18.0534
 30
0.0
 10
-20.9481
 20
18.0534
 30
0.0
 10
-20.1889
 20
18.0534
 30
0.0
 10
-20.1889
 20
18.0534
 30
0.0
 10
-20.1889
 20
18.0534
 30
0.0
 10
-20.1889
 20
18.0534
 30
0.0
 10
-20.1889
 20
17.8056
 30
0.0
 10
-20.1889
 20
17.8056
 30
0.0
  0
SPLINE
  5
C8
330
1F
100
AcDbEntity
  8
DEFAULT_1
 62
   250
100
AcDbSpline
210
0.0
220
0.0
230
1.0
 70
    11
 71
     3
 72
   112
 73
   108
 74
     0
 42
0.0000000001
 43
0.0000000001
 40
0.0
 40
0.0
 40
0.0
 40
0.0
 40
0.0357142857142857
 40
0.0357142857142857
 40
0.0357142857142857
 40
0.0357142857142857
 40
0.0714285714285714
 40
0.0714285714285714
 40
0.0714285714285714
 40
0.0714285714285714
 40
0.1071428571428571
 40
0.1071428571428571
 40
0.1071428571428571
 40
0.1071428571428571
 40
0.1428571428571428
 40
0.1428571428571428
 40
0.1428571428571428
 40
0.1428571428571428
 40
0.1785714285714286
 40
0.1785714285714286
 40
0.1785714285714286
 40
0.1785714285714286
 40
0.2142857142857143
 40
0.2142857142857143
 40
0.2142857142857143
 40
0.2142857142857143
 40
0.25
 40
0.25
 40
0.25
 40
0.25
 40
0.2857142857142857
 40
0.2857142857142857
 40
0.2857142857142857
 40
0.2857142857142857
 40
0.3214285714285715
 40
0.3214285714285715
 40
0.3214285714285715
 40
0.3214285714285715
 40
0.3571428571428572
 40
0.3571428571428572
 40
0.3571428571428572
 40
0.3571428571428572
 40
0.3928571428571428
 40
0.3928571428571428
 40
0.3928571428571428
 40
0.3928571428571428
 40
0.4285714285714285
 40
0.4285714285714285
 40
0.4285714285714285
 40
0.4285714285714285
 40
0.4642857142857143
 40
0.4642857142857143
 40
0.4642857142857143
 40
0.4642857142857143
 40
0.5
 40
0.5
 40
0.5
 40
0.5
 40
0.5357142857142857
 40
0.5357142857142857
 40
0.5357142857142857
 40
0.5357142857142857
 40
0.5714285714285714
 40
0.5714285714285714
 40
0.5714285714285714
 40
0.5714285714285714
 40
0.6071428571428571
 40
0.6071428571428571
 40
0.6071428571428571
 40
0.6071428571428571
 40
0.6428571428571429
 40
0.6428571428571429
 40
0.6428571428571429
 40
0.6428571428571429
 40
0.6785714285714286
 40
0.6785714285714286
 40
0.6785714285714286
 40
0.6785714285714286
 40
0.7142857142857143
 40
0.7142857142857143
 40
0.7142857142857143
 40
0.7142857142857143
 40
0.75
 40
0.75
 40
0.75
 40
0.75
 40
0.7857142857142857
 40
0.7857142857142857
 40
0.7857142857142857
 40
0.7857142857142857
 40
0.8214285714285714
 40
0.8214285714285714
 40
0.8214285714285714
 40
0.8214285714285714
 40
0.8571428571428571
 40
0.8571428571428571
 40
0.8571428571428571
 40
0.8571428571428571
 40
0.8928571428571429
 40
0.8928571428571429
 40
0.8928571428571429
 40
0.8928571428571429
 40
0.9285714285714286
 40
0.9285714285714286
 40
0.9285714285714286
 40
0.9285714285714286
 40
1.0
 40
1.0
 40
1.0
 40
1.0
 10
-20.3695
 20
21.1113
 30
0.0
 10
-20.2914
 20
21.0191
 30
0.0
 10
-20.2364
 20
20.9307
 30
0.0
 10
-20.204
 20
20.846
 30
0.0
 10
-20.204
 20
20.846
 30
0.0
 10
-20.172
 20
20.7609
 30
0.0
 10
-20.156
 20
20.6696
 30
0.0
 10
-20.156
 20
20.5723
 30
0.0
 10
-20.156
 20
20.5723
 30
0.0
 10
-20.156
 20
20.4114
 30
0.0
 10
-20.195
 20
20.2882
 30
0.0
 10
-20.2736
 20
20.2016
 30
0.0
 10
-20.2736
 20
20.2016
 30
0.0
 10
-20.3521
 20
20.1155
 30
0.0
 10
-20.4528
 20
20.0723
 30
0.0
 10
-20.5746
 20
20.0723
 30
0.0
 10
-20.5746
 20
20.0723
 30
0.0
 10
-20.6466
 20
20.0723
 30
0.0
 10
-20.7119
 20
20.0883
 30
0.0
 10
-20.7712
 20
20.1212
 30
0.0
 10
-20.7712
 20
20.1212
 30
0.0
 10
-20.8305
 20
20.1536
 30
0.0
 10
-20.878
 20
20.1964
 30
0.0
 10
-20.9137
 20
20.2491
 30
0.0
 10
-20.9137
 20
20.2491
 30
0.0
 10
-20.9495
 20
20.3023
 30
0.0
 10
-20.9768
 20
20.3615
 30
0.0
 10
-20.9951
 20
20.4279
 30
0.0
 10
-20.9951
 20
20.4279
 30
0.0
 10
-21.0078
 20
20.4763
 30
0.0
 10
-21.0205
 20
20.5497
 30
0.0
 10
-21.0323
 20
20.648
 30
0.0
 10
-21.0323
 20
20.648
 30
0.0
 10
-21.0563
 20
20.8484
 30
0.0
 10
-21.0845
 20
20.9961
 30
0.0
 10
-21.1179
 20
21.0906
 30
0.0
 10
-21.1179
 20
21.0906
 30
0.0
 10
-21.1517
 20
21.0916
 30
0.0
 10
-21.1734
 20
21.092
 30
0.0
 10
-21.1823
 20
21.092
 30
0.0
 10
-21.1823
 20
21.092
 30
0.0
 10
-21.2834
 20
21.092
 30
0.0
 10
-21.3549
 20
21.0685
 30
0.0
 10
-21.3959
 20
21.0215
 30
0.0
 10
-21.3959
 20
21.0215
 30
0.0
 10
-21.4523
 20
20.9584
 30
0.0
 10
-21.4801
 20
20.8639
 30
0.0
 10
-21.4801
 20
20.7392
 30
0.0
 10
-21.4801
 20
20.7392
 30
0.0
 10
-21.4801
 20
20.6226
 30
0.0
 10
-21.4598
 20
20.5365
 30
0.0
 10
-21.4189
 20
20.4805
 30
0.0
 10
-21.4189
 20
20.4805
 30
0.0
 10
-21.378
 20
20.425
 30
0.0
 10
-21.3056
 20
20.3841
 30
0.0
 10
-21.2016
 20
20.3573
 30
0.0
 10
-21.2016
 20
20.3573
 30
0.0
 10
-21.2016
 20
20.3573
 30
0.0
 10
-21.235
 20
20.1151
 30
0.0
 10
-21.235
 20
20.1151
 30
0.0
 10
-21.235
 20
20.1151
 30
0.0
 10
-21.3385
 20
20.1372
 30
0.0
 10
-21.4227
 20
20.1734
 30
0.0
 10
-21.4862
 20
20.2237
 30
0.0
 10
-21.4862
 20
20.2237
 30
0.0
 10
-21.5501
 20
20.2741
 30
0.0
 10
-21.5995
 20
20.3474
 30
0.0
 10
-21.6339
 20
20.4429
 30
0.0
 10
-21.6339
 20
20.4429
 30
0.0
 10
-21.6682
 20
20.5384
 30
0.0
 10
-21.6856
 20
20.6489
 30
0.0
 10
-21.6856
 20
20.775
 30
0.0
 10
-21.6856
 20
20.775
 30
0.0
 10
-21.6856
 20
20.9001
 30
0.0
 10
-21.6706
 20
21.0012
 30
0.0
 10
-21.6414
 20
21.0793
 30
0.0
 10
-21.6414
 20
21.0793
 30
0.0
 10
-21.6118
 20
21.1574
 30
0.0
 10
-21.5751
 20
21.2148
 30
0.0
 10
-21.5304
 20
21.2519
 30
0.0
 10
-21.5304
 20
21.2519
 30
0.0
 10
-21.4857
 20
21.2886
 30
0.0
 10
-21.4297
 20
21.314
 30
0.0
 10
-21.3615
 20
21.3291
 30
0.0
 10
-21.3615
 20
21.3291
 30
0.0
 10
-21.3192
 20
21.3371
 30
0.0
 10
-21.243
 20
21.3413
 30
0.0
 10
-21.1329
 20
21.3413
 30
0.0
 10
-21.1329
 20
21.3413
 30
0.0
 10
-21.1329
 20
21.3413
 30
0.0
 10
-20.8023
 20
21.3413
 30
0.0
 10
-20.8023
 20
21.3413
 30
0.0
 10
-20.8023
 20
21.3413
 30
0.0
 10
-20.5713
 20
21.3413
 30
0.0
 10
-20.4255
 20
21.3465
 30
0.0
 10
-20.3648
 20
21.3573
 30
0.0
 10
-20.3648
 20
21.3573
 30
0.0
 10
-20.3037
 20
21.3677
 30
0.0
 10
-20.2449
 20
21.3888
 30
0.0
 10
-20.1889
 20
21.4199
 30
0.0
 10
-20.1889
 20
21.4199
 30
0.0
 10
-20.1889
 20
21.4199
 30
0.0
 10
-20.1889
 20
21.1607
 30
0.0
 10
-20.1889
 20
21.1607
 30
0.0
 10
-20.1889
 20
21.1607
 30
0.0
 10
-20.2402
 20
21.1353
 30
0.0
 10
-20.3004
 20
21.1184
 30
0.0
 10
-20.3695
 20
21.1113
 30
0.0
  0
SPLINE
  5
C9
330
1F
100
AcDbEntity
  8
DEFAULT_1
 62
   250
100
AcDbSpline
210
0.0
220
0.0
230
1.0
 70
    11
 71
     3
 72
    44
 73
    40
 74
     0
 42
0.0000000001
 43
0.0000000001
 40
0.0
 40
0.0
 40
0.0
 40
0.0
 40
0.0909090909090909
 40
0.0909090909090909
 40
0.0909090909090909
 40
0.0909090909090909
 40
0.1818181818181818
 40
0.1818181818181818
 40
0.1818181818181818
 40
0.1818181818181818
 40
0.2727272727272727
 40
0.2727272727272727
 40
0.2727272727272727
 40
0.2727272727272727
 40
0.3636363636363636
 40
0.3636363636363636
 40
0.3636363636363636
 40
0.3636363636363636
 40
0.4545454545454545
 40
0.4545454545454545
 40
0.4545454545454545
 40
0.4545454545454545
 40
0.5454545454545454
 40
0.5454545454545454
 40
0.5454545454545454
 40
0.5454545454545454
 40
0.6363636363636364
 40
0.6363636363636364
 40
0.6363636363636364
 40
0.6363636363636364
 40
0.7272727272727273
 40
0.7272727272727273
 40
0.7272727272727273
 40
0.7272727272727273
 40
0.8181818181818182
 40
0.8181818181818182
 40
0.8181818181818182
 40
0.8181818181818182
 40
1.0
 40
1.0
 40
1.0
 40
1.0
 10
-20.9236
 20
21.0906
 30
0.0
 10
-20.8865
 20
21.0003
 30
0.0
 10
-20.8554
 20
20.8653
 30
0.0
 10
-20.8295
 20
20.6856
 30
0.0
 10
-20.8295
 20
20.6856
 30
0.0
 10
-20.815
 20
20.5836
 30
0.0
 10
-20.7985
 20
20.5111
 30
0.0
 10
-20.7802
 20
20.4693
 30
0.0
 10
-20.7802
 20
20.4693
 30
0.0
 10
-20.7618
 20
20.4269
 30
0.0
 10
-20.735
 20
20.394
 30
0.0
 10
-20.6992
 20
20.3714
 30
0.0
 10
-20.6992
 20
20.3714
 30
0.0
 10
-20.664
 20
20.3484
 30
0.0
 10
-20.6249
 20
20.3366
 30
0.0
 10
-20.5817
 20
20.3366
 30
0.0
 10
-20.5817
 20
20.3366
 30
0.0
 10
-20.5153
 20
20.3366
 30
0.0
 10
-20.4603
 20
20.362
 30
0.0
 10
-20.4161
 20
20.4119
 30
0.0
 10
-20.4161
 20
20.4119
 30
0.0
 10
-20.3723
 20
20.4617
 30
0.0
 10
-20.3502
 20
20.5351
 30
0.0
 10
-20.3502
 20
20.6315
 30
0.0
 10
-20.3502
 20
20.6315
 30
0.0
 10
-20.3502
 20
20.727
 30
0.0
 10
-20.3709
 20
20.8122
 30
0.0
 10
-20.4128
 20
20.8865
 30
0.0
 10
-20.4128
 20
20.8865
 30
0.0
 10
-20.4547
 20
20.9608
 30
0.0
 10
-20.512
 20
21.0158
 30
0.0
 10
-20.5845
 20
21.0506
 30
0.0
 10
-20.5845
 20
21.0506
 30
0.0
 10
-20.6405
 20
21.0774
 30
0.0
 10
-20.7232
 20
21.0906
 30
0.0
 10
-20.8324
 20
21.0906
 30
0.0
 10
-20.8324
 20
21.0906
 30
0.0
 10
-20.8324
 20
21.0906
 30
0.0
 10
-20.9236
 20
21.0906
 30
0.0
 10
-20.9236
 20
21.0906
 30
0.0
  0
SPLINE
  5
CA
330
1F
100
AcDbEntity
  8
DEFAULT_1
 62
   250
100
AcDbSpline
210
0.0
220
0.0
230
1.0
 70
    11
 71
     3
 72
    64
 73
    60
 74
     0
 42
0.0000000001
 43
0.0000000001
 40
0.0
 40
0.0
 40
0.0
 40
0.0
 40
0.0625
 40
0.0625
 40
0.0625
 40
0.0625
 40
0.125
 40
0.125
 40
0.125
 40
0.125
 40
0.1875
 40
0.1875
 40
0.1875
 40
0.1875
 40
0.25
 40
0.25
 40
0.25
 40
0.25
 40
0.3125
 40
0.3125
 40
0.3125
 40
0.3125
 40
0.375
 40
0.375
 40
0.375
 40
0.375
 40
0.4375
 40
0.4375
 40
0.4375
 40
0.4375
 40
0.5
 40
0.5
 40
0.5
 40
0.5
 40
0.5625
 40
0.5625
 40
0.5625
 40
0.5625
 40
0.625
 40
0.625
 40
0.625
 40
0.625
 40
0.6875
 40
0.6875
 40
0.6875
 40
0.6875
 40
0.75
 40
0.75
 40
0.75
 40
0.75
 40
0.8125
 40
0.8125
 40
0.8125
 40
0.8125
 40
0.875
 40
0.875
 40
0.875
 40
0.875
 40
1.0
 40
1.0
 40
1.0
 40
1.0
 10
-20.1889
 20
21.5605
 30
0.0
 10
-20.1889
 20
21.5605
 30
0.0
 10
-20.9495
 20
22.0953
 30
0.0
 10
-20.9495
 20
22.0953
 30
0.0
 10
-20.9495
 20
22.0953
 30
0.0
 10
-20.9495
 20
22.0953
 30
0.0
 10
-21.6522
 20
21.6005
 30
0.0
 10
-21.6522
 20
21.6005
 30
0.0
 10
-21.6522
 20
21.6005
 30
0.0
 10
-21.6522
 20
21.6005
 30
0.0
 10
-21.6522
 20
21.9104
 30
0.0
 10
-21.6522
 20
21.9104
 30
0.0
 10
-21.6522
 20
21.9104
 30
0.0
 10
-21.6522
 20
21.9104
 30
0.0
 10
-21.3093
 20
22.1353
 30
0.0
 10
-21.3093
 20
22.1353
 30
0.0
 10
-21.3093
 20
22.1353
 30
0.0
 10
-21.2439
 20
22.1771
 30
0.0
 10
-21.1894
 20
22.2115
 30
0.0
 10
-21.1452
 20
22.2369
 30
0.0
 10
-21.1452
 20
22.2369
 30
0.0
 10
-21.2058
 20
22.2773
 30
0.0
 10
-21.2595
 20
22.3145
 30
0.0
 10
-21.3065
 20
22.3488
 30
0.0
 10
-21.3065
 20
22.3488
 30
0.0
 10
-21.3065
 20
22.3488
 30
0.0
 10
-21.6522
 20
22.5953
 30
0.0
 10
-21.6522
 20
22.5953
 30
0.0
 10
-21.6522
 20
22.5953
 30
0.0
 10
-21.6522
 20
22.5953
 30
0.0
 10
-21.6522
 20
22.8916
 30
0.0
 10
-21.6522
 20
22.8916
 30
0.0
 10
-21.6522
 20
22.8916
 30
0.0
 10
-21.6522
 20
22.8916
 30
0.0
 10
-20.9631
 20
22.386
 30
0.0
 10
-20.9631
 20
22.386
 30
0.0
 10
-20.9631
 20
22.386
 30
0.0
 10
-20.9631
 20
22.386
 30
0.0
 10
-20.1889
 20
22.9302
 30
0.0
 10
-20.1889
 20
22.9302
 30
0.0
 10
-20.1889
 20
22.9302
 30
0.0
 10
-20.1889
 20
22.9302
 30
0.0
 10
-20.1889
 20
22.6259
 30
0.0
 10
-20.1889
 20
22.6259
 30
0.0
 10
-20.1889
 20
22.6259
 30
0.0
 10
-20.1889
 20
22.6259
 30
0.0
 10
-20.6437
 20
22.3253
 30
0.0
 10
-20.6437
 20
22.3253
 30
0.0
 10
-20.6437
 20
22.3253
 30
0.0
 10
-20.6437
 20
22.3253
 30
0.0
 10
-20.7665
 20
22.2454
 30
0.0
 10
-20.7665
 20
22.2454
 30
0.0
 10
-20.7665
 20
22.2454
 30
0.0
 10
-20.7665
 20
22.2454
 30
0.0
 10
-20.1889
 20
21.8611
 30
0.0
 10
-20.1889
 20
21.8611
 30
0.0
 10
-20.1889
 20
21.8611
 30
0.0
 10
-20.1889
 20
21.8611
 30
0.0
 10
-20.1889
 20
21.5605
 30
0.0
 10
-20.1889
 20
21.5605
 30
0.0
  0
SPLINE
  5
CB
330
1F
100
AcDbEntity
  8
DEFAULT_1
 62
   250
100
AcDbSpline
210
0.0
220
0.0
230
1.0
 70
    11
 71
     3
 72
    92
 73
    88
 74
     0
 42
0.0000000001
 43
0.0000000001
 40
0.0
 40
0.0
 40
0.0
 40
0.0
 40
0.0434782608695652
 40
0.0434782608695652
 40
0.0434782608695652
 40
0.0434782608695652
 40
0.0869565217391304
 40
0.0869565217391304
 40
0.0869565217391304
 40
0.0869565217391304
 40
0.1304347826086956
 40
0.1304347826086956
 40
0.1304347826086956
 40
0.1304347826086956
 40
0.1739130434782609
 40
0.1739130434782609
 40
0.1739130434782609
 40
0.1739130434782609
 40
0.2173913043478261
 40
0.2173913043478261
 40
0.2173913043478261
 40
0.2173913043478261
 40
0.2608695652173913
 40
0.2608695652173913
 40
0.2608695652173913
 40
0.2608695652173913
 40
0.3043478260869565
 40
0.3043478260869565
 40
0.3043478260869565
 40
0.3043478260869565
 40
0.3478260869565217
 40
0.3478260869565217
 40
0.3478260869565217
 40
0.3478260869565217
 40
0.391304347826087
 40
0.391304347826087
 40
0.391304347826087
 40
0.391304347826087
 40
0.4347826086956522
 40
0.4347826086956522
 40
0.4347826086956522
 40
0.4347826086956522
 40
0.4782608695652174
 40
0.4782608695652174
 40
0.4782608695652174
 40
0.4782608695652174
 40
0.5217391304347826
 40
0.5217391304347826
 40
0.5217391304347826
 40
0.5217391304347826
 40
0.5652173913043478
 40
0.5652173913043478
 40
0.5652173913043478
 40
0.5652173913043478
 40
0.6086956521739131
 40
0.6086956521739131
 40
0.6086956521739131
 40
0.6086956521739131
 40
0.6521739130434783
 40
0.6521739130434783
 40
0.6521739130434783
 40
0.6521739130434783
 40
0.6956521739130435
 40
0.6956521739130435
 40
0.6956521739130435
 40
0.6956521739130435
 40
0.7391304347826086
 40
0.7391304347826086
 40
0.7391304347826086
 40
0.7391304347826086
 40
0.782608695652174
 40
0.782608695652174
 40
0.782608695652174
 40
0.782608695652174
 40
0.8260869565217391
 40
0.8260869565217391
 40
0.8260869565217391
 40
0.8260869565217391
 40
0.8695652173913043
 40
0.8695652173913043
 40
0.8695652173913043
 40
0.8695652173913043
 40
0.9130434782608695
 40
0.9130434782608695
 40
0.9130434782608695
 40
0.9130434782608695
 40
1.0
 40
1.0
 40
1.0
 40
1.0
 10
-20.656
 20
23.8893
 30
0.0
 10
-20.656
 20
23.8893
 30
0.0
 10
-20.6781
 20
24.1278
 30
0.0
 10
-20.6781
 20
24.1278
 30
0.0
 10
-20.6781
 20
24.1278
 30
0.0
 10
-20.5661
 20
24.148
 30
0.0
 10
-20.4848
 20
24.1866
 30
0.0
 10
-20.434
 20
24.2435
 30
0.0
 10
-20.434
 20
24.2435
 30
0.0
 10
-20.3836
 20
24.3004
 30
0.0
 10
-20.3582
 20
24.3733
 30
0.0
 10
-20.3582
 20
24.4627
 30
0.0
 10
-20.3582
 20
24.4627
 30
0.0
 10
-20.3582
 20
24.5389
 30
0.0
 10
-20.3756
 20
24.6056
 30
0.0
 10
-20.4109
 20
24.663
 30
0.0
 10
-20.4109
 20
24.663
 30
0.0
 10
-20.4457
 20
24.7204
 30
0.0
 10
-20.4923
 20
24.7675
 30
0.0
 10
-20.5506
 20
24.8041
 30
0.0
 10
-20.5506
 20
24.8041
 30
0.0
 10
-20.6089
 20
24.8413
 30
0.0
 10
-20.688
 20
24.8719
 30
0.0
 10
-20.7867
 20
24.8968
 30
0.0
 10
-20.7867
 20
24.8968
 30
0.0
 10
-20.886
 20
24.9213
 30
0.0
 10
-20.9871
 20
24.934
 30
0.0
 10
-21.0901
 20
24.934
 30
0.0
 10
-21.0901
 20
24.934
 30
0.0
 10
-21.1009
 20
24.934
 30
0.0
 10
-21.1179
 20
24.9335
 30
0.0
 10
-21.1395
 20
24.9326
 30
0.0
 10
-21.1395
 20
24.9326
 30
0.0
 10
-21.061
 20
24.8827
 30
0.0
 10
-20.9965
 20
24.815
 30
0.0
 10
-20.9476
 20
24.7294
 30
0.0
 10
-20.9476
 20
24.7294
 30
0.0
 10
-20.8982
 20
24.6433
 30
0.0
 10
-20.8738
 20
24.5501
 30
0.0
 10
-20.8738
 20
24.4504
 30
0.0
 10
-20.8738
 20
24.4504
 30
0.0
 10
-20.8738
 20
24.283
 30
0.0
 10
-20.9344
 20
24.1414
 30
0.0
 10
-21.0558
 20
24.0257
 30
0.0
 10
-21.0558
 20
24.0257
 30
0.0
 10
-21.1771
 20
23.91
 30
0.0
 10
-21.3366
 20
23.8521
 30
0.0
 10
-21.5351
 20
23.8521
 30
0.0
 10
-21.5351
 20
23.8521
 30
0.0
 10
-21.7402
 20
23.8521
 30
0.0
 10
-21.9048
 20
23.9123
 30
0.0
 10
-22.0299
 20
24.0332
 30
0.0
 10
-22.0299
 20
24.0332
 30
0.0
 10
-22.155
 20
24.1541
 30
0.0
 10
-22.2176
 20
24.3056
 30
0.0
 10
-22.2176
 20
24.4876
 30
0.0
 10
-22.2176
 20
24.4876
 30
0.0
 10
-22.2176
 20
24.6188
 30
0.0
 10
-22.1818
 20
24.7388
 30
0.0
 10
-22.1113
 20
24.8479
 30
0.0
 10
-22.1113
 20
24.8479
 30
0.0
 10
-22.0407
 20
24.9565
 30
0.0
 10
-21.9396
 20
25.0393
 30
0.0
 10
-21.8088
 20
25.0958
 30
0.0
 10
-21.8088
 20
25.0958
 30
0.0
 10
-21.6781
 20
25.1522
 30
0.0
 10
-21.4885
 20
25.1804
 30
0.0
 10
-21.2402
 20
25.1804
 30
0.0
 10
-21.2402
 20
25.1804
 30
0.0
 10
-20.9824
 20
25.1804
 30
0.0
 10
-20.7769
 20
25.1527
 30
0.0
 10
-20.6235
 20
25.0967
 30
0.0
 10
-20.6235
 20
25.0967
 30
0.0
 10
-20.4706
 20
25.0403
 30
0.0
 10
-20.3545
 20
24.957
 30
0.0
 10
-20.2745
 20
24.8465
 30
0.0
 10
-20.2745
 20
24.8465
 30
0.0
 10
-20.1945
 20
24.7355
 30
0.0
 10
-20.1546
 20
24.6061
 30
0.0
 10
-20.1546
 20
24.457
 30
0.0
 10
-20.1546
 20
24.457
 30
0.0
 10
-20.1546
 20
24.299
 30
0.0
 10
-20.1983
 20
24.1701
 30
0.0
 10
-20.2863
 20
24.0699
 30
0.0
 10
-20.2863
 20
24.0699
 30
0.0
 10
-20.3738
 20
23.9697
 30
0.0
 10
-20.497
 20
23.9095
 30
0.0
 10
-20.656
 20
23.8893
 30
0.0
  0
SPLINE
  5
CC
330
1F
100
AcDbEntity
  8
DEFAULT_1
 62
   250
100
AcDbSpline
210
0.0
220
0.0
230
1.0
 70
    11
 71
     3
 72
    36
 73
    32
 74
     0
 42
0.0000000001
 43
0.0000000001
 40
0.0
 40
0.0
 40
0.0
 40
0.0
 40
0.1111111111111111
 40
0.1111111111111111
 40
0.1111111111111111
 40
0.1111111111111111
 40
0.2222222222222222
 40
0.2222222222222222
 40
0.2222222222222222
 40
0.2222222222222222
 40
0.3333333333333333
 40
0.3333333333333333
 40
0.3333333333333333
 40
0.3333333333333333
 40
0.4444444444444444
 40
0.4444444444444444
 40
0.4444444444444444
 40
0.4444444444444444
 40
0.5555555555555556
 40
0.5555555555555556
 40
0.5555555555555556
 40
0.5555555555555556
 40
0.6666666666666666
 40
0.6666666666666666
 40
0.6666666666666666
 40
0.6666666666666666
 40
0.7777777777777778
 40
0.7777777777777778
 40
0.7777777777777778
 40
0.7777777777777778
 40
1.0
 40
1.0
 40
1.0
 40
1.0
 10
-21.5478
 20
24.9048
 30
0.0
 10
-21.6898
 20
24.9048
 30
0.0
 10
-21.8032
 20
24.8672
 30
0.0
 10
-21.8865
 20
24.7914
 30
0.0
 10
-21.8865
 20
24.7914
 30
0.0
 10
-21.9702
 20
24.7152
 30
0.0
 10
-22.012
 20
24.6245
 30
0.0
 10
-22.012
 20
24.5177
 30
0.0
 10
-22.012
 20
24.5177
 30
0.0
 10
-22.012
 20
24.4076
 30
0.0
 10
-21.9669
 20
24.3117
 30
0.0
 10
-21.877
 20
24.2298
 30
0.0
 10
-21.877
 20
24.2298
 30
0.0
 10
-21.7867
 20
24.148
 30
0.0
 10
-21.6701
 20
24.1071
 30
0.0
 10
-21.5271
 20
24.1071
 30
0.0
 10
-21.5271
 20
24.1071
 30
0.0
 10
-21.3982
 20
24.1071
 30
0.0
 10
-21.2938
 20
24.1461
 30
0.0
 10
-21.2134
 20
24.2237
 30
0.0
 10
-21.2134
 20
24.2237
 30
0.0
 10
-21.1329
 20
24.3013
 30
0.0
 10
-21.0929
 20
24.3968
 30
0.0
 10
-21.0929
 20
24.5106
 30
0.0
 10
-21.0929
 20
24.5106
 30
0.0
 10
-21.0929
 20
24.6259
 30
0.0
 10
-21.1329
 20
24.7199
 30
0.0
 10
-21.2134
 20
24.7938
 30
0.0
 10
-21.2134
 20
24.7938
 30
0.0
 10
-21.2938
 20
24.8681
 30
0.0
 10
-21.4053
 20
24.9048
 30
0.0
 10
-21.5478
 20
24.9048
 30
0.0
  0
SPLINE
  5
CD
330
1F
100
AcDbEntity
  8
DEFAULT_1
 62
   250
100
AcDbSpline
210
0.0
220
0.0
230
1.0
 70
    11
 71
     3
 72
    92
 73
    88
 74
     0
 42
0.0000000001
 43
0.0000000001
 40
0.0
 40
0.0
 40
0.0
 40
0.0
 40
0.0434782608695652
 40
0.0434782608695652
 40
0.0434782608695652
 40
0.0434782608695652
 40
0.0869565217391304
 40
0.0869565217391304
 40
0.0869565217391304
 40
0.0869565217391304
 40
0.1304347826086956
 40
0.1304347826086956
 40
0.1304347826086956
 40
0.1304347826086956
 40
0.1739130434782609
 40
0.1739130434782609
 40
0.1739130434782609
 40
0.1739130434782609
 40
0.2173913043478261
 40
0.2173913043478261
 40
0.2173913043478261
 40
0.2173913043478261
 40
0.2608695652173913
 40
0.2608695652173913
 40
0.2608695652173913
 40
0.2608695652173913
 40
0.3043478260869565
 40
0.3043478260869565
 40
0.3043478260869565
 40
0.3043478260869565
 40
0.3478260869565217
 40
0.3478260869565217
 40
0.3478260869565217
 40
0.3478260869565217
 40
0.391304347826087
 40
0.391304347826087
 40
0.391304347826087
 40
0.391304347826087
 40
0.4347826086956522
 40
0.4347826086956522
 40
0.4347826086956522
 40
0.4347826086956522
 40
0.4782608695652174
 40
0.4782608695652174
 40
0.4782608695652174
 40
0.4782608695652174
 40
0.5217391304347826
 40
0.5217391304347826
 40
0.5217391304347826
 40
0.5217391304347826
 40
0.5652173913043478
 40
0.5652173913043478
 40
0.5652173913043478
 40
0.5652173913043478
 40
0.6086956521739131
 40
0.6086956521739131
 40
0.6086956521739131
 40
0.6086956521739131
 40
0.6521739130434783
 40
0.6521739130434783
 40
0.6521739130434783
 40
0.6521739130434783
 40
0.6956521739130435
 40
0.6956521739130435
 40
0.6956521739130435
 40
0.6956521739130435
 40
0.7391304347826086
 40
0.7391304347826086
 40
0.7391304347826086
 40
0.7391304347826086
 40
0.782608695652174
 40
0.782608695652174
 40
0.782608695652174
 40
0.782608695652174
 40
0.8260869565217391
 40
0.8260869565217391
 40
0.8260869565217391
 40
0.8260869565217391
 40
0.8695652173913043
 40
0.8695652173913043
 40
0.8695652173913043
 40
0.8695652173913043
 40
0.9130434782608695
 40
0.9130434782608695
 40
0.9130434782608695
 40
0.9130434782608695
 40
1.0
 40
1.0
 40
1.0
 40
1.0
 10
-20.7181
 20
25.4217
 30
0.0
 10
-20.7181
 20
25.4217
 30
0.0
 10
-20.7402
 20
25.6823
 30
0.0
 10
-20.7402
 20
25.6823
 30
0.0
 10
-20.7402
 20
25.6823
 30
0.0
 10
-20.6132
 20
25.7016
 30
0.0
 10
-20.5182
 20
25.7463
 30
0.0
 10
-20.4542
 20
25.8164
 30
0.0
 10
-20.4542
 20
25.8164
 30
0.0
 10
-20.3902
 20
25.8869
 30
0.0
 10
-20.3582
 20
25.9716
 30
0.0
 10
-20.3582
 20
26.0708
 30
0.0
 10
-20.3582
 20
26.0708
 30
0.0
 10
-20.3582
 20
26.1903
 30
0.0
 10
-20.4034
 20
26.2914
 30
0.0
 10
-20.4932
 20
26.3737
 30
0.0
 10
-20.4932
 20
26.3737
 30
0.0
 10
-20.5835
 20
26.4565
 30
0.0
 10
-20.703
 20
26.4979
 30
0.0
 10
-20.8516
 20
26.4979
 30
0.0
 10
-20.8516
 20
26.4979
 30
0.0
 10
-20.9932
 20
26.4979
 30
0.0
 10
-21.1047
 20
26.4584
 30
0.0
 10
-21.1865
 20
26.3789
 30
0.0
 10
-21.1865
 20
26.3789
 30
0.0
 10
-21.2684
 20
26.2994
 30
0.0
 10
-21.3093
 20
26.1955
 30
0.0
 10
-21.3093
 20
26.0666
 30
0.0
 10
-21.3093
 20
26.0666
 30
0.0
 10
-21.3093
 20
25.9866
 30
0.0
 10
-21.291
 20
25.9147
 30
0.0
 10
-21.2548
 20
25.8502
 30
0.0
 10
-21.2548
 20
25.8502
 30
0.0
 10
-21.2185
 20
25.7858
 30
0.0
 10
-21.1715
 20
25.7355
 30
0.0
 10
-21.1136
 20
25.6988
 30
0.0
 10
-21.1136
 20
25.6988
 30
0.0
 10
-21.1136
 20
25.6988
 30
0.0
 10
-21.1437
 20
25.4659
 30
0.0
 10
-21.1437
 20
25.4659
 30
0.0
 10
-21.1437
 20
25.4659
 30
0.0
 10
-21.1437
 20
25.4659
 30
0.0
 10
-22.1814
 20
25.6616
 30
0.0
 10
-22.1814
 20
25.6616
 30
0.0
 10
-22.1814
 20
25.6616
 30
0.0
 10
-22.1814
 20
25.6616
 30
0.0
 10
-22.1814
 20
26.6663
 30
0.0
 10
-22.1814
 20
26.6663
 30
0.0
 10
-22.1814
 20
26.6663
 30
0.0
 10
-22.1814
 20
26.6663
 30
0.0
 10
-21.9443
 20
26.6663
 30
0.0
 10
-21.9443
 20
26.6663
 30
0.0
 10
-21.9443
 20
26.6663
 30
0.0
 10
-21.9443
 20
26.6663
 30
0.0
 10
-21.9443
 20
25.8601
 30
0.0
 10
-21.9443
 20
25.8601
 30
0.0
 10
-21.9443
 20
25.8601
 30
0.0
 10
-21.9443
 20
25.8601
 30
0.0
 10
-21.4015
 20
25.751
 30
0.0
 10
-21.4015
 20
25.751
 30
0.0
 10
-21.4015
 20
25.751
 30
0.0
 10
-21.4862
 20
25.8723
 30
0.0
 10
-21.5285
 20
25.9998
 30
0.0
 10
-21.5285
 20
26.1329
 30
0.0
 10
-21.5285
 20
26.1329
 30
0.0
 10
-21.5285
 20
26.3093
 30
0.0
 10
-21.4674
 20
26.4579
 30
0.0
 10
-21.3451
 20
26.5793
 30
0.0
 10
-21.3451
 20
26.5793
 30
0.0
 10
-21.2228
 20
26.7006
 30
0.0
 10
-21.0657
 20
26.7613
 30
0.0
 10
-20.8738
 20
26.7613
 30
0.0
 10
-20.8738
 20
26.7613
 30
0.0
 10
-20.6908
 20
26.7613
 30
0.0
 10
-20.5327
 20
26.7077
 30
0.0
 10
-20.3996
 20
26.6014
 30
0.0
 10
-20.3996
 20
26.6014
 30
0.0
 10
-20.2364
 20
26.4716
 30
0.0
 10
-20.1546
 20
26.2947
 30
0.0
 10
-20.1546
 20
26.0708
 30
0.0
 10
-20.1546
 20
26.0708
 30
0.0
 10
-20.1546
 20
25.8869
 30
0.0
 10
-20.2058
 20
25.7369
 30
0.0
 10
-20.3088
 20
25.6207
 30
0.0
 10
-20.3088
 20
25.6207
 30
0.0
 10
-20.4119
 20
25.5045
 30
0.0
 10
-20.5483
 20
25.4382
 30
0.0
 10
-20.7181
 20
25.4217
 30
0.0
  0
SPLINE
  5
CE
330
1F
100
AcDbEntity
  8
DEFAULT_1
 62
   250
100
AcDbSpline
210
0.0
220
0.0
230
1.0
 70
    11
 71
     3
 72
    20
 73
    16
 74
     0
 42
0.0000000001
 43
0.0000000001
 40
0.0
 40
0.0
 40
0.0
 40
0.0
 40
0.2
 40
0.2
 40
0.2
 40
0.2
 40
0.4
 40
0.4
 40
0.4
 40
0.4
 40
0.6
 40
0.6
 40
0.6
 40
0.6
 40
1.0
 40
1.0
 40
1.0
 40
1.0
 10
-19.2047
 20
16.9676
 30
0.0
 10
-19.2047
 20
16.9676
 30
0.0
 10
-19.5576
 20
14.4676
 30
0.0
 10
-19.5576
 20
14.4676
 30
0.0
 10
-19.5576
 20
14.4676
 30
0.0
 10
-19.5576
 20
14.4676
 30
0.0
 10
-19.6359
 20
14.4676
 30
0.0
 10
-19.6359
 20
14.4676
 30
0.0
 10
-19.6359
 20
14.4676
 30
0.0
 10
-19.6359
 20
14.4676
 30
0.0
 10
-20.0122
 20
16.9676
 30
0.0
 10
-20.0122
 20
16.9676
 30
0.0
 10
-20.0122
 20
16.9676
 30
0.0
 10
-20.0122
 20
16.9676
 30
0.0
 10
-19.2047
 20
16.9676
 30
0.0
 10
-19.2047
 20
16.9676
 30
0.0
  0
SPLINE
  5
CF
330
1F
100
AcDbEntity
  8
DEFAULT_1
 62
   250
100
AcDbSpline
210
0.0
220
0.0
230
1.0
 70
    11
 71
     3
 72
    84
 73
    80
 74
     0
 42
0.0000000001
 43
0.0000000001
 40
0.0
 40
0.0
 40
0.0
 40
0.0
 40
0.0476190476190476
 40
0.0476190476190476
 40
0.0476190476190476
 40
0.0476190476190476
 40
0.0952380952380952
 40
0.0952380952380952
 40
0.0952380952380952
 40
0.0952380952380952
 40
0.1428571428571428
 40
0.1428571428571428
 40
0.1428571428571428
 40
0.1428571428571428
 40
0.1904761904761905
 40
0.1904761904761905
 40
0.1904761904761905
 40
0.1904761904761905
 40
0.2380952380952381
 40
0.2380952380952381
 40
0.2380952380952381
 40
0.2380952380952381
 40
0.2857142857142857
 40
0.2857142857142857
 40
0.2857142857142857
 40
0.2857142857142857
 40
0.3333333333333333
 40
0.3333333333333333
 40
0.3333333333333333
 40
0.3333333333333333
 40
0.3809523809523809
 40
0.3809523809523809
 40
0.3809523809523809
 40
0.3809523809523809
 40
0.4285714285714285
 40
0.4285714285714285
 40
0.4285714285714285
 40
0.4285714285714285
 40
0.4761904761904762
 40
0.4761904761904762
 40
0.4761904761904762
 40
0.4761904761904762
 40
0.5238095238095238
 40
0.5238095238095238
 40
0.5238095238095238
 40
0.5238095238095238
 40
0.5714285714285714
 40
0.5714285714285714
 40
0.5714285714285714
 40
0.5714285714285714
 40
0.6190476190476191
 40
0.6190476190476191
 40
0.6190476190476191
 40
0.6190476190476191
 40
0.6666666666666666
 40
0.6666666666666666
 40
0.6666666666666666
 40
0.6666666666666666
 40
0.7142857142857143
 40
0.7142857142857143
 40
0.7142857142857143
 40
0.7142857142857143
 40
0.7619047619047619
 40
0.7619047619047619
 40
0.7619047619047619
 40
0.7619047619047619
 40
0.8095238095238095
 40
0.8095238095238095
 40
0.8095238095238095
 40
0.8095238095238095
 40
0.8571428571428571
 40
0.8571428571428571
 40
0.8571428571428571
 40
0.8571428571428571
 40
0.9047619047619048
 40
0.9047619047619048
 40
0.9047619047619048
 40
0.9047619047619048
 40
1.0
 40
1.0
 40
1.0
 40
1.0
 10
-5.303
 20
34.2355
 30
0.0
 10
-5.303
 20
34.2355
 30
0.0
 10
-5.0716
 20
34.4946
 30
0.0
 10
-5.0716
 20
34.4946
 30
0.0
 10
-5.0716
 20
34.4946
 30
0.0
 10
-5.0716
 20
34.4946
 30
0.0
 10
-4.9352
 20
34.3789
 30
0.0
 10
-4.9352
 20
34.3789
 30
0.0
 10
-4.9352
 20
34.3789
 30
0.0
 10
-4.9352
 20
34.3789
 30
0.0
 10
-5.1774
 20
34.1061
 30
0.0
 10
-5.1774
 20
34.1061
 30
0.0
 10
-5.1774
 20
34.1061
 30
0.0
 10
-5.0984
 20
33.9885
 30
0.0
 10
-5.0453
 20
33.8855
 30
0.0
 10
-5.0175
 20
33.7976
 30
0.0
 10
-5.0175
 20
33.7976
 30
0.0
 10
-4.9808
 20
33.6818
 30
0.0
 10
-4.9625
 20
33.552
 30
0.0
 10
-4.9625
 20
33.409
 30
0.0
 10
-4.9625
 20
33.409
 30
0.0
 10
-4.9625
 20
33.2021
 30
0.0
 10
-5.0043
 20
33.0177
 30
0.0
 10
-5.0881
 20
32.8564
 30
0.0
 10
-5.0881
 20
32.8564
 30
0.0
 10
-5.1718
 20
32.6945
 30
0.0
 10
-5.2889
 20
32.5723
 30
0.0
 10
-5.4399
 20
32.4895
 30
0.0
 10
-5.4399
 20
32.4895
 30
0.0
 10
-5.5914
 20
32.4072
 30
0.0
 10
-5.7517
 20
32.3658
 30
0.0
 10
-5.9215
 20
32.3658
 30
0.0
 10
-5.9215
 20
32.3658
 30
0.0
 10
-6.0485
 20
32.3658
 30
0.0
 10
-6.1633
 20
32.3836
 30
0.0
 10
-6.2663
 20
32.4194
 30
0.0
 10
-6.2663
 20
32.4194
 30
0.0
 10
-6.3453
 20
32.4471
 30
0.0
 10
-6.4375
 20
32.4998
 30
0.0
 10
-6.5434
 20
32.5779
 30
0.0
 10
-6.5434
 20
32.5779
 30
0.0
 10
-6.5434
 20
32.5779
 30
0.0
 10
-6.7748
 20
32.3187
 30
0.0
 10
-6.7748
 20
32.3187
 30
0.0
 10
-6.7748
 20
32.3187
 30
0.0
 10
-6.7748
 20
32.3187
 30
0.0
 10
-6.9112
 20
32.4344
 30
0.0
 10
-6.9112
 20
32.4344
 30
0.0
 10
-6.9112
 20
32.4344
 30
0.0
 10
-6.9112
 20
32.4344
 30
0.0
 10
-6.6685
 20
32.7058
 30
0.0
 10
-6.6685
 20
32.7058
 30
0.0
 10
-6.6685
 20
32.7058
 30
0.0
 10
-6.7588
 20
32.8427
 30
0.0
 10
-6.819
 20
32.9598
 30
0.0
 10
-6.8491
 20
33.0567
 30
0.0
 10
-6.8491
 20
33.0567
 30
0.0
 10
-6.8792
 20
33.1536
 30
0.0
 10
-6.8947
 20
33.2703
 30
0.0
 10
-6.8947
 20
33.4062
 30
0.0
 10
-6.8947
 20
33.4062
 30
0.0
 10
-6.8947
 20
33.6136
 30
0.0
 10
-6.8533
 20
33.7985
 30
0.0
 10
-6.7706
 20
33.9608
 30
0.0
 10
-6.7706
 20
33.9608
 30
0.0
 10
-6.6878
 20
34.1231
 30
0.0
 10
-6.5721
 20
34.2458
 30
0.0
 10
-6.4225
 20
34.3295
 30
0.0
 10
-6.4225
 20
34.3295
 30
0.0
 10
-6.2734
 20
34.4128
 30
0.0
 10
-6.1073
 20
34.4547
 30
0.0
 10
-5.9244
 20
34.4547
 30
0.0
 10
-5.9244
 20
34.4547
 30
0.0
 10
-5.8011
 20
34.4547
 30
0.0
 10
-5.6934
 20
34.4387
 30
0.0
 10
-5.6012
 20
34.4057
 30
0.0
 10
-5.6012
 20
34.4057
 30
0.0
 10
-5.509
 20
34.3733
 30
0.0
 10
-5.4093
 20
34.3164
 30
0.0
 10
-5.303
 20
34.2355
 30
0.0
  0
SPLINE
  5
D0
330
1F
100
AcDbEntity
  8
DEFAULT_1
 62
   250
100
AcDbSpline
210
0.0
220
0.0
230
1.0
 70
    11
 71
     3
 72
    32
 73
    28
 74
     0
 42
0.0000000001
 43
0.0000000001
 40
0.0
 40
0.0
 40
0.0
 40
0.0
 40
0.125
 40
0.125
 40
0.125
 40
0.125
 40
0.25
 40
0.25
 40
0.25
 40
0.25
 40
0.375
 40
0.375
 40
0.375
 40
0.375
 40
0.5
 40
0.5
 40
0.5
 40
0.5
 40
0.625
 40
0.625
 40
0.625
 40
0.625
 40
0.75
 40
0.75
 40
0.75
 40
0.75
 40
1.0
 40
1.0
 40
1.0
 40
1.0
 10
-5.4681
 20
34.0497
 30
0.0
 10
-5.5547
 20
34.1174
 30
0.0
 10
-5.6304
 20
34.164
 30
0.0
 10
-5.6948
 20
34.1889
 30
0.0
 10
-5.6948
 20
34.1889
 30
0.0
 10
-5.7597
 20
34.2134
 30
0.0
 10
-5.8359
 20
34.2261
 30
0.0
 10
-5.923
 20
34.2261
 30
0.0
 10
-5.923
 20
34.2261
 30
0.0
 10
-6.1243
 20
34.2261
 30
0.0
 10
-6.2903
 20
34.1579
 30
0.0
 10
-6.422
 20
34.0215
 30
0.0
 10
-6.422
 20
34.0215
 30
0.0
 10
-6.5533
 20
33.885
 30
0.0
 10
-6.6191
 20
33.6814
 30
0.0
 10
-6.6191
 20
33.41
 30
0.0
 10
-6.6191
 20
33.41
 30
0.0
 10
-6.6191
 20
33.3037
 30
0.0
 10
-6.6088
 20
33.2091
 30
0.0
 10
-6.5885
 20
33.1263
 30
0.0
 10
-6.5885
 20
33.1263
 30
0.0
 10
-6.5739
 20
33.0647
 30
0.0
 10
-6.5434
 20
32.989
 30
0.0
 10
-6.4963
 20
32.8992
 30
0.0
 10
-6.4963
 20
32.8992
 30
0.0
 10
-6.4963
 20
32.8992
 30
0.0
 10
-5.4681
 20
34.0497
 30
0.0
 10
-5.4681
 20
34.0497
 30
0.0
  0
SPLINE
  5
D1
330
1F
100
AcDbEntity
  8
DEFAULT_1
 62
   250
100
AcDbSpline
210
0.0
220
0.0
230
1.0
 70
    11
 71
     3
 72
    28
 73
    24
 74
     0
 42
0.0000000001
 43
0.0000000001
 40
0.0
 40
0.0
 40
0.0
 40
0.0
 40
0.1428571428571428
 40
0.1428571428571428
 40
0.1428571428571428
 40
0.1428571428571428
 40
0.2857142857142857
 40
0.2857142857142857
 40
0.2857142857142857
 40
0.2857142857142857
 40
0.4285714285714285
 40
0.4285714285714285
 40
0.4285714285714285
 40
0.4285714285714285
 40
0.5714285714285714
 40
0.5714285714285714
 40
0.5714285714285714
 40
0.5714285714285714
 40
0.7142857142857143
 40
0.7142857142857143
 40
0.7142857142857143
 40
0.7142857142857143
 40
1.0
 40
1.0
 40
1.0
 40
1.0
 10
-5.3552
 20
33.9076
 30
0.0
 10
-5.3552
 20
33.9076
 30
0.0
 10
-6.3792
 20
32.7613
 30
0.0
 10
-6.3792
 20
32.7613
 30
0.0
 10
-6.3792
 20
32.7613
 30
0.0
 10
-6.3087
 20
32.7035
 30
0.0
 10
-6.2433
 20
32.663
 30
0.0
 10
-6.1835
 20
32.64
 30
0.0
 10
-6.1835
 20
32.64
 30
0.0
 10
-6.1055
 20
32.6094
 30
0.0
 10
-6.0208
 20
32.5944
 30
0.0
 10
-5.93
 20
32.5944
 30
0.0
 10
-5.93
 20
32.5944
 30
0.0
 10
-5.7296
 20
32.5944
 30
0.0
 10
-5.5645
 20
32.6649
 30
0.0
 10
-5.4338
 20
32.8065
 30
0.0
 10
-5.4338
 20
32.8065
 30
0.0
 10
-5.3035
 20
32.9481
 30
0.0
 10
-5.2381
 20
33.1466
 30
0.0
 10
-5.2381
 20
33.402
 30
0.0
 10
-5.2381
 20
33.402
 30
0.0
 10
-5.2381
 20
33.5929
 30
0.0
 10
-5.2771
 20
33.7618
 30
0.0
 10
-5.3552
 20
33.9076
 30
0.0
  0
SPLINE
  5
D2
330
1F
100
AcDbEntity
  8
DEFAULT_1
 62
   250
100
AcDbSpline
210
0.0
220
0.0
230
1.0
 70
    11
 71
     3
 72
    40
 73
    36
 74
     0
 42
0.0000000001
 43
0.0000000001
 40
0.0
 40
0.0
 40
0.0
 40
0.0
 40
0.1
 40
0.1
 40
0.1
 40
0.1
 40
0.2
 40
0.2
 40
0.2
 40
0.2
 40
0.3
 40
0.3
 40
0.3
 40
0.3
 40
0.4
 40
0.4
 40
0.4
 40
0.4
 40
0.5
 40
0.5
 40
0.5
 40
0.5
 40
0.6
 40
0.6
 40
0.6
 40
0.6
 40
0.7
 40
0.7
 40
0.7
 40
0.7
 40
0.8
 40
0.8
 40
0.8
 40
0.8
 40
1.0
 40
1.0
 40
1.0
 40
1.0
 10
-3.779
 20
32.4001
 30
0.0
 10
-3.779
 20
32.4001
 30
0.0
 10
-4.0269
 20
32.4001
 30
0.0
 10
-4.0269
 20
32.4001
 30
0.0
 10
-4.0269
 20
32.4001
 30
0.0
 10
-4.0269
 20
32.4001
 30
0.0
 10
-4.0269
 20
33.9805
 30
0.0
 10
-4.0269
 20
33.9805
 30
0.0
 10
-4.0269
 20
33.9805
 30
0.0
 10
-4.0867
 20
33.9236
 30
0.0
 10
-4.1647
 20
33.8667
 30
0.0
 10
-4.2616
 20
33.8098
 30
0.0
 10
-4.2616
 20
33.8098
 30
0.0
 10
-4.359
 20
33.7529
 30
0.0
 10
-4.446
 20
33.7101
 30
0.0
 10
-4.5232
 20
33.6818
 30
0.0
 10
-4.5232
 20
33.6818
 30
0.0
 10
-4.5232
 20
33.6818
 30
0.0
 10
-4.5232
 20
33.9213
 30
0.0
 10
-4.5232
 20
33.9213
 30
0.0
 10
-4.5232
 20
33.9213
 30
0.0
 10
-4.3844
 20
33.9866
 30
0.0
 10
-4.263
 20
34.0657
 30
0.0
 10
-4.1591
 20
34.1583
 30
0.0
 10
-4.1591
 20
34.1583
 30
0.0
 10
-4.0556
 20
34.2515
 30
0.0
 10
-3.9818
 20
34.3413
 30
0.0
 10
-3.9385
 20
34.4288
 30
0.0
 10
-3.9385
 20
34.4288
 30
0.0
 10
-3.9385
 20
34.4288
 30
0.0
 10
-3.779
 20
34.4288
 30
0.0
 10
-3.779
 20
34.4288
 30
0.0
 10
-3.779
 20
34.4288
 30
0.0
 10
-3.779
 20
34.4288
 30
0.0
 10
-3.779
 20
32.4001
 30
0.0
 10
-3.779
 20
32.4001
 30
0.0
  0
SPLINE
  5
D3
330
1F
100
AcDbEntity
  8
DEFAULT_1
 62
   250
100
AcDbSpline
210
0.0
220
0.0
230
1.0
 70
    11
 71
     3
 72
    80
 73
    76
 74
     0
 42
0.0000000001
 43
0.0000000001
 40
0.0
 40
0.0
 40
0.0
 40
0.0
 40
0.05
 40
0.05
 40
0.05
 40
0.05
 40
0.1
 40
0.1
 40
0.1
 40
0.1
 40
0.15
 40
0.15
 40
0.15
 40
0.15
 40
0.2
 40
0.2
 40
0.2
 40
0.2
 40
0.25
 40
0.25
 40
0.25
 40
0.25
 40
0.3
 40
0.3
 40
0.3
 40
0.3
 40
0.35
 40
0.35
 40
0.35
 40
0.35
 40
0.4
 40
0.4
 40
0.4
 40
0.4
 40
0.45
 40
0.45
 40
0.45
 40
0.45
 40
0.5
 40
0.5
 40
0.5
 40
0.5
 40
0.55
 40
0.55
 40
0.55
 40
0.55
 40
0.6
 40
0.6
 40
0.6
 40
0.6
 40
0.65
 40
0.65
 40
0.65
 40
0.65
 40
0.7
 40
0.7
 40
0.7
 40
0.7
 40
0.75
 40
0.75
 40
0.75
 40
0.75
 40
0.8
 40
0.8
 40
0.8
 40
0.8
 40
0.85
 40
0.85
 40
0.85
 40
0.85
 40
0.9
 40
0.9
 40
0.9
 40
0.9
 40
1.0
 40
1.0
 40
1.0
 40
1.0
 10
-1.8567
 20
33.9255
 30
0.0
 10
-1.8567
 20
33.9255
 30
0.0
 10
-2.1031
 20
33.9062
 30
0.0
 10
-2.1031
 20
33.9062
 30
0.0
 10
-2.1031
 20
33.9062
 30
0.0
 10
-2.1252
 20
34.0036
 30
0.0
 10
-2.1563
 20
34.0746
 30
0.0
 10
-2.1967
 20
34.1183
 30
0.0
 10
-2.1967
 20
34.1183
 30
0.0
 10
-2.264
 20
34.1894
 30
0.0
 10
-2.3468
 20
34.2247
 30
0.0
 10
-2.4451
 20
34.2247
 30
0.0
 10
-2.4451
 20
34.2247
 30
0.0
 10
-2.5241
 20
34.2247
 30
0.0
 10
-2.5932
 20
34.2025
 30
0.0
 10
-2.653
 20
34.1583
 30
0.0
 10
-2.653
 20
34.1583
 30
0.0
 10
-2.7311
 20
34.1014
 30
0.0
 10
-2.7927
 20
34.0182
 30
0.0
 10
-2.8378
 20
33.909
 30
0.0
 10
-2.8378
 20
33.909
 30
0.0
 10
-2.8825
 20
33.7999
 30
0.0
 10
-2.906
 20
33.6442
 30
0.0
 10
-2.9079
 20
33.442
 30
0.0
 10
-2.9079
 20
33.442
 30
0.0
 10
-2.8482
 20
33.5327
 30
0.0
 10
-2.7753
 20
33.6005
 30
0.0
 10
-2.6887
 20
33.6447
 30
0.0
 10
-2.6887
 20
33.6447
 30
0.0
 10
-2.6027
 20
33.6884
 30
0.0
 10
-2.5119
 20
33.7105
 30
0.0
 10
-2.4173
 20
33.7105
 30
0.0
 10
-2.4173
 20
33.7105
 30
0.0
 10
-2.2518
 20
33.7105
 30
0.0
 10
-2.1111
 20
33.6499
 30
0.0
 10
-1.9949
 20
33.528
 30
0.0
 10
-1.9949
 20
33.528
 30
0.0
 10
-1.8788
 20
33.4062
 30
0.0
 10
-1.8204
 20
33.2491
 30
0.0
 10
-1.8204
 20
33.0563
 30
0.0
 10
-1.8204
 20
33.0563
 30
0.0
 10
-1.8204
 20
32.9293
 30
0.0
 10
-1.8482
 20
32.8117
 30
0.0
 10
-1.9028
 20
32.7025
 30
0.0
 10
-1.9028
 20
32.7025
 30
0.0
 10
-1.9573
 20
32.5939
 30
0.0
 10
-2.0326
 20
32.5102
 30
0.0
 10
-2.1281
 20
32.4523
 30
0.0
 10
-2.1281
 20
32.4523
 30
0.0
 10
-2.2235
 20
32.3945
 30
0.0
 10
-2.3317
 20
32.3658
 30
0.0
 10
-2.4531
 20
32.3658
 30
0.0
 10
-2.4531
 20
32.3658
 30
0.0
 10
-2.66
 20
32.3658
 30
0.0
 10
-2.8284
 20
32.4415
 30
0.0
 10
-2.9587
 20
32.5939
 30
0.0
 10
-2.9587
 20
32.5939
 30
0.0
 10
-3.0895
 20
32.7458
 30
0.0
 10
-3.1544
 20
32.9965
 30
0.0
 10
-3.1544
 20
33.3455
 30
0.0
 10
-3.1544
 20
33.3455
 30
0.0
 10
-3.1544
 20
33.7359
 30
0.0
 10
-3.0824
 20
34.0196
 30
0.0
 10
-2.938
 20
34.1969
 30
0.0
 10
-2.938
 20
34.1969
 30
0.0
 10
-2.8124
 20
34.3512
 30
0.0
 10
-2.6431
 20
34.4288
 30
0.0
 10
-2.4296
 20
34.4288
 30
0.0
 10
-2.4296
 20
34.4288
 30
0.0
 10
-2.271
 20
34.4288
 30
0.0
 10
-2.1408
 20
34.3841
 30
0.0
 10
-2.0392
 20
34.2947
 30
0.0
 10
-2.0392
 20
34.2947
 30
0.0
 10
-1.9376
 20
34.2058
 30
0.0
 10
-1.8769
 20
34.0826
 30
0.0
 10
-1.8567
 20
33.9255
 30
0.0
  0
SPLINE
  5
D4
330
1F
100
AcDbEntity
  8
DEFAULT_1
 62
   250
100
AcDbSpline
210
0.0
220
0.0
230
1.0
 70
    11
 71
     3
 72
    40
 73
    36
 74
     0
 42
0.0000000001
 43
0.0000000001
 40
0.0
 40
0.0
 40
0.0
 40
0.0
 40
0.1
 40
0.1
 40
0.1
 40
0.1
 40
0.2
 40
0.2
 40
0.2
 40
0.2
 40
0.3
 40
0.3
 40
0.3
 40
0.3
 40
0.4
 40
0.4
 40
0.4
 40
0.4
 40
0.5
 40
0.5
 40
0.5
 40
0.5
 40
0.6
 40
0.6
 40
0.6
 40
0.6
 40
0.7
 40
0.7
 40
0.7
 40
0.7
 40
0.8
 40
0.8
 40
0.8
 40
0.8
 40
1.0
 40
1.0
 40
1.0
 40
1.0
 10
-2.8694
 20
33.0549
 30
0.0
 10
-2.8694
 20
32.9692
 30
0.0
 10
-2.851
 20
32.8874
 30
0.0
 10
-2.8148
 20
32.8093
 30
0.0
 10
-2.8148
 20
32.8093
 30
0.0
 10
-2.7786
 20
32.7312
 30
0.0
 10
-2.7278
 20
32.672
 30
0.0
 10
-2.6629
 20
32.6311
 30
0.0
 10
-2.6629
 20
32.6311
 30
0.0
 10
-2.5975
 20
32.5901
 30
0.0
 10
-2.5288
 20
32.5694
 30
0.0
 10
-2.4573
 20
32.5694
 30
0.0
 10
-2.4573
 20
32.5694
 30
0.0
 10
-2.3524
 20
32.5694
 30
0.0
 10
-2.2626
 20
32.6118
 30
0.0
 10
-2.1873
 20
32.6964
 30
0.0
 10
-2.1873
 20
32.6964
 30
0.0
 10
-2.1121
 20
32.7811
 30
0.0
 10
-2.0744
 20
32.8959
 30
0.0
 10
-2.0744
 20
33.0407
 30
0.0
 10
-2.0744
 20
33.0407
 30
0.0
 10
-2.0744
 20
33.1804
 30
0.0
 10
-2.1116
 20
33.2905
 30
0.0
 10
-2.1859
 20
33.3709
 30
0.0
 10
-2.1859
 20
33.3709
 30
0.0
 10
-2.2602
 20
33.4514
 30
0.0
 10
-2.3538
 20
33.4914
 30
0.0
 10
-2.4667
 20
33.4914
 30
0.0
 10
-2.4667
 20
33.4914
 30
0.0
 10
-2.5791
 20
33.4914
 30
0.0
 10
-2.6742
 20
33.4514
 30
0.0
 10
-2.7522
 20
33.3709
 30
0.0
 10
-2.7522
 20
33.3709
 30
0.0
 10
-2.8303
 20
33.2905
 30
0.0
 10
-2.8694
 20
33.1851
 30
0.0
 10
-2.8694
 20
33.0549
 30
0.0
  0
SPLINE
  5
D5
330
1F
100
AcDbEntity
  8
DEFAULT_1
 62
   250
100
AcDbSpline
210
0.0
220
0.0
230
1.0
 70
    11
 71
     3
 72
    52
 73
    48
 74
     0
 42
0.0000000001
 43
0.0000000001
 40
0.0
 40
0.0
 40
0.0
 40
0.0
 40
0.0769230769230769
 40
0.0769230769230769
 40
0.0769230769230769
 40
0.0769230769230769
 40
0.1538461538461539
 40
0.1538461538461539
 40
0.1538461538461539
 40
0.1538461538461539
 40
0.2307692307692308
 40
0.2307692307692308
 40
0.2307692307692308
 40
0.2307692307692308
 40
0.3076923076923077
 40
0.3076923076923077
 40
0.3076923076923077
 40
0.3076923076923077
 40
0.3846153846153846
 40
0.3846153846153846
 40
0.3846153846153846
 40
0.3846153846153846
 40
0.4615384615384616
 40
0.4615384615384616
 40
0.4615384615384616
 40
0.4615384615384616
 40
0.5384615384615384
 40
0.5384615384615384
 40
0.5384615384615384
 40
0.5384615384615384
 40
0.6153846153846154
 40
0.6153846153846154
 40
0.6153846153846154
 40
0.6153846153846154
 40
0.6923076923076923
 40
0.6923076923076923
 40
0.6923076923076923
 40
0.6923076923076923
 40
0.7692307692307693
 40
0.7692307692307693
 40
0.7692307692307693
 40
0.7692307692307693
 40
0.8461538461538461
 40
0.8461538461538461
 40
0.8461538461538461
 40
0.8461538461538461
 40
1.0
 40
1.0
 40
1.0
 40
1.0
 10
-1.574
 20
33.3963
 30
0.0
 10
-1.574
 20
33.6353
 30
0.0
 10
-1.5495
 20
33.8277
 30
0.0
 10
-1.5001
 20
33.973
 30
0.0
 10
-1.5001
 20
33.973
 30
0.0
 10
-1.4512
 20
34.1188
 30
0.0
 10
-1.3778
 20
34.2312
 30
0.0
 10
-1.2809
 20
34.3103
 30
0.0
 10
-1.2809
 20
34.3103
 30
0.0
 10
-1.184
 20
34.3893
 30
0.0
 10
-1.0622
 20
34.4288
 30
0.0
 10
-0.9155
 20
34.4288
 30
0.0
 10
-0.9155
 20
34.4288
 30
0.0
 10
-0.8068
 20
34.4288
 30
0.0
 10
-0.7118
 20
34.4067
 30
0.0
 10
-0.63
 20
34.3629
 30
0.0
 10
-0.63
 20
34.3629
 30
0.0
 10
-0.5481
 20
34.3197
 30
0.0
 10
-0.4808
 20
34.2566
 30
0.0
 10
-0.4272
 20
34.1743
 30
0.0
 10
-0.4272
 20
34.1743
 30
0.0
 10
-0.3741
 20
34.092
 30
0.0
 10
-0.3322
 20
33.9918
 30
0.0
 10
-0.3021
 20
33.8738
 30
0.0
 10
-0.3021
 20
33.8738
 30
0.0
 10
-0.2715
 20
33.7557
 30
0.0
 10
-0.2565
 20
33.5967
 30
0.0
 10
-0.2565
 20
33.3963
 30
0.0
 10
-0.2565
 20
33.3963
 30
0.0
 10
-0.2565
 20
33.1593
 30
0.0
 10
-0.2809
 20
32.9683
 30
0.0
 10
-0.3294
 20
32.8225
 30
0.0
 10
-0.3294
 20
32.8225
 30
0.0
 10
-0.3783
 20
32.6767
 30
0.0
 10
-0.4512
 20
32.5643
 30
0.0
 10
-0.5481
 20
32.4848
 30
0.0
 10
-0.5481
 20
32.4848
 30
0.0
 10
-0.645
 20
32.4053
 30
0.0
 10
-0.7673
 20
32.3658
 30
0.0
 10
-0.9155
 20
32.3658
 30
0.0
 10
-0.9155
 20
32.3658
 30
0.0
 10
-1.1102
 20
32.3658
 30
0.0
 10
-1.2631
 20
32.4354
 30
0.0
 10
-1.3741
 20
32.5751
 30
0.0
 10
-1.3741
 20
32.5751
 30
0.0
 10
-1.5072
 20
32.743
 30
0.0
 10
-1.574
 20
33.0172
 30
0.0
 10
-1.574
 20
33.3963
 30
0.0
  0
SPLINE
  5
D6
330
1F
100
AcDbEntity
  8
DEFAULT_1
 62
   250
100
AcDbSpline
210
0.0
220
0.0
230
1.0
 70
    11
 71
     3
 72
    36
 73
    32
 74
     0
 42
0.0000000001
 43
0.0000000001
 40
0.0
 40
0.0
 40
0.0
 40
0.0
 40
0.1111111111111111
 40
0.1111111111111111
 40
0.1111111111111111
 40
0.1111111111111111
 40
0.2222222222222222
 40
0.2222222222222222
 40
0.2222222222222222
 40
0.2222222222222222
 40
0.3333333333333333
 40
0.3333333333333333
 40
0.3333333333333333
 40
0.3333333333333333
 40
0.4444444444444444
 40
0.4444444444444444
 40
0.4444444444444444
 40
0.4444444444444444
 40
0.5555555555555556
 40
0.5555555555555556
 40
0.5555555555555556
 40
0.5555555555555556
 40
0.6666666666666666
 40
0.6666666666666666
 40
0.6666666666666666
 40
0.6666666666666666
 40
0.7777777777777778
 40
0.7777777777777778
 40
0.7777777777777778
 40
0.7777777777777778
 40
1.0
 40
1.0
 40
1.0
 40
1.0
 10
-1.319
 20
33.3963
 30
0.0
 10
-1.319
 20
33.0647
 30
0.0
 10
-1.28
 20
32.8441
 30
0.0
 10
-1.2024
 20
32.7341
 30
0.0
 10
-1.2024
 20
32.7341
 30
0.0
 10
-1.1248
 20
32.6245
 30
0.0
 10
-1.0293
 20
32.5694
 30
0.0
 10
-0.9155
 20
32.5694
 30
0.0
 10
-0.9155
 20
32.5694
 30
0.0
 10
-0.8012
 20
32.5694
 30
0.0
 10
-0.7057
 20
32.6249
 30
0.0
 10
-0.6281
 20
32.735
 30
0.0
 10
-0.6281
 20
32.735
 30
0.0
 10
-0.5505
 20
32.8451
 30
0.0
 10
-0.5114
 20
33.0657
 30
0.0
 10
-0.5114
 20
33.3963
 30
0.0
 10
-0.5114
 20
33.3963
 30
0.0
 10
-0.5114
 20
33.7289
 30
0.0
 10
-0.5505
 20
33.95
 30
0.0
 10
-0.6281
 20
34.0591
 30
0.0
 10
-0.6281
 20
34.0591
 30
0.0
 10
-0.7057
 20
34.1687
 30
0.0
 10
-0.8021
 20
34.2232
 30
0.0
 10
-0.9178
 20
34.2232
 30
0.0
 10
-0.9178
 20
34.2232
 30
0.0
 10
-1.0321
 20
34.2232
 30
0.0
 10
-1.1229
 20
34.1748
 30
0.0
 10
-1.1911
 20
34.0784
 30
0.0
 10
-1.1911
 20
34.0784
 30
0.0
 10
-1.2762
 20
33.9556
 30
0.0
 10
-1.319
 20
33.7279
 30
0.0
 10
-1.319
 20
33.3963
 30
0.0
  0
SPLINE
  5
D7
330
1F
100
AcDbEntity
  8
DEFAULT_1
 62
   250
100
AcDbSpline
210
0.0
220
0.0
230
1.0
 70
    11
 71
     3
 72
    20
 73
    16
 74
     0
 42
0.0000000001
 43
0.0000000001
 40
0.0
 40
0.0
 40
0.0
 40
0.0
 40
0.2
 40
0.2
 40
0.2
 40
0.2
 40
0.4
 40
0.4
 40
0.4
 40
0.4
 40
0.6
 40
0.6
 40
0.6
 40
0.6
 40
1.0
 40
1.0
 40
1.0
 40
1.0
 10
7.4603
 20
32.177
 30
0.0
 10
7.4603
 20
32.177
 30
0.0
 10
9.9603
 20
31.8241
 30
0.0
 10
9.9603
 20
31.8241
 30
0.0
 10
9.9603
 20
31.8241
 30
0.0
 10
9.9603
 20
31.8241
 30
0.0
 10
9.9603
 20
31.7458
 30
0.0
 10
9.9603
 20
31.7458
 30
0.0
 10
9.9603
 20
31.7458
 30
0.0
 10
9.9603
 20
31.7458
 30
0.0
 10
7.4603
 20
31.3695
 30
0.0
 10
7.4603
 20
31.3695
 30
0.0
 10
7.4603
 20
31.3695
 30
0.0
 10
7.4603
 20
31.3695
 30
0.0
 10
7.4603
 20
32.177
 30
0.0
 10
7.4603
 20
32.177
 30
0.0
  0
SPLINE
  5
D8
330
1F
100
AcDbEntity
  8
DEFAULT_1
 62
   250
100
AcDbSpline
210
0.0
220
0.0
230
1.0
 70
    11
 71
     3
 72
    20
 73
    16
 74
     0
 42
0.0000000001
 43
0.0000000001
 40
0.0
 40
0.0
 40
0.0
 40
0.0
 40
0.2
 40
0.2
 40
0.2
 40
0.2
 40
0.4
 40
0.4
 40
0.4
 40
0.4
 40
0.6
 40
0.6
 40
0.6
 40
0.6
 40
1.0
 40
1.0
 40
1.0
 40
1.0
 10
-14.5654
 20
31.4121
 30
0.0
 10
-14.5654
 20
31.4121
 30
0.0
 10
-17.0654
 20
31.765
 30
0.0
 10
-17.0654
 20
31.765
 30
0.0
 10
-17.0654
 20
31.765
 30
0.0
 10
-17.0654
 20
31.765
 30
0.0
 10
-17.0654
 20
31.8433
 30
0.0
 10
-17.0654
 20
31.8433
 30
0.0
 10
-17.0654
 20
31.8433
 30
0.0
 10
-17.0654
 20
31.8433
 30
0.0
 10
-14.5654
 20
32.2196
 30
0.0
 10
-14.5654
 20
32.2196
 30
0.0
 10
-14.5654
 20
32.2196
 30
0.0
 10
-14.5654
 20
32.2196
 30
0.0
 10
-14.5654
 20
31.4121
 30
0.0
 10
-14.5654
 20
31.4121
 30
0.0
  0
SPLINE
  5
D9
330
1F
100
AcDbEntity
  8
DEFAULT_1
 62
   250
100
AcDbSpline
210
0.0
220
0.0
230
1.0
 70
    11
 71
     3
 72
    84
 73
    80
 74
     0
 42
0.0000000001
 43
0.0000000001
 40
0.0
 40
0.0
 40
0.0
 40
0.0
 40
0.0476190476190476
 40
0.0476190476190476
 40
0.0476190476190476
 40
0.0476190476190476
 40
0.0952380952380952
 40
0.0952380952380952
 40
0.0952380952380952
 40
0.0952380952380952
 40
0.1428571428571428
 40
0.1428571428571428
 40
0.1428571428571428
 40
0.1428571428571428
 40
0.1904761904761905
 40
0.1904761904761905
 40
0.1904761904761905
 40
0.1904761904761905
 40
0.2380952380952381
 40
0.2380952380952381
 40
0.2380952380952381
 40
0.2380952380952381
 40
0.2857142857142857
 40
0.2857142857142857
 40
0.2857142857142857
 40
0.2857142857142857
 40
0.3333333333333333
 40
0.3333333333333333
 40
0.3333333333333333
 40
0.3333333333333333
 40
0.3809523809523809
 40
0.3809523809523809
 40
0.3809523809523809
 40
0.3809523809523809
 40
0.4285714285714285
 40
0.4285714285714285
 40
0.4285714285714285
 40
0.4285714285714285
 40
0.4761904761904762
 40
0.4761904761904762
 40
0.4761904761904762
 40
0.4761904761904762
 40
0.5238095238095238
 40
0.5238095238095238
 40
0.5238095238095238
 40
0.5238095238095238
 40
0.5714285714285714
 40
0.5714285714285714
 40
0.5714285714285714
 40
0.5714285714285714
 40
0.6190476190476191
 40
0.6190476190476191
 40
0.6190476190476191
 40
0.6190476190476191
 40
0.6666666666666666
 40
0.6666666666666666
 40
0.6666666666666666
 40
0.6666666666666666
 40
0.7142857142857143
 40
0.7142857142857143
 40
0.7142857142857143
 40
0.7142857142857143
 40
0.7619047619047619
 40
0.7619047619047619
 40
0.7619047619047619
 40
0.7619047619047619
 40
0.8095238095238095
 40
0.8095238095238095
 40
0.8095238095238095
 40
0.8095238095238095
 40
0.8571428571428571
 40
0.8571428571428571
 40
0.8571428571428571
 40
0.8571428571428571
 40
0.9047619047619048
 40
0.9047619047619048
 40
0.9047619047619048
 40
0.9047619047619048
 40
1.0
 40
1.0
 40
1.0
 40
1.0
 10
18.8187
 20
4.0064
 30
0.0
 10
18.8187
 20
4.0064
 30
0.0
 10
18.5678
 20
4.2467
 30
0.0
 10
18.5678
 20
4.2467
 30
0.0
 10
18.5678
 20
4.2467
 30
0.0
 10
18.5678
 20
4.2467
 30
0.0
 10
18.6882
 20
4.3789
 30
0.0
 10
18.6882
 20
4.3789
 30
0.0
 10
18.6882
 20
4.3789
 30
0.0
 10
18.6882
 20
4.3789
 30
0.0
 10
18.9524
 20
4.1274
 30
0.0
 10
18.9524
 20
4.1274
 30
0.0
 10
18.9524
 20
4.1274
 30
0.0
 10
19.0727
 20
4.2022
 30
0.0
 10
19.1775
 20
4.2517
 30
0.0
 10
19.2663
 20
4.2764
 30
0.0
 10
19.2663
 20
4.2764
 30
0.0
 10
19.3833
 20
4.309
 30
0.0
 10
19.5137
 20
4.3228
 30
0.0
 10
19.6566
 20
4.3178
 30
0.0
 10
19.6566
 20
4.3178
 30
0.0
 10
19.8634
 20
4.3106
 30
0.0
 10
20.0462
 20
4.2624
 30
0.0
 10
20.2045
 20
4.173
 30
0.0
 10
20.2045
 20
4.173
 30
0.0
 10
20.3633
 20
4.0837
 30
0.0
 10
20.4814
 20
3.9624
 30
0.0
 10
20.5589
 20
3.8086
 30
0.0
 10
20.5589
 20
3.8086
 30
0.0
 10
20.6358
 20
3.6543
 30
0.0
 10
20.6716
 20
3.4927
 30
0.0
 10
20.6657
 20
3.323
 30
0.0
 10
20.6657
 20
3.323
 30
0.0
 10
20.6612
 20
3.1961
 30
0.0
 10
20.6395
 20
3.082
 30
0.0
 10
20.6001
 20
2.9803
 30
0.0
 10
20.6001
 20
2.9803
 30
0.0
 10
20.5696
 20
2.9023
 30
0.0
 10
20.5138
 20
2.812
 30
0.0
 10
20.432
 20
2.7089
 30
0.0
 10
20.432
 20
2.7089
 30
0.0
 10
20.432
 20
2.7089
 30
0.0
 10
20.683
 20
2.4686
 30
0.0
 10
20.683
 20
2.4686
 30
0.0
 10
20.683
 20
2.4686
 30
0.0
 10
20.683
 20
2.4686
 30
0.0
 10
20.5626
 20
2.3363
 30
0.0
 10
20.5626
 20
2.3363
 30
0.0
 10
20.5626
 20
2.3363
 30
0.0
 10
20.5626
 20
2.3363
 30
0.0
 10
20.2998
 20
2.5883
 30
0.0
 10
20.2998
 20
2.5883
 30
0.0
 10
20.2998
 20
2.5883
 30
0.0
 10
20.1598
 20
2.5028
 30
0.0
 10
20.0407
 20
2.4468
 30
0.0
 10
19.9428
 20
2.4201
 30
0.0
 10
19.9428
 20
2.4201
 30
0.0
 10
19.8449
 20
2.3934
 30
0.0
 10
19.7278
 20
2.3819
 30
0.0
 10
19.5919
 20
2.3867
 30
0.0
 10
19.5919
 20
2.3867
 30
0.0
 10
19.3847
 20
2.3939
 30
0.0
 10
19.2013
 20
2.4417
 30
0.0
 10
19.042
 20
2.5301
 30
0.0
 10
19.042
 20
2.5301
 30
0.0
 10
18.8827
 20
2.6185
 30
0.0
 10
18.7641
 20
2.7384
 30
0.0
 10
18.6857
 20
2.8908
 30
0.0
 10
18.6857
 20
2.8908
 30
0.0
 10
18.6076
 20
3.0427
 30
0.0
 10
18.5716
 20
3.2102
 30
0.0
 10
18.578
 20
3.393
 30
0.0
 10
18.578
 20
3.393
 30
0.0
 10
18.5823
 20
3.5162
 30
0.0
 10
18.602
 20
3.6233
 30
0.0
 10
18.6382
 20
3.7143
 30
0.0
 10
18.6382
 20
3.7143
 30
0.0
 10
18.6738
 20
3.8053
 30
0.0
 10
18.7341
 20
3.9029
 30
0.0
 10
18.8187
 20
4.0064
 30
0.0
  0
SPLINE
  5
DA
330
1F
100
AcDbEntity
  8
DEFAULT_1
 62
   250
100
AcDbSpline
210
0.0
220
0.0
230
1.0
 70
    11
 71
     3
 72
    32
 73
    28
 74
     0
 42
0.0000000001
 43
0.0000000001
 40
0.0
 40
0.0
 40
0.0
 40
0.0
 40
0.125
 40
0.125
 40
0.125
 40
0.125
 40
0.25
 40
0.25
 40
0.25
 40
0.25
 40
0.375
 40
0.375
 40
0.375
 40
0.375
 40
0.5
 40
0.5
 40
0.5
 40
0.5
 40
0.625
 40
0.625
 40
0.625
 40
0.625
 40
0.75
 40
0.75
 40
0.75
 40
0.75
 40
1.0
 40
1.0
 40
1.0
 40
1.0
 10
18.9986
 20
3.8349
 30
0.0
 10
18.9279
 20
3.7507
 30
0.0
 10
18.8787
 20
3.6767
 30
0.0
 10
18.8516
 20
3.6132
 30
0.0
 10
18.8516
 20
3.6132
 30
0.0
 10
18.8249
 20
3.5492
 30
0.0
 10
18.8095
 20
3.4735
 30
0.0
 10
18.8065
 20
3.3864
 30
0.0
 10
18.8065
 20
3.3864
 30
0.0
 10
18.7994
 20
3.1852
 30
0.0
 10
18.8618
 20
3.0169
 30
0.0
 10
18.9935
 20
2.8806
 30
0.0
 10
18.9935
 20
2.8806
 30
0.0
 10
19.1254
 20
2.7446
 30
0.0
 10
19.3265
 20
2.6717
 30
0.0
 10
19.5978
 20
2.6622
 30
0.0
 10
19.5978
 20
2.6622
 30
0.0
 10
19.704
 20
2.6585
 30
0.0
 10
19.7989
 20
2.6655
 30
0.0
 10
19.8824
 20
2.6829
 30
0.0
 10
19.8824
 20
2.6829
 30
0.0
 10
19.9444
 20
2.6954
 30
0.0
 10
20.0212
 20
2.7232
 30
0.0
 10
20.1125
 20
2.7671
 30
0.0
 10
20.1125
 20
2.7671
 30
0.0
 10
20.1125
 20
2.7671
 30
0.0
 10
18.9986
 20
3.8349
 30
0.0
 10
18.9986
 20
3.8349
 30
0.0
  0
SPLINE
  5
DB
330
1F
100
AcDbEntity
  8
DEFAULT_1
 62
   250
100
AcDbSpline
210
0.0
220
0.0
230
1.0
 70
    11
 71
     3
 72
    28
 73
    24
 74
     0
 42
0.0000000001
 43
0.0000000001
 40
0.0
 40
0.0
 40
0.0
 40
0.0
 40
0.1428571428571428
 40
0.1428571428571428
 40
0.1428571428571428
 40
0.1428571428571428
 40
0.2857142857142857
 40
0.2857142857142857
 40
0.2857142857142857
 40
0.2857142857142857
 40
0.4285714285714285
 40
0.4285714285714285
 40
0.4285714285714285
 40
0.4285714285714285
 40
0.5714285714285714
 40
0.5714285714285714
 40
0.5714285714285714
 40
0.5714285714285714
 40
0.7142857142857143
 40
0.7142857142857143
 40
0.7142857142857143
 40
0.7142857142857143
 40
1.0
 40
1.0
 40
1.0
 40
1.0
 10
19.1446
 20
3.9427
 30
0.0
 10
19.1446
 20
3.9427
 30
0.0
 10
20.2544
 20
2.8794
 30
0.0
 10
20.2544
 20
2.8794
 30
0.0
 10
20.2544
 20
2.8794
 30
0.0
 10
20.3147
 20
2.9478
 30
0.0
 10
20.3574
 20
3.0117
 30
0.0
 10
20.3825
 20
3.0707
 30
0.0
 10
20.3825
 20
3.0707
 30
0.0
 10
20.4158
 20
3.1476
 30
0.0
 10
20.4338
 20
3.2317
 30
0.0
 10
20.4369
 20
3.3225
 30
0.0
 10
20.4369
 20
3.3225
 30
0.0
 10
20.4439
 20
3.5227
 30
0.0
 10
20.3792
 20
3.6902
 30
0.0
 10
20.2423
 20
3.8258
 30
0.0
 10
20.2423
 20
3.8258
 30
0.0
 10
20.1053
 20
3.9609
 30
0.0
 10
19.9092
 20
4.0332
 30
0.0
 10
19.654
 20
4.0421
 30
0.0
 10
19.654
 20
4.0421
 30
0.0
 10
19.4632
 20
4.0488
 30
0.0
 10
19.293
 20
4.0157
 30
0.0
 10
19.1446
 20
3.9427
 30
0.0
  0
SPLINE
  5
DC
330
1F
100
AcDbEntity
  8
DEFAULT_1
 62
   250
100
AcDbSpline
210
0.0
220
0.0
230
1.0
 70
    11
 71
     3
 72
    92
 73
    88
 74
     0
 42
0.0000000001
 43
0.0000000001
 40
0.0
 40
0.0
 40
0.0
 40
0.0
 40
0.0434782608695652
 40
0.0434782608695652
 40
0.0434782608695652
 40
0.0434782608695652
 40
0.0869565217391304
 40
0.0869565217391304
 40
0.0869565217391304
 40
0.0869565217391304
 40
0.1304347826086956
 40
0.1304347826086956
 40
0.1304347826086956
 40
0.1304347826086956
 40
0.1739130434782609
 40
0.1739130434782609
 40
0.1739130434782609
 40
0.1739130434782609
 40
0.2173913043478261
 40
0.2173913043478261
 40
0.2173913043478261
 40
0.2173913043478261
 40
0.2608695652173913
 40
0.2608695652173913
 40
0.2608695652173913
 40
0.2608695652173913
 40
0.3043478260869565
 40
0.3043478260869565
 40
0.3043478260869565
 40
0.3043478260869565
 40
0.3478260869565217
 40
0.3478260869565217
 40
0.3478260869565217
 40
0.3478260869565217
 40
0.391304347826087
 40
0.391304347826087
 40
0.391304347826087
 40
0.391304347826087
 40
0.4347826086956522
 40
0.4347826086956522
 40
0.4347826086956522
 40
0.4347826086956522
 40
0.4782608695652174
 40
0.4782608695652174
 40
0.4782608695652174
 40
0.4782608695652174
 40
0.5217391304347826
 40
0.5217391304347826
 40
0.5217391304347826
 40
0.5217391304347826
 40
0.5652173913043478
 40
0.5652173913043478
 40
0.5652173913043478
 40
0.5652173913043478
 40
0.6086956521739131
 40
0.6086956521739131
 40
0.6086956521739131
 40
0.6086956521739131
 40
0.6521739130434783
 40
0.6521739130434783
 40
0.6521739130434783
 40
0.6521739130434783
 40
0.6956521739130435
 40
0.6956521739130435
 40
0.6956521739130435
 40
0.6956521739130435
 40
0.7391304347826086
 40
0.7391304347826086
 40
0.7391304347826086
 40
0.7391304347826086
 40
0.782608695652174
 40
0.782608695652174
 40
0.782608695652174
 40
0.782608695652174
 40
0.8260869565217391
 40
0.8260869565217391
 40
0.8260869565217391
 40
0.8260869565217391
 40
0.8695652173913043
 40
0.8695652173913043
 40
0.8695652173913043
 40
0.8695652173913043
 40
0.9130434782608695
 40
0.9130434782608695
 40
0.9130434782608695
 40
0.9130434782608695
 40
1.0
 40
1.0
 40
1.0
 40
1.0
 10
20.1447
 20
4.5502
 30
0.0
 10
20.1447
 20
4.5502
 30
0.0
 10
20.1317
 20
4.8114
 30
0.0
 10
20.1317
 20
4.8114
 30
0.0
 10
20.1317
 20
4.8114
 30
0.0
 10
20.2593
 20
4.8263
 30
0.0
 10
20.3558
 20
4.8676
 30
0.0
 10
20.4222
 20
4.9355
 30
0.0
 10
20.4222
 20
4.9355
 30
0.0
 10
20.4886
 20
5.0037
 30
0.0
 10
20.5236
 20
5.0872
 30
0.0
 10
20.527
 20
5.1864
 30
0.0
 10
20.527
 20
5.1864
 30
0.0
 10
20.5312
 20
5.3058
 30
0.0
 10
20.4896
 20
5.4084
 30
0.0
 10
20.4027
 20
5.4938
 30
0.0
 10
20.4027
 20
5.4938
 30
0.0
 10
20.3153
 20
5.5797
 30
0.0
 10
20.1973
 20
5.6252
 30
0.0
 10
20.0488
 20
5.6304
 30
0.0
 10
20.0488
 20
5.6304
 30
0.0
 10
19.9073
 20
5.6354
 30
0.0
 10
19.7945
 20
5.5998
 30
0.0
 10
19.71
 20
5.5232
 30
0.0
 10
19.71
 20
5.5232
 30
0.0
 10
19.6254
 20
5.4466
 30
0.0
 10
19.5809
 20
5.3442
 30
0.0
 10
19.5764
 20
5.2154
 30
0.0
 10
19.5764
 20
5.2154
 30
0.0
 10
19.5736
 20
5.1354
 30
0.0
 10
19.5893
 20
5.0629
 30
0.0
 10
19.6233
 20
4.9972
 30
0.0
 10
19.6233
 20
4.9972
 30
0.0
 10
19.6573
 20
4.9316
 30
0.0
 10
19.7025
 20
4.8796
 30
0.0
 10
19.7591
 20
4.8409
 30
0.0
 10
19.7591
 20
4.8409
 30
0.0
 10
19.7591
 20
4.8409
 30
0.0
 10
19.7209
 20
4.6092
 30
0.0
 10
19.7209
 20
4.6092
 30
0.0
 10
19.7209
 20
4.6092
 30
0.0
 10
19.7209
 20
4.6092
 30
0.0
 10
18.6907
 20
4.841
 30
0.0
 10
18.6907
 20
4.841
 30
0.0
 10
18.6907
 20
4.841
 30
0.0
 10
18.6907
 20
4.841
 30
0.0
 10
18.7257
 20
5.8451
 30
0.0
 10
18.7257
 20
5.8451
 30
0.0
 10
18.7257
 20
5.8451
 30
0.0
 10
18.7257
 20
5.8451
 30
0.0
 10
18.9627
 20
5.8368
 30
0.0
 10
18.9627
 20
5.8368
 30
0.0
 10
18.9627
 20
5.8368
 30
0.0
 10
18.9627
 20
5.8368
 30
0.0
 10
18.9345
 20
5.0311
 30
0.0
 10
18.9345
 20
5.0311
 30
0.0
 10
18.9345
 20
5.0311
 30
0.0
 10
18.9345
 20
5.0311
 30
0.0
 10
19.4732
 20
4.9032
 30
0.0
 10
19.4732
 20
4.9032
 30
0.0
 10
19.4732
 20
4.9032
 30
0.0
 10
19.3928
 20
5.0273
 30
0.0
 10
19.355
 20
5.1562
 30
0.0
 10
19.3596
 20
5.2893
 30
0.0
 10
19.3596
 20
5.2893
 30
0.0
 10
19.3658
 20
5.4656
 30
0.0
 10
19.432
 20
5.6119
 30
0.0
 10
19.5585
 20
5.729
 30
0.0
 10
19.5585
 20
5.729
 30
0.0
 10
19.6849
 20
5.8459
 30
0.0
 10
19.8441
 20
5.9011
 30
0.0
 10
20.0358
 20
5.8944
 30
0.0
 10
20.0358
 20
5.8944
 30
0.0
 10
20.2187
 20
5.888
 30
0.0
 10
20.3749
 20
5.829
 30
0.0
 10
20.5042
 20
5.7181
 30
0.0
 10
20.5042
 20
5.7181
 30
0.0
 10
20.6627
 20
5.5827
 30
0.0
 10
20.7383
 20
5.403
 30
0.0
 10
20.7305
 20
5.1793
 30
0.0
 10
20.7305
 20
5.1793
 30
0.0
 10
20.7241
 20
4.9955
 30
0.0
 10
20.6677
 20
4.8473
 30
0.0
 10
20.5607
 20
4.7348
 30
0.0
 10
20.5607
 20
4.7348
 30
0.0
 10
20.4536
 20
4.6223
 30
0.0
 10
20.315
 20
4.5608
 30
0.0
 10
20.1447
 20
4.5502
 30
0.0
  0
SPLINE
  5
DD
330
1F
100
AcDbEntity
  8
DEFAULT_1
 62
   250
100
AcDbSpline
210
0.0
220
0.0
230
1.0
 70
    11
 71
     3
 72
    52
 73
    48
 74
     0
 42
0.0000000001
 43
0.0000000001
 40
0.0
 40
0.0
 40
0.0
 40
0.0
 40
0.0769230769230769
 40
0.0769230769230769
 40
0.0769230769230769
 40
0.0769230769230769
 40
0.1538461538461539
 40
0.1538461538461539
 40
0.1538461538461539
 40
0.1538461538461539
 40
0.2307692307692308
 40
0.2307692307692308
 40
0.2307692307692308
 40
0.2307692307692308
 40
0.3076923076923077
 40
0.3076923076923077
 40
0.3076923076923077
 40
0.3076923076923077
 40
0.3846153846153846
 40
0.3846153846153846
 40
0.3846153846153846
 40
0.3846153846153846
 40
0.4615384615384616
 40
0.4615384615384616
 40
0.4615384615384616
 40
0.4615384615384616
 40
0.5384615384615384
 40
0.5384615384615384
 40
0.5384615384615384
 40
0.5384615384615384
 40
0.6153846153846154
 40
0.6153846153846154
 40
0.6153846153846154
 40
0.6153846153846154
 40
0.6923076923076923
 40
0.6923076923076923
 40
0.6923076923076923
 40
0.6923076923076923
 40
0.7692307692307693
 40
0.7692307692307693
 40
0.7692307692307693
 40
0.7692307692307693
 40
0.8461538461538461
 40
0.8461538461538461
 40
0.8461538461538461
 40
0.8461538461538461
 40
1.0
 40
1.0
 40
1.0
 40
1.0
 10
19.7328
 20
6.1352
 30
0.0
 10
19.4939
 20
6.1435
 30
0.0
 10
19.3025
 20
6.1747
 30
0.0
 10
19.159
 20
6.2291
 30
0.0
 10
19.159
 20
6.2291
 30
0.0
 10
19.015
 20
6.2831
 30
0.0
 10
18.9052
 20
6.3604
 30
0.0
 10
18.8295
 20
6.46
 30
0.0
 10
18.8295
 20
6.46
 30
0.0
 10
18.754
 20
6.5596
 30
0.0
 10
18.7187
 20
6.6827
 30
0.0
 10
18.7239
 20
6.8293
 30
0.0
 10
18.7239
 20
6.8293
 30
0.0
 10
18.7277
 20
6.9379
 30
0.0
 10
18.7531
 20
7.0321
 30
0.0
 10
18.7997
 20
7.1123
 30
0.0
 10
18.7997
 20
7.1123
 30
0.0
 10
18.8457
 20
7.1927
 30
0.0
 10
18.9111
 20
7.2577
 30
0.0
 10
18.9953
 20
7.3084
 30
0.0
 10
18.9953
 20
7.3084
 30
0.0
 10
19.0794
 20
7.3586
 30
0.0
 10
19.181
 20
7.397
 30
0.0
 10
19.2999
 20
7.4229
 30
0.0
 10
19.2999
 20
7.4229
 30
0.0
 10
19.419
 20
7.4494
 30
0.0
 10
19.5785
 20
7.4588
 30
0.0
 10
19.7787
 20
7.4519
 30
0.0
 10
19.7787
 20
7.4519
 30
0.0
 10
20.0156
 20
7.4436
 30
0.0
 10
20.2056
 20
7.4125
 30
0.0
 10
20.3496
 20
7.359
 30
0.0
 10
20.3496
 20
7.359
 30
0.0
 10
20.4936
 20
7.305
 30
0.0
 10
20.6034
 20
7.2282
 30
0.0
 10
20.6795
 20
7.1286
 30
0.0
 10
20.6795
 20
7.1286
 30
0.0
 10
20.7556
 20
7.029
 30
0.0
 10
20.7908
 20
6.9054
 30
0.0
 10
20.7856
 20
6.7573
 30
0.0
 10
20.7856
 20
6.7573
 30
0.0
 10
20.7788
 20
6.5627
 30
0.0
 10
20.7039
 20
6.4123
 30
0.0
 10
20.5604
 20
6.3063
 30
0.0
 10
20.5604
 20
6.3063
 30
0.0
 10
20.388
 20
6.1791
 30
0.0
 10
20.1116
 20
6.1219
 30
0.0
 10
19.7328
 20
6.1352
 30
0.0
  0
SPLINE
  5
DE
330
1F
100
AcDbEntity
  8
DEFAULT_1
 62
   250
100
AcDbSpline
210
0.0
220
0.0
230
1.0
 70
    11
 71
     3
 72
    36
 73
    32
 74
     0
 42
0.0000000001
 43
0.0000000001
 40
0.0
 40
0.0
 40
0.0
 40
0.0
 40
0.1111111111111111
 40
0.1111111111111111
 40
0.1111111111111111
 40
0.1111111111111111
 40
0.2222222222222222
 40
0.2222222222222222
 40
0.2222222222222222
 40
0.2222222222222222
 40
0.3333333333333333
 40
0.3333333333333333
 40
0.3333333333333333
 40
0.3333333333333333
 40
0.4444444444444444
 40
0.4444444444444444
 40
0.4444444444444444
 40
0.4444444444444444
 40
0.5555555555555556
 40
0.5555555555555556
 40
0.5555555555555556
 40
0.5555555555555556
 40
0.6666666666666666
 40
0.6666666666666666
 40
0.6666666666666666
 40
0.6666666666666666
 40
0.7777777777777778
 40
0.7777777777777778
 40
0.7777777777777778
 40
0.7777777777777778
 40
1.0
 40
1.0
 40
1.0
 40
1.0
 10
19.7417
 20
6.39
 30
0.0
 10
20.0731
 20
6.3784
 30
0.0
 10
20.2949
 20
6.4097
 30
0.0
 10
20.4075
 20
6.4834
 30
0.0
 10
20.4075
 20
6.4834
 30
0.0
 10
20.5198
 20
6.5571
 30
0.0
 10
20.5782
 20
6.6507
 30
0.0
 10
20.5821
 20
6.7644
 30
0.0
 10
20.5821
 20
6.7644
 30
0.0
 10
20.5861
 20
6.8786
 30
0.0
 10
20.534
 20
6.976
 30
0.0
 10
20.4267
 20
7.0574
 30
0.0
 10
20.4267
 20
7.0574
 30
0.0
 10
20.3193
 20
7.1388
 30
0.0
 10
20.1002
 20
7.1856
 30
0.0
 10
19.7698
 20
7.1971
 30
0.0
 10
19.7698
 20
7.1971
 30
0.0
 10
19.4374
 20
7.2087
 30
0.0
 10
19.2151
 20
7.1774
 30
0.0
 10
19.1034
 20
7.1036
 30
0.0
 10
19.1034
 20
7.1036
 30
0.0
 10
18.9911
 20
7.0299
 30
0.0
 10
18.9333
 20
6.9354
 30
0.0
 10
18.9293
 20
6.8198
 30
0.0
 10
18.9293
 20
6.8198
 30
0.0
 10
18.9253
 20
6.7056
 30
0.0
 10
18.9705
 20
6.6131
 30
0.0
 10
19.0644
 20
6.5416
 30
0.0
 10
19.0644
 20
6.5416
 30
0.0
 10
19.1842
 20
6.4523
 30
0.0
 10
19.4103
 20
6.4016
 30
0.0
 10
19.7417
 20
6.39
 30
0.0
  0
SPLINE
  5
DF
330
1F
100
AcDbEntity
  8
DEFAULT_1
 62
   250
100
AcDbSpline
210
0.0
220
0.0
230
1.0
 70
    11
 71
     3
 72
    20
 73
    16
 74
     0
 42
0.0000000001
 43
0.0000000001
 40
0.0
 40
0.0
 40
0.0
 40
0.0
 40
0.2
 40
0.2
 40
0.2
 40
0.2
 40
0.4
 40
0.4
 40
0.4
 40
0.4
 40
0.6
 40
0.6
 40
0.6
 40
0.6
 40
1.0
 40
1.0
 40
1.0
 40
1.0
 10
20.6485
 20
-2.285
 30
0.0
 10
20.6485
 20
-2.285
 30
0.0
 10
21.0883
 20
0.2012
 30
0.0
 10
21.0883
 20
0.2012
 30
0.0
 10
21.0883
 20
0.2012
 30
0.0
 10
21.0883
 20
0.2012
 30
0.0
 10
21.1666
 20
0.1985
 30
0.0
 10
21.1666
 20
0.1985
 30
0.0
 10
21.1666
 20
0.1985
 30
0.0
 10
21.1666
 20
0.1985
 30
0.0
 10
21.4554
 20
-2.3131
 30
0.0
 10
21.4554
 20
-2.3131
 30
0.0
 10
21.4554
 20
-2.3131
 30
0.0
 10
21.4554
 20
-2.3131
 30
0.0
 10
20.6485
 20
-2.285
 30
0.0
 10
20.6485
 20
-2.285
 30
0.0
  0
SPLINE
  5
E0
330
1F
100
AcDbEntity
  8
DEFAULT_1
 62
   250
100
AcDbSpline
210
0.0
220
0.0
230
1.0
 70
    11
 71
     3
 72
    20
 73
    16
 74
     0
 42
0.0000000001
 43
0.0000000001
 40
0.0
 40
0.0
 40
0.0
 40
0.0
 40
0.2
 40
0.2
 40
0.2
 40
0.2
 40
0.4
 40
0.4
 40
0.4
 40
0.4
 40
0.6
 40
0.6
 40
0.6
 40
0.6
 40
1.0
 40
1.0
 40
1.0
 40
1.0
 10
21.9193
 20
11.4773
 30
0.0
 10
21.9193
 20
11.4773
 30
0.0
 10
21.4795
 20
8.9911
 30
0.0
 10
21.4795
 20
8.9911
 30
0.0
 10
21.4795
 20
8.9911
 30
0.0
 10
21.4795
 20
8.9911
 30
0.0
 10
21.4011
 20
8.9938
 30
0.0
 10
21.4011
 20
8.9938
 30
0.0
 10
21.4011
 20
8.9938
 30
0.0
 10
21.4011
 20
8.9938
 30
0.0
 10
21.1123
 20
11.5055
 30
0.0
 10
21.1123
 20
11.5055
 30
0.0
 10
21.1123
 20
11.5055
 30
0.0
 10
21.1123
 20
11.5055
 30
0.0
 10
21.9193
 20
11.4773
 30
0.0
 10
21.9193
 20
11.4773
 30
0.0
  0
SPLINE
  5
E1
330
1F
100
AcDbEntity
  8
DEFAULT_1
 62
   250
100
AcDbSpline
210
0.0
220
0.0
230
1.0
 70
    24
 71
     3
 72
     8
 73
     4
 74
     0
 42
0.0000000001
 43
0.0000000001
 40
0.0
 40
0.0
 40
0.0
 40
0.0
 40
1.0
 40
1.0
 40
1.0
 40
1.0
 10
-12.2278
 20
26.9141
 30
0.0
 10
-12.2278
 20
26.9141
 30
0.0
 10
-12.2278
 20
28.9798
 30
0.0
 10
-12.2278
 20
28.9798
 30
0.0
  0
SPLINE
  5
E2
330
1F
100
AcDbEntity
  8
DEFAULT_1
 62
   250
100
AcDbSpline
210
0.0
220
0.0
230
1.0
 70
    24
 71
     3
 72
     8
 73
     4
 74
     0
 42
0.0000000001
 43
0.0000000001
 40
0.0
 40
0.0
 40
0.0
 40
0.0
 40
1.0
 40
1.0
 40
1.0
 40
1.0
 10
5.4191
 20
28.9798
 30
0.0
 10
5.4191
 20
28.9798
 30
0.0
 10
5.4191
 20
26.9141
 30
0.0
 10
5.4191
 20
26.9141
 30
0.0
  0
SPLINE
  5
E3
330
1F
100
AcDbEntity
  8
DEFAULT_1
 62
   250
100
AcDbSpline
210
0.0
220
0.0
230
1.0
 70
    24
 71
     3
 72
     8
 73
     4
 74
     0
 42
0.0000000001
 43
0.0000000001
 40
0.0
 40
0.0
 40
0.0
 40
0.0
 40
1.0
 40
1.0
 40
1.0
 40
1.0
 10
5.1894
 20
26.8526
 30
0.0
 10
5.1894
 20
26.8526
 30
0.0
 10
5.4191
 20
26.9141
 30
0.0
 10
5.4191
 20
26.9141
 30
0.0
  0
SPLINE
  5
E4
330
1F
100
AcDbEntity
  8
DEFAULT_1
 62
   250
100
AcDbSpline
210
0.0
220
0.0
230
1.0
 70
    24
 71
     3
 72
     8
 73
     4
 74
     0
 42
0.0000000001
 43
0.0000000001
 40
0.0
 40
0.0
 40
0.0
 40
0.0
 40
1.0
 40
1.0
 40
1.0
 40
1.0
 10
5.4191
 20
26.3656
 30
0.0
 10
5.4191
 20
26.3656
 30
0.0
 10
5.4191
 20
26.2334
 30
0.0
 10
5.4191
 20
26.2334
 30
0.0
  0
SPLINE
  5
E5
330
1F
100
AcDbEntity
  8
DEFAULT_1
 62
   250
100
AcDbSpline
210
0.0
220
0.0
230
1.0
 70
    24
 71
     3
 72
     8
 73
     4
 74
     0
 42
0.0000000001
 43
0.0000000001
 40
0.0
 40
0.0
 40
0.0
 40
0.0
 40
1.0
 40
1.0
 40
1.0
 40
1.0
 10
5.4191
 20
25.6849
 30
0.0
 10
5.4191
 20
25.6849
 30
0.0
 10
5.4191
 20
25.5528
 30
0.0
 10
5.4191
 20
25.5528
 30
0.0
  0
SPLINE
  5
E6
330
1F
100
AcDbEntity
  8
DEFAULT_1
 62
   250
100
AcDbSpline
210
0.0
220
0.0
230
1.0
 70
    24
 71
     3
 72
     8
 73
     4
 74
     0
 42
0.0000000001
 43
0.0000000001
 40
0.0
 40
0.0
 40
0.0
 40
0.0
 40
1.0
 40
1.0
 40
1.0
 40
1.0
 10
5.4191
 20
25.0042
 30
0.0
 10
5.4191
 20
25.0042
 30
0.0
 10
5.4191
 20
24.8721
 30
0.0
 10
5.4191
 20
24.8721
 30
0.0
  0
SPLINE
  5
E7
330
1F
100
AcDbEntity
  8
DEFAULT_1
 62
   250
100
AcDbSpline
210
0.0
220
0.0
230
1.0
 70
    24
 71
     3
 72
     8
 73
     4
 74
     0
 42
0.0000000001
 43
0.0000000001
 40
0.0
 40
0.0
 40
0.0
 40
0.0
 40
1.0
 40
1.0
 40
1.0
 40
1.0
 10
5.4191
 20
24.3235
 30
0.0
 10
5.4191
 20
24.3235
 30
0.0
 10
5.4191
 20
24.1914
 30
0.0
 10
5.4191
 20
24.1914
 30
0.0
  0
SPLINE
  5
E8
330
1F
100
AcDbEntity
  8
DEFAULT_1
 62
   250
100
AcDbSpline
210
0.0
220
0.0
230
1.0
 70
    24
 71
     3
 72
     8
 73
     4
 74
     0
 42
0.0000000001
 43
0.0000000001
 40
0.0
 40
0.0
 40
0.0
 40
0.0
 40
1.0
 40
1.0
 40
1.0
 40
1.0
 10
5.4191
 20
23.6428
 30
0.0
 10
5.4191
 20
23.6428
 30
0.0
 10
5.4191
 20
23.5106
 30
0.0
 10
5.4191
 20
23.5106
 30
0.0
  0
SPLINE
  5
E9
330
1F
100
AcDbEntity
  8
DEFAULT_1
 62
   250
100
AcDbSpline
210
0.0
220
0.0
230
1.0
 70
    24
 71
     3
 72
     8
 73
     4
 74
     0
 42
0.0000000001
 43
0.0000000001
 40
0.0
 40
0.0
 40
0.0
 40
0.0
 40
1.0
 40
1.0
 40
1.0
 40
1.0
 10
5.4191
 20
22.83
 30
0.0
 10
5.4191
 20
22.83
 30
0.0
 10
5.4191
 20
22.9622
 30
0.0
 10
5.4191
 20
22.9622
 30
0.0
  0
SPLINE
  5
EA
330
1F
100
AcDbEntity
  8
DEFAULT_1
 62
   250
100
AcDbSpline
210
0.0
220
0.0
230
1.0
 70
    24
 71
     3
 72
     8
 73
     4
 74
     0
 42
0.0000000001
 43
0.0000000001
 40
0.0
 40
0.0
 40
0.0
 40
0.0
 40
1.0
 40
1.0
 40
1.0
 40
1.0
 10
5.1894
 20
23.0236
 30
0.0
 10
5.1894
 20
23.0236
 30
0.0
 10
5.4191
 20
22.9622
 30
0.0
 10
5.4191
 20
22.9622
 30
0.0
  0
SPLINE
  5
EB
330
1F
100
AcDbEntity
  8
DEFAULT_1
 62
   250
100
AcDbSpline
210
0.0
220
0.0
230
1.0
 70
    24
 71
     3
 72
     8
 73
     4
 74
     0
 42
0.0000000001
 43
0.0000000001
 40
0.0
 40
0.0
 40
0.0
 40
0.0
 40
1.0
 40
1.0
 40
1.0
 40
1.0
 10
5.1894
 20
22.343
 30
0.0
 10
5.1894
 20
22.343
 30
0.0
 10
5.4191
 20
22.2814
 30
0.0
 10
5.4191
 20
22.2814
 30
0.0
  0
SPLINE
  5
EC
330
1F
100
AcDbEntity
  8
DEFAULT_1
 62
   250
100
AcDbSpline
210
0.0
220
0.0
230
1.0
 70
    24
 71
     3
 72
     8
 73
     4
 74
     0
 42
0.0000000001
 43
0.0000000001
 40
0.0
 40
0.0
 40
0.0
 40
0.0
 40
1.0
 40
1.0
 40
1.0
 40
1.0
 10
5.1894
 20
21.6623
 30
0.0
 10
5.1894
 20
21.6623
 30
0.0
 10
5.4191
 20
21.6007
 30
0.0
 10
5.4191
 20
21.6007
 30
0.0
  0
SPLINE
  5
ED
330
1F
100
AcDbEntity
  8
DEFAULT_1
 62
   250
100
AcDbSpline
210
0.0
220
0.0
230
1.0
 70
    24
 71
     3
 72
     8
 73
     4
 74
     0
 42
0.0000000001
 43
0.0000000001
 40
0.0
 40
0.0
 40
0.0
 40
0.0
 40
1.0
 40
1.0
 40
1.0
 40
1.0
 10
5.1894
 20
20.9816
 30
0.0
 10
5.1894
 20
20.9816
 30
0.0
 10
5.4191
 20
20.9201
 30
0.0
 10
5.4191
 20
20.9201
 30
0.0
  0
SPLINE
  5
EE
330
1F
100
AcDbEntity
  8
DEFAULT_1
 62
   250
100
AcDbSpline
210
0.0
220
0.0
230
1.0
 70
    24
 71
     3
 72
     8
 73
     4
 74
     0
 42
0.0000000001
 43
0.0000000001
 40
0.0
 40
0.0
 40
0.0
 40
0.0
 40
1.0
 40
1.0
 40
1.0
 40
1.0
 10
5.1894
 20
20.3009
 30
0.0
 10
5.1894
 20
20.3009
 30
0.0
 10
5.4191
 20
20.2393
 30
0.0
 10
5.4191
 20
20.2393
 30
0.0
  0
SPLINE
  5
EF
330
1F
100
AcDbEntity
  8
DEFAULT_1
 62
   250
100
AcDbSpline
210
0.0
220
0.0
230
1.0
 70
    24
 71
     3
 72
     8
 73
     4
 74
     0
 42
0.0000000001
 43
0.0000000001
 40
0.0
 40
0.0
 40
0.0
 40
0.0
 40
1.0
 40
1.0
 40
1.0
 40
1.0
 10
5.1894
 20
19.6202
 30
0.0
 10
5.1894
 20
19.6202
 30
0.0
 10
5.4191
 20
19.5587
 30
0.0
 10
5.4191
 20
19.5587
 30
0.0
  0
SPLINE
  5
F0
330
1F
100
AcDbEntity
  8
DEFAULT_1
 62
   250
100
AcDbSpline
210
0.0
220
0.0
230
1.0
 70
    24
 71
     3
 72
     8
 73
     4
 74
     0
 42
0.0000000001
 43
0.0000000001
 40
0.0
 40
0.0
 40
0.0
 40
0.0
 40
1.0
 40
1.0
 40
1.0
 40
1.0
 10
5.1894
 20
18.9396
 30
0.0
 10
5.1894
 20
18.9396
 30
0.0
 10
5.4191
 20
18.8779
 30
0.0
 10
5.4191
 20
18.8779
 30
0.0
  0
SPLINE
  5
F1
330
1F
100
AcDbEntity
  8
DEFAULT_1
 62
   250
100
AcDbSpline
210
0.0
220
0.0
230
1.0
 70
    24
 71
     3
 72
     8
 73
     4
 74
     0
 42
0.0000000001
 43
0.0000000001
 40
0.0
 40
0.0
 40
0.0
 40
0.0
 40
1.0
 40
1.0
 40
1.0
 40
1.0
 10
5.1894
 20
18.2588
 30
0.0
 10
5.1894
 20
18.2588
 30
0.0
 10
5.4191
 20
18.1973
 30
0.0
 10
5.4191
 20
18.1973
 30
0.0
  0
SPLINE
  5
F2
330
1F
100
AcDbEntity
  8
DEFAULT_1
 62
   250
100
AcDbSpline
210
0.0
220
0.0
230
1.0
 70
    24
 71
     3
 72
     8
 73
     4
 74
     0
 42
0.0000000001
 43
0.0000000001
 40
0.0
 40
0.0
 40
0.0
 40
0.0
 40
1.0
 40
1.0
 40
1.0
 40
1.0
 10
5.1894
 20
17.5781
 30
0.0
 10
5.1894
 20
17.5781
 30
0.0
 10
5.4191
 20
17.5165
 30
0.0
 10
5.4191
 20
17.5165
 30
0.0
  0
SPLINE
  5
F3
330
1F
100
AcDbEntity
  8
DEFAULT_1
 62
   250
100
AcDbSpline
210
0.0
220
0.0
230
1.0
 70
    24
 71
     3
 72
     8
 73
     4
 74
     0
 42
0.0000000001
 43
0.0000000001
 40
0.0
 40
0.0
 40
0.0
 40
0.0
 40
1.0
 40
1.0
 40
1.0
 40
1.0
 10
5.1894
 20
16.8974
 30
0.0
 10
5.1894
 20
16.8974
 30
0.0
 10
5.4191
 20
16.8359
 30
0.0
 10
5.4191
 20
16.8359
 30
0.0
  0
SPLINE
  5
F4
330
1F
100
AcDbEntity
  8
DEFAULT_1
 62
   250
100
AcDbSpline
210
0.0
220
0.0
230
1.0
 70
    24
 71
     3
 72
     8
 73
     4
 74
     0
 42
0.0000000001
 43
0.0000000001
 40
0.0
 40
0.0
 40
0.0
 40
0.0
 40
1.0
 40
1.0
 40
1.0
 40
1.0
 10
5.1894
 20
16.2167
 30
0.0
 10
5.1894
 20
16.2167
 30
0.0
 10
5.4191
 20
16.1552
 30
0.0
 10
5.4191
 20
16.1552
 30
0.0
  0
SPLINE
  5
F5
330
1F
100
AcDbEntity
  8
DEFAULT_1
 62
   250
100
AcDbSpline
210
0.0
220
0.0
230
1.0
 70
    24
 71
     3
 72
     8
 73
     4
 74
     0
 42
0.0000000001
 43
0.0000000001
 40
0.0
 40
0.0
 40
0.0
 40
0.0
 40
1.0
 40
1.0
 40
1.0
 40
1.0
 10
5.1894
 20
15.536
 30
0.0
 10
5.1894
 20
15.536
 30
0.0
 10
5.4191
 20
15.4744
 30
0.0
 10
5.4191
 20
15.4744
 30
0.0
  0
SPLINE
  5
F6
330
1F
100
AcDbEntity
  8
DEFAULT_1
 62
   250
100
AcDbSpline
210
0.0
220
0.0
230
1.0
 70
    24
 71
     3
 72
     8
 73
     4
 74
     0
 42
0.0000000001
 43
0.0000000001
 40
0.0
 40
0.0
 40
0.0
 40
0.0
 40
1.0
 40
1.0
 40
1.0
 40
1.0
 10
5.1894
 20
14.8553
 30
0.0
 10
5.1894
 20
14.8553
 30
0.0
 10
5.4191
 20
14.7938
 30
0.0
 10
5.4191
 20
14.7938
 30
0.0
  0
SPLINE
  5
F7
330
1F
100
AcDbEntity
  8
DEFAULT_1
 62
   250
100
AcDbSpline
210
0.0
220
0.0
230
1.0
 70
    24
 71
     3
 72
     8
 73
     4
 74
     0
 42
0.0000000001
 43
0.0000000001
 40
0.0
 40
0.0
 40
0.0
 40
0.0
 40
1.0
 40
1.0
 40
1.0
 40
1.0
 10
5.4191
 20
15.3423
 30
0.0
 10
5.4191
 20
15.3423
 30
0.0
 10
5.1894
 20
15.2807
 30
0.0
 10
5.1894
 20
15.2807
 30
0.0
  0
SPLINE
  5
F8
330
1F
100
AcDbEntity
  8
DEFAULT_1
 62
   250
100
AcDbSpline
210
0.0
220
0.0
230
1.0
 70
    24
 71
     3
 72
     8
 73
     4
 74
     0
 42
0.0000000001
 43
0.0000000001
 40
0.0
 40
0.0
 40
0.0
 40
0.0
 40
1.0
 40
1.0
 40
1.0
 40
1.0
 10
5.1894
 20
14.6001
 30
0.0
 10
5.1894
 20
14.6001
 30
0.0
 10
5.4191
 20
14.6616
 30
0.0
 10
5.4191
 20
14.6616
 30
0.0
  0
SPLINE
  5
F9
330
1F
100
AcDbEntity
  8
DEFAULT_1
 62
   250
100
AcDbSpline
210
0.0
220
0.0
230
1.0
 70
    24
 71
     3
 72
     8
 73
     4
 74
     0
 42
0.0000000001
 43
0.0000000001
 40
0.0
 40
0.0
 40
0.0
 40
0.0
 40
1.0
 40
1.0
 40
1.0
 40
1.0
 10
5.1894
 20
14.8553
 30
0.0
 10
5.1894
 20
14.8553
 30
0.0
 10
5.1894
 20
15.2807
 30
0.0
 10
5.1894
 20
15.2807
 30
0.0
  0
SPLINE
  5
FA
330
1F
100
AcDbEntity
  8
DEFAULT_1
 62
   250
100
AcDbSpline
210
0.0
220
0.0
230
1.0
 70
    24
 71
     3
 72
     8
 73
     4
 74
     0
 42
0.0000000001
 43
0.0000000001
 40
0.0
 40
0.0
 40
0.0
 40
0.0
 40
1.0
 40
1.0
 40
1.0
 40
1.0
 10
5.1894
 20
15.9614
 30
0.0
 10
5.1894
 20
15.9614
 30
0.0
 10
5.1894
 20
15.536
 30
0.0
 10
5.1894
 20
15.536
 30
0.0
  0
SPLINE
  5
FB
330
1F
100
AcDbEntity
  8
DEFAULT_1
 62
   250
100
AcDbSpline
210
0.0
220
0.0
230
1.0
 70
    24
 71
     3
 72
     8
 73
     4
 74
     0
 42
0.0000000001
 43
0.0000000001
 40
0.0
 40
0.0
 40
0.0
 40
0.0
 40
1.0
 40
1.0
 40
1.0
 40
1.0
 10
5.4191
 20
15.3423
 30
0.0
 10
5.4191
 20
15.3423
 30
0.0
 10
5.4191
 20
15.4744
 30
0.0
 10
5.4191
 20
15.4744
 30
0.0
  0
SPLINE
  5
FC
330
1F
100
AcDbEntity
  8
DEFAULT_1
 62
   250
100
AcDbSpline
210
0.0
220
0.0
230
1.0
 70
    24
 71
     3
 72
     8
 73
     4
 74
     0
 42
0.0000000001
 43
0.0000000001
 40
0.0
 40
0.0
 40
0.0
 40
0.0
 40
1.0
 40
1.0
 40
1.0
 40
1.0
 10
5.4191
 20
16.1552
 30
0.0
 10
5.4191
 20
16.1552
 30
0.0
 10
5.4191
 20
16.0231
 30
0.0
 10
5.4191
 20
16.0231
 30
0.0
  0
SPLINE
  5
FD
330
1F
100
AcDbEntity
  8
DEFAULT_1
 62
   250
100
AcDbSpline
210
0.0
220
0.0
230
1.0
 70
    24
 71
     3
 72
     8
 73
     4
 74
     0
 42
0.0000000001
 43
0.0000000001
 40
0.0
 40
0.0
 40
0.0
 40
0.0
 40
1.0
 40
1.0
 40
1.0
 40
1.0
 10
5.1894
 20
15.9614
 30
0.0
 10
5.1894
 20
15.9614
 30
0.0
 10
5.4191
 20
16.0231
 30
0.0
 10
5.4191
 20
16.0231
 30
0.0
  0
SPLINE
  5
FE
330
1F
100
AcDbEntity
  8
DEFAULT_1
 62
   250
100
AcDbSpline
210
0.0
220
0.0
230
1.0
 70
    24
 71
     3
 72
     8
 73
     4
 74
     0
 42
0.0000000001
 43
0.0000000001
 40
0.0
 40
0.0
 40
0.0
 40
0.0
 40
1.0
 40
1.0
 40
1.0
 40
1.0
 10
5.1894
 20
16.6422
 30
0.0
 10
5.1894
 20
16.6422
 30
0.0
 10
5.4191
 20
16.7037
 30
0.0
 10
5.4191
 20
16.7037
 30
0.0
  0
SPLINE
  5
FF
330
1F
100
AcDbEntity
  8
DEFAULT_1
 62
   250
100
AcDbSpline
210
0.0
220
0.0
230
1.0
 70
    24
 71
     3
 72
     8
 73
     4
 74
     0
 42
0.0000000001
 43
0.0000000001
 40
0.0
 40
0.0
 40
0.0
 40
0.0
 40
1.0
 40
1.0
 40
1.0
 40
1.0
 10
5.1894
 20
17.3228
 30
0.0
 10
5.1894
 20
17.3228
 30
0.0
 10
5.4191
 20
17.3844
 30
0.0
 10
5.4191
 20
17.3844
 30
0.0
  0
SPLINE
  5
100
330
1F
100
AcDbEntity
  8
DEFAULT_1
 62
   250
100
AcDbSpline
210
0.0
220
0.0
230
1.0
 70
    24
 71
     3
 72
     8
 73
     4
 74
     0
 42
0.0000000001
 43
0.0000000001
 40
0.0
 40
0.0
 40
0.0
 40
0.0
 40
1.0
 40
1.0
 40
1.0
 40
1.0
 10
5.1894
 20
18.0036
 30
0.0
 10
5.1894
 20
18.0036
 30
0.0
 10
5.4191
 20
18.0651
 30
0.0
 10
5.4191
 20
18.0651
 30
0.0
  0
SPLINE
  5
101
330
1F
100
AcDbEntity
  8
DEFAULT_1
 62
   250
100
AcDbSpline
210
0.0
220
0.0
230
1.0
 70
    24
 71
     3
 72
     8
 73
     4
 74
     0
 42
0.0000000001
 43
0.0000000001
 40
0.0
 40
0.0
 40
0.0
 40
0.0
 40
1.0
 40
1.0
 40
1.0
 40
1.0
 10
5.1894
 20
18.6842
 30
0.0
 10
5.1894
 20
18.6842
 30
0.0
 10
5.4191
 20
18.7458
 30
0.0
 10
5.4191
 20
18.7458
 30
0.0
  0
SPLINE
  5
102
330
1F
100
AcDbEntity
  8
DEFAULT_1
 62
   250
100
AcDbSpline
210
0.0
220
0.0
230
1.0
 70
    24
 71
     3
 72
     8
 73
     4
 74
     0
 42
0.0000000001
 43
0.0000000001
 40
0.0
 40
0.0
 40
0.0
 40
0.0
 40
1.0
 40
1.0
 40
1.0
 40
1.0
 10
5.1894
 20
19.365
 30
0.0
 10
5.1894
 20
19.365
 30
0.0
 10
5.4191
 20
19.4265
 30
0.0
 10
5.4191
 20
19.4265
 30
0.0
  0
SPLINE
  5
103
330
1F
100
AcDbEntity
  8
DEFAULT_1
 62
   250
100
AcDbSpline
210
0.0
220
0.0
230
1.0
 70
    24
 71
     3
 72
     8
 73
     4
 74
     0
 42
0.0000000001
 43
0.0000000001
 40
0.0
 40
0.0
 40
0.0
 40
0.0
 40
1.0
 40
1.0
 40
1.0
 40
1.0
 10
5.1894
 20
20.0456
 30
0.0
 10
5.1894
 20
20.0456
 30
0.0
 10
5.4191
 20
20.1072
 30
0.0
 10
5.4191
 20
20.1072
 30
0.0
  0
SPLINE
  5
104
330
1F
100
AcDbEntity
  8
DEFAULT_1
 62
   250
100
AcDbSpline
210
0.0
220
0.0
230
1.0
 70
    24
 71
     3
 72
     8
 73
     4
 74
     0
 42
0.0000000001
 43
0.0000000001
 40
0.0
 40
0.0
 40
0.0
 40
0.0
 40
1.0
 40
1.0
 40
1.0
 40
1.0
 10
5.1894
 20
20.7263
 30
0.0
 10
5.1894
 20
20.7263
 30
0.0
 10
5.4191
 20
20.7879
 30
0.0
 10
5.4191
 20
20.7879
 30
0.0
  0
SPLINE
  5
105
330
1F
100
AcDbEntity
  8
DEFAULT_1
 62
   250
100
AcDbSpline
210
0.0
220
0.0
230
1.0
 70
    24
 71
     3
 72
     8
 73
     4
 74
     0
 42
0.0000000001
 43
0.0000000001
 40
0.0
 40
0.0
 40
0.0
 40
0.0
 40
1.0
 40
1.0
 40
1.0
 40
1.0
 10
5.1894
 20
21.407
 30
0.0
 10
5.1894
 20
21.407
 30
0.0
 10
5.4191
 20
21.4685
 30
0.0
 10
5.4191
 20
21.4685
 30
0.0
  0
SPLINE
  5
106
330
1F
100
AcDbEntity
  8
DEFAULT_1
 62
   250
100
AcDbSpline
210
0.0
220
0.0
230
1.0
 70
    24
 71
     3
 72
     8
 73
     4
 74
     0
 42
0.0000000001
 43
0.0000000001
 40
0.0
 40
0.0
 40
0.0
 40
0.0
 40
1.0
 40
1.0
 40
1.0
 40
1.0
 10
5.1894
 20
22.0877
 30
0.0
 10
5.1894
 20
22.0877
 30
0.0
 10
5.4191
 20
22.1493
 30
0.0
 10
5.4191
 20
22.1493
 30
0.0
  0
SPLINE
  5
107
330
1F
100
AcDbEntity
  8
DEFAULT_1
 62
   250
100
AcDbSpline
210
0.0
220
0.0
230
1.0
 70
    24
 71
     3
 72
     8
 73
     4
 74
     0
 42
0.0000000001
 43
0.0000000001
 40
0.0
 40
0.0
 40
0.0
 40
0.0
 40
1.0
 40
1.0
 40
1.0
 40
1.0
 10
5.1894
 20
22.7684
 30
0.0
 10
5.1894
 20
22.7684
 30
0.0
 10
5.4191
 20
22.83
 30
0.0
 10
5.4191
 20
22.83
 30
0.0
  0
SPLINE
  5
108
330
1F
100
AcDbEntity
  8
DEFAULT_1
 62
   250
100
AcDbSpline
210
0.0
220
0.0
230
1.0
 70
    24
 71
     3
 72
     8
 73
     4
 74
     0
 42
0.0000000001
 43
0.0000000001
 40
0.0
 40
0.0
 40
0.0
 40
0.0
 40
1.0
 40
1.0
 40
1.0
 40
1.0
 10
5.4191
 20
23.5106
 30
0.0
 10
5.4191
 20
23.5106
 30
0.0
 10
5.1894
 20
23.4491
 30
0.0
 10
5.1894
 20
23.4491
 30
0.0
  0
SPLINE
  5
109
330
1F
100
AcDbEntity
  8
DEFAULT_1
 62
   250
100
AcDbSpline
210
0.0
220
0.0
230
1.0
 70
    24
 71
     3
 72
     8
 73
     4
 74
     0
 42
0.0000000001
 43
0.0000000001
 40
0.0
 40
0.0
 40
0.0
 40
0.0
 40
1.0
 40
1.0
 40
1.0
 40
1.0
 10
5.1894
 20
23.0236
 30
0.0
 10
5.1894
 20
23.0236
 30
0.0
 10
5.1894
 20
23.4491
 30
0.0
 10
5.1894
 20
23.4491
 30
0.0
  0
SPLINE
  5
10A
330
1F
100
AcDbEntity
  8
DEFAULT_1
 62
   250
100
AcDbSpline
210
0.0
220
0.0
230
1.0
 70
    24
 71
     3
 72
     8
 73
     4
 74
     0
 42
0.0000000001
 43
0.0000000001
 40
0.0
 40
0.0
 40
0.0
 40
0.0
 40
1.0
 40
1.0
 40
1.0
 40
1.0
 10
5.1894
 20
24.1298
 30
0.0
 10
5.1894
 20
24.1298
 30
0.0
 10
5.1894
 20
23.7044
 30
0.0
 10
5.1894
 20
23.7044
 30
0.0
  0
SPLINE
  5
10B
330
1F
100
AcDbEntity
  8
DEFAULT_1
 62
   250
100
AcDbSpline
210
0.0
220
0.0
230
1.0
 70
    24
 71
     3
 72
     8
 73
     4
 74
     0
 42
0.0000000001
 43
0.0000000001
 40
0.0
 40
0.0
 40
0.0
 40
0.0
 40
1.0
 40
1.0
 40
1.0
 40
1.0
 10
5.4191
 20
23.6428
 30
0.0
 10
5.4191
 20
23.6428
 30
0.0
 10
5.1894
 20
23.7044
 30
0.0
 10
5.1894
 20
23.7044
 30
0.0
  0
SPLINE
  5
10C
330
1F
100
AcDbEntity
  8
DEFAULT_1
 62
   250
100
AcDbSpline
210
0.0
220
0.0
230
1.0
 70
    24
 71
     3
 72
     8
 73
     4
 74
     0
 42
0.0000000001
 43
0.0000000001
 40
0.0
 40
0.0
 40
0.0
 40
0.0
 40
1.0
 40
1.0
 40
1.0
 40
1.0
 10
5.1894
 20
24.3851
 30
0.0
 10
5.1894
 20
24.3851
 30
0.0
 10
5.4191
 20
24.3235
 30
0.0
 10
5.4191
 20
24.3235
 30
0.0
  0
SPLINE
  5
10D
330
1F
100
AcDbEntity
  8
DEFAULT_1
 62
   250
100
AcDbSpline
210
0.0
220
0.0
230
1.0
 70
    24
 71
     3
 72
     8
 73
     4
 74
     0
 42
0.0000000001
 43
0.0000000001
 40
0.0
 40
0.0
 40
0.0
 40
0.0
 40
1.0
 40
1.0
 40
1.0
 40
1.0
 10
5.1894
 20
24.1298
 30
0.0
 10
5.1894
 20
24.1298
 30
0.0
 10
5.4191
 20
24.1914
 30
0.0
 10
5.4191
 20
24.1914
 30
0.0
  0
SPLINE
  5
10E
330
1F
100
AcDbEntity
  8
DEFAULT_1
 62
   250
100
AcDbSpline
210
0.0
220
0.0
230
1.0
 70
    24
 71
     3
 72
     8
 73
     4
 74
     0
 42
0.0000000001
 43
0.0000000001
 40
0.0
 40
0.0
 40
0.0
 40
0.0
 40
1.0
 40
1.0
 40
1.0
 40
1.0
 10
5.4191
 20
24.8721
 30
0.0
 10
5.4191
 20
24.8721
 30
0.0
 10
5.1894
 20
24.8105
 30
0.0
 10
5.1894
 20
24.8105
 30
0.0
  0
SPLINE
  5
10F
330
1F
100
AcDbEntity
  8
DEFAULT_1
 62
   250
100
AcDbSpline
210
0.0
220
0.0
230
1.0
 70
    24
 71
     3
 72
     8
 73
     4
 74
     0
 42
0.0000000001
 43
0.0000000001
 40
0.0
 40
0.0
 40
0.0
 40
0.0
 40
1.0
 40
1.0
 40
1.0
 40
1.0
 10
5.1894
 20
24.3851
 30
0.0
 10
5.1894
 20
24.3851
 30
0.0
 10
5.1894
 20
24.8105
 30
0.0
 10
5.1894
 20
24.8105
 30
0.0
  0
SPLINE
  5
110
330
1F
100
AcDbEntity
  8
DEFAULT_1
 62
   250
100
AcDbSpline
210
0.0
220
0.0
230
1.0
 70
    24
 71
     3
 72
     8
 73
     4
 74
     0
 42
0.0000000001
 43
0.0000000001
 40
0.0
 40
0.0
 40
0.0
 40
0.0
 40
1.0
 40
1.0
 40
1.0
 40
1.0
 10
5.1894
 20
25.4911
 30
0.0
 10
5.1894
 20
25.4911
 30
0.0
 10
5.1894
 20
25.0657
 30
0.0
 10
5.1894
 20
25.0657
 30
0.0
  0
SPLINE
  5
111
330
1F
100
AcDbEntity
  8
DEFAULT_1
 62
   250
100
AcDbSpline
210
0.0
220
0.0
230
1.0
 70
    24
 71
     3
 72
     8
 73
     4
 74
     0
 42
0.0000000001
 43
0.0000000001
 40
0.0
 40
0.0
 40
0.0
 40
0.0
 40
1.0
 40
1.0
 40
1.0
 40
1.0
 10
5.4191
 20
25.0042
 30
0.0
 10
5.4191
 20
25.0042
 30
0.0
 10
5.1894
 20
25.0657
 30
0.0
 10
5.1894
 20
25.0657
 30
0.0
  0
SPLINE
  5
112
330
1F
100
AcDbEntity
  8
DEFAULT_1
 62
   250
100
AcDbSpline
210
0.0
220
0.0
230
1.0
 70
    24
 71
     3
 72
     8
 73
     4
 74
     0
 42
0.0000000001
 43
0.0000000001
 40
0.0
 40
0.0
 40
0.0
 40
0.0
 40
1.0
 40
1.0
 40
1.0
 40
1.0
 10
5.1894
 20
25.7464
 30
0.0
 10
5.1894
 20
25.7464
 30
0.0
 10
5.4191
 20
25.6849
 30
0.0
 10
5.4191
 20
25.6849
 30
0.0
  0
SPLINE
  5
113
330
1F
100
AcDbEntity
  8
DEFAULT_1
 62
   250
100
AcDbSpline
210
0.0
220
0.0
230
1.0
 70
    24
 71
     3
 72
     8
 73
     4
 74
     0
 42
0.0000000001
 43
0.0000000001
 40
0.0
 40
0.0
 40
0.0
 40
0.0
 40
1.0
 40
1.0
 40
1.0
 40
1.0
 10
5.1894
 20
25.4911
 30
0.0
 10
5.1894
 20
25.4911
 30
0.0
 10
5.4191
 20
25.5528
 30
0.0
 10
5.4191
 20
25.5528
 30
0.0
  0
SPLINE
  5
114
330
1F
100
AcDbEntity
  8
DEFAULT_1
 62
   250
100
AcDbSpline
210
0.0
220
0.0
230
1.0
 70
    24
 71
     3
 72
     8
 73
     4
 74
     0
 42
0.0000000001
 43
0.0000000001
 40
0.0
 40
0.0
 40
0.0
 40
0.0
 40
1.0
 40
1.0
 40
1.0
 40
1.0
 10
5.4191
 20
26.2334
 30
0.0
 10
5.4191
 20
26.2334
 30
0.0
 10
5.1894
 20
26.1719
 30
0.0
 10
5.1894
 20
26.1719
 30
0.0
  0
SPLINE
  5
115
330
1F
100
AcDbEntity
  8
DEFAULT_1
 62
   250
100
AcDbSpline
210
0.0
220
0.0
230
1.0
 70
    24
 71
     3
 72
     8
 73
     4
 74
     0
 42
0.0000000001
 43
0.0000000001
 40
0.0
 40
0.0
 40
0.0
 40
0.0
 40
1.0
 40
1.0
 40
1.0
 40
1.0
 10
5.1894
 20
25.7464
 30
0.0
 10
5.1894
 20
25.7464
 30
0.0
 10
5.1894
 20
26.1719
 30
0.0
 10
5.1894
 20
26.1719
 30
0.0
  0
SPLINE
  5
116
330
1F
100
AcDbEntity
  8
DEFAULT_1
 62
   250
100
AcDbSpline
210
0.0
220
0.0
230
1.0
 70
    24
 71
     3
 72
     8
 73
     4
 74
     0
 42
0.0000000001
 43
0.0000000001
 40
0.0
 40
0.0
 40
0.0
 40
0.0
 40
1.0
 40
1.0
 40
1.0
 40
1.0
 10
5.1894
 20
26.4272
 30
0.0
 10
5.1894
 20
26.4272
 30
0.0
 10
5.1894
 20
26.8526
 30
0.0
 10
5.1894
 20
26.8526
 30
0.0
  0
SPLINE
  5
117
330
1F
100
AcDbEntity
  8
DEFAULT_1
 62
   250
100
AcDbSpline
210
0.0
220
0.0
230
1.0
 70
    24
 71
     3
 72
     8
 73
     4
 74
     0
 42
0.0000000001
 43
0.0000000001
 40
0.0
 40
0.0
 40
0.0
 40
0.0
 40
1.0
 40
1.0
 40
1.0
 40
1.0
 10
5.1894
 20
26.4272
 30
0.0
 10
5.1894
 20
26.4272
 30
0.0
 10
5.4191
 20
26.3656
 30
0.0
 10
5.4191
 20
26.3656
 30
0.0
  0
SPLINE
  5
118
330
1F
100
AcDbEntity
  8
DEFAULT_1
 62
   250
100
AcDbSpline
210
0.0
220
0.0
230
1.0
 70
    24
 71
     3
 72
     8
 73
     4
 74
     0
 42
0.0000000001
 43
0.0000000001
 40
0.0
 40
0.0
 40
0.0
 40
0.0
 40
1.0
 40
1.0
 40
1.0
 40
1.0
 10
5.1894
 20
22.343
 30
0.0
 10
5.1894
 20
22.343
 30
0.0
 10
5.1894
 20
22.7684
 30
0.0
 10
5.1894
 20
22.7684
 30
0.0
  0
SPLINE
  5
119
330
1F
100
AcDbEntity
  8
DEFAULT_1
 62
   250
100
AcDbSpline
210
0.0
220
0.0
230
1.0
 70
    24
 71
     3
 72
     8
 73
     4
 74
     0
 42
0.0000000001
 43
0.0000000001
 40
0.0
 40
0.0
 40
0.0
 40
0.0
 40
1.0
 40
1.0
 40
1.0
 40
1.0
 10
5.4191
 20
22.2814
 30
0.0
 10
5.4191
 20
22.2814
 30
0.0
 10
5.4191
 20
22.1493
 30
0.0
 10
5.4191
 20
22.1493
 30
0.0
  0
SPLINE
  5
11A
330
1F
100
AcDbEntity
  8
DEFAULT_1
 62
   250
100
AcDbSpline
210
0.0
220
0.0
230
1.0
 70
    24
 71
     3
 72
     8
 73
     4
 74
     0
 42
0.0000000001
 43
0.0000000001
 40
0.0
 40
0.0
 40
0.0
 40
0.0
 40
1.0
 40
1.0
 40
1.0
 40
1.0
 10
5.4191
 20
21.4685
 30
0.0
 10
5.4191
 20
21.4685
 30
0.0
 10
5.4191
 20
21.6007
 30
0.0
 10
5.4191
 20
21.6007
 30
0.0
  0
SPLINE
  5
11B
330
1F
100
AcDbEntity
  8
DEFAULT_1
 62
   250
100
AcDbSpline
210
0.0
220
0.0
230
1.0
 70
    24
 71
     3
 72
     8
 73
     4
 74
     0
 42
0.0000000001
 43
0.0000000001
 40
0.0
 40
0.0
 40
0.0
 40
0.0
 40
1.0
 40
1.0
 40
1.0
 40
1.0
 10
5.1894
 20
21.6623
 30
0.0
 10
5.1894
 20
21.6623
 30
0.0
 10
5.1894
 20
22.0877
 30
0.0
 10
5.1894
 20
22.0877
 30
0.0
  0
SPLINE
  5
11C
330
1F
100
AcDbEntity
  8
DEFAULT_1
 62
   250
100
AcDbSpline
210
0.0
220
0.0
230
1.0
 70
    24
 71
     3
 72
     8
 73
     4
 74
     0
 42
0.0000000001
 43
0.0000000001
 40
0.0
 40
0.0
 40
0.0
 40
0.0
 40
1.0
 40
1.0
 40
1.0
 40
1.0
 10
5.1894
 20
20.9816
 30
0.0
 10
5.1894
 20
20.9816
 30
0.0
 10
5.1894
 20
21.407
 30
0.0
 10
5.1894
 20
21.407
 30
0.0
  0
SPLINE
  5
11D
330
1F
100
AcDbEntity
  8
DEFAULT_1
 62
   250
100
AcDbSpline
210
0.0
220
0.0
230
1.0
 70
    24
 71
     3
 72
     8
 73
     4
 74
     0
 42
0.0000000001
 43
0.0000000001
 40
0.0
 40
0.0
 40
0.0
 40
0.0
 40
1.0
 40
1.0
 40
1.0
 40
1.0
 10
5.4191
 20
20.7879
 30
0.0
 10
5.4191
 20
20.7879
 30
0.0
 10
5.4191
 20
20.9201
 30
0.0
 10
5.4191
 20
20.9201
 30
0.0
  0
SPLINE
  5
11E
330
1F
100
AcDbEntity
  8
DEFAULT_1
 62
   250
100
AcDbSpline
210
0.0
220
0.0
230
1.0
 70
    24
 71
     3
 72
     8
 73
     4
 74
     0
 42
0.0000000001
 43
0.0000000001
 40
0.0
 40
0.0
 40
0.0
 40
0.0
 40
1.0
 40
1.0
 40
1.0
 40
1.0
 10
5.1894
 20
20.3009
 30
0.0
 10
5.1894
 20
20.3009
 30
0.0
 10
5.1894
 20
20.7263
 30
0.0
 10
5.1894
 20
20.7263
 30
0.0
  0
SPLINE
  5
11F
330
1F
100
AcDbEntity
  8
DEFAULT_1
 62
   250
100
AcDbSpline
210
0.0
220
0.0
230
1.0
 70
    24
 71
     3
 72
     8
 73
     4
 74
     0
 42
0.0000000001
 43
0.0000000001
 40
0.0
 40
0.0
 40
0.0
 40
0.0
 40
1.0
 40
1.0
 40
1.0
 40
1.0
 10
5.4191
 20
20.1072
 30
0.0
 10
5.4191
 20
20.1072
 30
0.0
 10
5.4191
 20
20.2393
 30
0.0
 10
5.4191
 20
20.2393
 30
0.0
  0
SPLINE
  5
120
330
1F
100
AcDbEntity
  8
DEFAULT_1
 62
   250
100
AcDbSpline
210
0.0
220
0.0
230
1.0
 70
    24
 71
     3
 72
     8
 73
     4
 74
     0
 42
0.0000000001
 43
0.0000000001
 40
0.0
 40
0.0
 40
0.0
 40
0.0
 40
1.0
 40
1.0
 40
1.0
 40
1.0
 10
5.1894
 20
19.6202
 30
0.0
 10
5.1894
 20
19.6202
 30
0.0
 10
5.1894
 20
20.0456
 30
0.0
 10
5.1894
 20
20.0456
 30
0.0
  0
SPLINE
  5
121
330
1F
100
AcDbEntity
  8
DEFAULT_1
 62
   250
100
AcDbSpline
210
0.0
220
0.0
230
1.0
 70
    24
 71
     3
 72
     8
 73
     4
 74
     0
 42
0.0000000001
 43
0.0000000001
 40
0.0
 40
0.0
 40
0.0
 40
0.0
 40
1.0
 40
1.0
 40
1.0
 40
1.0
 10
5.4191
 20
19.4265
 30
0.0
 10
5.4191
 20
19.4265
 30
0.0
 10
5.4191
 20
19.5587
 30
0.0
 10
5.4191
 20
19.5587
 30
0.0
  0
SPLINE
  5
122
330
1F
100
AcDbEntity
  8
DEFAULT_1
 62
   250
100
AcDbSpline
210
0.0
220
0.0
230
1.0
 70
    24
 71
     3
 72
     8
 73
     4
 74
     0
 42
0.0000000001
 43
0.0000000001
 40
0.0
 40
0.0
 40
0.0
 40
0.0
 40
1.0
 40
1.0
 40
1.0
 40
1.0
 10
5.1894
 20
18.9396
 30
0.0
 10
5.1894
 20
18.9396
 30
0.0
 10
5.1894
 20
19.365
 30
0.0
 10
5.1894
 20
19.365
 30
0.0
  0
SPLINE
  5
123
330
1F
100
AcDbEntity
  8
DEFAULT_1
 62
   250
100
AcDbSpline
210
0.0
220
0.0
230
1.0
 70
    24
 71
     3
 72
     8
 73
     4
 74
     0
 42
0.0000000001
 43
0.0000000001
 40
0.0
 40
0.0
 40
0.0
 40
0.0
 40
1.0
 40
1.0
 40
1.0
 40
1.0
 10
5.4191
 20
18.7458
 30
0.0
 10
5.4191
 20
18.7458
 30
0.0
 10
5.4191
 20
18.8779
 30
0.0
 10
5.4191
 20
18.8779
 30
0.0
  0
SPLINE
  5
124
330
1F
100
AcDbEntity
  8
DEFAULT_1
 62
   250
100
AcDbSpline
210
0.0
220
0.0
230
1.0
 70
    24
 71
     3
 72
     8
 73
     4
 74
     0
 42
0.0000000001
 43
0.0000000001
 40
0.0
 40
0.0
 40
0.0
 40
0.0
 40
1.0
 40
1.0
 40
1.0
 40
1.0
 10
5.1894
 20
18.2588
 30
0.0
 10
5.1894
 20
18.2588
 30
0.0
 10
5.1894
 20
18.6842
 30
0.0
 10
5.1894
 20
18.6842
 30
0.0
  0
SPLINE
  5
125
330
1F
100
AcDbEntity
  8
DEFAULT_1
 62
   250
100
AcDbSpline
210
0.0
220
0.0
230
1.0
 70
    24
 71
     3
 72
     8
 73
     4
 74
     0
 42
0.0000000001
 43
0.0000000001
 40
0.0
 40
0.0
 40
0.0
 40
0.0
 40
1.0
 40
1.0
 40
1.0
 40
1.0
 10
5.4191
 20
18.0651
 30
0.0
 10
5.4191
 20
18.0651
 30
0.0
 10
5.4191
 20
18.1973
 30
0.0
 10
5.4191
 20
18.1973
 30
0.0
  0
SPLINE
  5
126
330
1F
100
AcDbEntity
  8
DEFAULT_1
 62
   250
100
AcDbSpline
210
0.0
220
0.0
230
1.0
 70
    24
 71
     3
 72
     8
 73
     4
 74
     0
 42
0.0000000001
 43
0.0000000001
 40
0.0
 40
0.0
 40
0.0
 40
0.0
 40
1.0
 40
1.0
 40
1.0
 40
1.0
 10
5.1894
 20
17.5781
 30
0.0
 10
5.1894
 20
17.5781
 30
0.0
 10
5.1894
 20
18.0036
 30
0.0
 10
5.1894
 20
18.0036
 30
0.0
  0
SPLINE
  5
127
330
1F
100
AcDbEntity
  8
DEFAULT_1
 62
   250
100
AcDbSpline
210
0.0
220
0.0
230
1.0
 70
    24
 71
     3
 72
     8
 73
     4
 74
     0
 42
0.0000000001
 43
0.0000000001
 40
0.0
 40
0.0
 40
0.0
 40
0.0
 40
1.0
 40
1.0
 40
1.0
 40
1.0
 10
5.4191
 20
17.3844
 30
0.0
 10
5.4191
 20
17.3844
 30
0.0
 10
5.4191
 20
17.5165
 30
0.0
 10
5.4191
 20
17.5165
 30
0.0
  0
SPLINE
  5
128
330
1F
100
AcDbEntity
  8
DEFAULT_1
 62
   250
100
AcDbSpline
210
0.0
220
0.0
230
1.0
 70
    24
 71
     3
 72
     8
 73
     4
 74
     0
 42
0.0000000001
 43
0.0000000001
 40
0.0
 40
0.0
 40
0.0
 40
0.0
 40
1.0
 40
1.0
 40
1.0
 40
1.0
 10
5.1894
 20
16.8974
 30
0.0
 10
5.1894
 20
16.8974
 30
0.0
 10
5.1894
 20
17.3228
 30
0.0
 10
5.1894
 20
17.3228
 30
0.0
  0
SPLINE
  5
129
330
1F
100
AcDbEntity
  8
DEFAULT_1
 62
   250
100
AcDbSpline
210
0.0
220
0.0
230
1.0
 70
    24
 71
     3
 72
     8
 73
     4
 74
     0
 42
0.0000000001
 43
0.0000000001
 40
0.0
 40
0.0
 40
0.0
 40
0.0
 40
1.0
 40
1.0
 40
1.0
 40
1.0
 10
5.4191
 20
16.7037
 30
0.0
 10
5.4191
 20
16.7037
 30
0.0
 10
5.4191
 20
16.8359
 30
0.0
 10
5.4191
 20
16.8359
 30
0.0
  0
SPLINE
  5
12A
330
1F
100
AcDbEntity
  8
DEFAULT_1
 62
   250
100
AcDbSpline
210
0.0
220
0.0
230
1.0
 70
    24
 71
     3
 72
     8
 73
     4
 74
     0
 42
0.0000000001
 43
0.0000000001
 40
0.0
 40
0.0
 40
0.0
 40
0.0
 40
1.0
 40
1.0
 40
1.0
 40
1.0
 10
5.1894
 20
16.2167
 30
0.0
 10
5.1894
 20
16.2167
 30
0.0
 10
5.1894
 20
16.6422
 30
0.0
 10
5.1894
 20
16.6422
 30
0.0
  0
SPLINE
  5
12B
330
1F
100
AcDbEntity
  8
DEFAULT_1
 62
   250
100
AcDbSpline
210
0.0
220
0.0
230
1.0
 70
    24
 71
     3
 72
     8
 73
     4
 74
     0
 42
0.0000000001
 43
0.0000000001
 40
0.0
 40
0.0
 40
0.0
 40
0.0
 40
1.0
 40
1.0
 40
1.0
 40
1.0
 10
5.4191
 20
14.6616
 30
0.0
 10
5.4191
 20
14.6616
 30
0.0
 10
5.4191
 20
14.7938
 30
0.0
 10
5.4191
 20
14.7938
 30
0.0
  0
SPLINE
  5
12C
330
1F
100
AcDbEntity
  8
DEFAULT_1
 62
   250
100
AcDbSpline
210
0.0
220
0.0
230
1.0
 70
    24
 71
     3
 72
     8
 73
     4
 74
     0
 42
0.0000000001
 43
0.0000000001
 40
0.0
 40
0.0
 40
0.0
 40
0.0
 40
1.0
 40
1.0
 40
1.0
 40
1.0
 10
-11.9981
 20
26.8526
 30
0.0
 10
-11.9981
 20
26.8526
 30
0.0
 10
-12.2278
 20
26.9141
 30
0.0
 10
-12.2278
 20
26.9141
 30
0.0
  0
SPLINE
  5
12D
330
1F
100
AcDbEntity
  8
DEFAULT_1
 62
   250
100
AcDbSpline
210
0.0
220
0.0
230
1.0
 70
    24
 71
     3
 72
     8
 73
     4
 74
     0
 42
0.0000000001
 43
0.0000000001
 40
0.0
 40
0.0
 40
0.0
 40
0.0
 40
1.0
 40
1.0
 40
1.0
 40
1.0
 10
-12.2278
 20
26.2334
 30
0.0
 10
-12.2278
 20
26.2334
 30
0.0
 10
-12.2278
 20
26.3656
 30
0.0
 10
-12.2278
 20
26.3656
 30
0.0
  0
SPLINE
  5
12E
330
1F
100
AcDbEntity
  8
DEFAULT_1
 62
   250
100
AcDbSpline
210
0.0
220
0.0
230
1.0
 70
    24
 71
     3
 72
     8
 73
     4
 74
     0
 42
0.0000000001
 43
0.0000000001
 40
0.0
 40
0.0
 40
0.0
 40
0.0
 40
1.0
 40
1.0
 40
1.0
 40
1.0
 10
-11.9981
 20
26.8526
 30
0.0
 10
-11.9981
 20
26.8526
 30
0.0
 10
-11.9981
 20
26.4272
 30
0.0
 10
-11.9981
 20
26.4272
 30
0.0
  0
SPLINE
  5
12F
330
1F
100
AcDbEntity
  8
DEFAULT_1
 62
   250
100
AcDbSpline
210
0.0
220
0.0
230
1.0
 70
    24
 71
     3
 72
     8
 73
     4
 74
     0
 42
0.0000000001
 43
0.0000000001
 40
0.0
 40
0.0
 40
0.0
 40
0.0
 40
1.0
 40
1.0
 40
1.0
 40
1.0
 10
-11.9981
 20
25.7464
 30
0.0
 10
-11.9981
 20
25.7464
 30
0.0
 10
-11.9981
 20
26.1719
 30
0.0
 10
-11.9981
 20
26.1719
 30
0.0
  0
SPLINE
  5
130
330
1F
100
AcDbEntity
  8
DEFAULT_1
 62
   250
100
AcDbSpline
210
0.0
220
0.0
230
1.0
 70
    24
 71
     3
 72
     8
 73
     4
 74
     0
 42
0.0000000001
 43
0.0000000001
 40
0.0
 40
0.0
 40
0.0
 40
0.0
 40
1.0
 40
1.0
 40
1.0
 40
1.0
 10
-12.2278
 20
26.3656
 30
0.0
 10
-12.2278
 20
26.3656
 30
0.0
 10
-11.9981
 20
26.4272
 30
0.0
 10
-11.9981
 20
26.4272
 30
0.0
  0
SPLINE
  5
131
330
1F
100
AcDbEntity
  8
DEFAULT_1
 62
   250
100
AcDbSpline
210
0.0
220
0.0
230
1.0
 70
    24
 71
     3
 72
     8
 73
     4
 74
     0
 42
0.0000000001
 43
0.0000000001
 40
0.0
 40
0.0
 40
0.0
 40
0.0
 40
1.0
 40
1.0
 40
1.0
 40
1.0
 10
-12.2278
 20
26.2334
 30
0.0
 10
-12.2278
 20
26.2334
 30
0.0
 10
-11.9981
 20
26.1719
 30
0.0
 10
-11.9981
 20
26.1719
 30
0.0
  0
SPLINE
  5
132
330
1F
100
AcDbEntity
  8
DEFAULT_1
 62
   250
100
AcDbSpline
210
0.0
220
0.0
230
1.0
 70
    24
 71
     3
 72
     8
 73
     4
 74
     0
 42
0.0000000001
 43
0.0000000001
 40
0.0
 40
0.0
 40
0.0
 40
0.0
 40
1.0
 40
1.0
 40
1.0
 40
1.0
 10
-12.2278
 20
25.5528
 30
0.0
 10
-12.2278
 20
25.5528
 30
0.0
 10
-11.9981
 20
25.4911
 30
0.0
 10
-11.9981
 20
25.4911
 30
0.0
  0
SPLINE
  5
133
330
1F
100
AcDbEntity
  8
DEFAULT_1
 62
   250
100
AcDbSpline
210
0.0
220
0.0
230
1.0
 70
    24
 71
     3
 72
     8
 73
     4
 74
     0
 42
0.0000000001
 43
0.0000000001
 40
0.0
 40
0.0
 40
0.0
 40
0.0
 40
1.0
 40
1.0
 40
1.0
 40
1.0
 10
-12.2278
 20
24.8721
 30
0.0
 10
-12.2278
 20
24.8721
 30
0.0
 10
-11.9981
 20
24.8105
 30
0.0
 10
-11.9981
 20
24.8105
 30
0.0
  0
SPLINE
  5
134
330
1F
100
AcDbEntity
  8
DEFAULT_1
 62
   250
100
AcDbSpline
210
0.0
220
0.0
230
1.0
 70
    24
 71
     3
 72
     8
 73
     4
 74
     0
 42
0.0000000001
 43
0.0000000001
 40
0.0
 40
0.0
 40
0.0
 40
0.0
 40
1.0
 40
1.0
 40
1.0
 40
1.0
 10
-12.2278
 20
24.1914
 30
0.0
 10
-12.2278
 20
24.1914
 30
0.0
 10
-11.9981
 20
24.1298
 30
0.0
 10
-11.9981
 20
24.1298
 30
0.0
  0
SPLINE
  5
135
330
1F
100
AcDbEntity
  8
DEFAULT_1
 62
   250
100
AcDbSpline
210
0.0
220
0.0
230
1.0
 70
    24
 71
     3
 72
     8
 73
     4
 74
     0
 42
0.0000000001
 43
0.0000000001
 40
0.0
 40
0.0
 40
0.0
 40
0.0
 40
1.0
 40
1.0
 40
1.0
 40
1.0
 10
-12.2278
 20
23.5106
 30
0.0
 10
-12.2278
 20
23.5106
 30
0.0
 10
-11.9981
 20
23.4491
 30
0.0
 10
-11.9981
 20
23.4491
 30
0.0
  0
SPLINE
  5
136
330
1F
100
AcDbEntity
  8
DEFAULT_1
 62
   250
100
AcDbSpline
210
0.0
220
0.0
230
1.0
 70
    24
 71
     3
 72
     8
 73
     4
 74
     0
 42
0.0000000001
 43
0.0000000001
 40
0.0
 40
0.0
 40
0.0
 40
0.0
 40
1.0
 40
1.0
 40
1.0
 40
1.0
 10
-12.2278
 20
22.83
 30
0.0
 10
-12.2278
 20
22.83
 30
0.0
 10
-11.9981
 20
22.7684
 30
0.0
 10
-11.9981
 20
22.7684
 30
0.0
  0
SPLINE
  5
137
330
1F
100
AcDbEntity
  8
DEFAULT_1
 62
   250
100
AcDbSpline
210
0.0
220
0.0
230
1.0
 70
    24
 71
     3
 72
     8
 73
     4
 74
     0
 42
0.0000000001
 43
0.0000000001
 40
0.0
 40
0.0
 40
0.0
 40
0.0
 40
1.0
 40
1.0
 40
1.0
 40
1.0
 10
-12.2278
 20
22.1493
 30
0.0
 10
-12.2278
 20
22.1493
 30
0.0
 10
-11.9981
 20
22.0877
 30
0.0
 10
-11.9981
 20
22.0877
 30
0.0
  0
SPLINE
  5
138
330
1F
100
AcDbEntity
  8
DEFAULT_1
 62
   250
100
AcDbSpline
210
0.0
220
0.0
230
1.0
 70
    24
 71
     3
 72
     8
 73
     4
 74
     0
 42
0.0000000001
 43
0.0000000001
 40
0.0
 40
0.0
 40
0.0
 40
0.0
 40
1.0
 40
1.0
 40
1.0
 40
1.0
 10
-12.2278
 20
21.4685
 30
0.0
 10
-12.2278
 20
21.4685
 30
0.0
 10
-11.9981
 20
21.407
 30
0.0
 10
-11.9981
 20
21.407
 30
0.0
  0
SPLINE
  5
139
330
1F
100
AcDbEntity
  8
DEFAULT_1
 62
   250
100
AcDbSpline
210
0.0
220
0.0
230
1.0
 70
    24
 71
     3
 72
     8
 73
     4
 74
     0
 42
0.0000000001
 43
0.0000000001
 40
0.0
 40
0.0
 40
0.0
 40
0.0
 40
1.0
 40
1.0
 40
1.0
 40
1.0
 10
-12.2278
 20
20.7879
 30
0.0
 10
-12.2278
 20
20.7879
 30
0.0
 10
-11.9981
 20
20.7263
 30
0.0
 10
-11.9981
 20
20.7263
 30
0.0
  0
SPLINE
  5
13A
330
1F
100
AcDbEntity
  8
DEFAULT_1
 62
   250
100
AcDbSpline
210
0.0
220
0.0
230
1.0
 70
    24
 71
     3
 72
     8
 73
     4
 74
     0
 42
0.0000000001
 43
0.0000000001
 40
0.0
 40
0.0
 40
0.0
 40
0.0
 40
1.0
 40
1.0
 40
1.0
 40
1.0
 10
-12.2278
 20
20.1072
 30
0.0
 10
-12.2278
 20
20.1072
 30
0.0
 10
-11.9981
 20
20.0456
 30
0.0
 10
-11.9981
 20
20.0456
 30
0.0
  0
SPLINE
  5
13B
330
1F
100
AcDbEntity
  8
DEFAULT_1
 62
   250
100
AcDbSpline
210
0.0
220
0.0
230
1.0
 70
    24
 71
     3
 72
     8
 73
     4
 74
     0
 42
0.0000000001
 43
0.0000000001
 40
0.0
 40
0.0
 40
0.0
 40
0.0
 40
1.0
 40
1.0
 40
1.0
 40
1.0
 10
-12.2278
 20
19.4265
 30
0.0
 10
-12.2278
 20
19.4265
 30
0.0
 10
-11.9981
 20
19.365
 30
0.0
 10
-11.9981
 20
19.365
 30
0.0
  0
SPLINE
  5
13C
330
1F
100
AcDbEntity
  8
DEFAULT_1
 62
   250
100
AcDbSpline
210
0.0
220
0.0
230
1.0
 70
    24
 71
     3
 72
     8
 73
     4
 74
     0
 42
0.0000000001
 43
0.0000000001
 40
0.0
 40
0.0
 40
0.0
 40
0.0
 40
1.0
 40
1.0
 40
1.0
 40
1.0
 10
-12.2278
 20
18.7458
 30
0.0
 10
-12.2278
 20
18.7458
 30
0.0
 10
-11.9981
 20
18.6842
 30
0.0
 10
-11.9981
 20
18.6842
 30
0.0
  0
SPLINE
  5
13D
330
1F
100
AcDbEntity
  8
DEFAULT_1
 62
   250
100
AcDbSpline
210
0.0
220
0.0
230
1.0
 70
    24
 71
     3
 72
     8
 73
     4
 74
     0
 42
0.0000000001
 43
0.0000000001
 40
0.0
 40
0.0
 40
0.0
 40
0.0
 40
1.0
 40
1.0
 40
1.0
 40
1.0
 10
-12.2278
 20
18.0651
 30
0.0
 10
-12.2278
 20
18.0651
 30
0.0
 10
-11.9981
 20
18.0036
 30
0.0
 10
-11.9981
 20
18.0036
 30
0.0
  0
SPLINE
  5
13E
330
1F
100
AcDbEntity
  8
DEFAULT_1
 62
   250
100
AcDbSpline
210
0.0
220
0.0
230
1.0
 70
    24
 71
     3
 72
     8
 73
     4
 74
     0
 42
0.0000000001
 43
0.0000000001
 40
0.0
 40
0.0
 40
0.0
 40
0.0
 40
1.0
 40
1.0
 40
1.0
 40
1.0
 10
-12.2278
 20
17.3844
 30
0.0
 10
-12.2278
 20
17.3844
 30
0.0
 10
-11.9981
 20
17.3228
 30
0.0
 10
-11.9981
 20
17.3228
 30
0.0
  0
SPLINE
  5
13F
330
1F
100
AcDbEntity
  8
DEFAULT_1
 62
   250
100
AcDbSpline
210
0.0
220
0.0
230
1.0
 70
    24
 71
     3
 72
     8
 73
     4
 74
     0
 42
0.0000000001
 43
0.0000000001
 40
0.0
 40
0.0
 40
0.0
 40
0.0
 40
1.0
 40
1.0
 40
1.0
 40
1.0
 10
-12.2278
 20
16.7037
 30
0.0
 10
-12.2278
 20
16.7037
 30
0.0
 10
-11.9981
 20
16.6422
 30
0.0
 10
-11.9981
 20
16.6422
 30
0.0
  0
SPLINE
  5
140
330
1F
100
AcDbEntity
  8
DEFAULT_1
 62
   250
100
AcDbSpline
210
0.0
220
0.0
230
1.0
 70
    24
 71
     3
 72
     8
 73
     4
 74
     0
 42
0.0000000001
 43
0.0000000001
 40
0.0
 40
0.0
 40
0.0
 40
0.0
 40
1.0
 40
1.0
 40
1.0
 40
1.0
 10
-12.2278
 20
16.0231
 30
0.0
 10
-12.2278
 20
16.0231
 30
0.0
 10
-11.9981
 20
15.9614
 30
0.0
 10
-11.9981
 20
15.9614
 30
0.0
  0
SPLINE
  5
141
330
1F
100
AcDbEntity
  8
DEFAULT_1
 62
   250
100
AcDbSpline
210
0.0
220
0.0
230
1.0
 70
    24
 71
     3
 72
     8
 73
     4
 74
     0
 42
0.0000000001
 43
0.0000000001
 40
0.0
 40
0.0
 40
0.0
 40
0.0
 40
1.0
 40
1.0
 40
1.0
 40
1.0
 10
-12.2278
 20
15.3423
 30
0.0
 10
-12.2278
 20
15.3423
 30
0.0
 10
-11.9981
 20
15.2807
 30
0.0
 10
-11.9981
 20
15.2807
 30
0.0
  0
SPLINE
  5
142
330
1F
100
AcDbEntity
  8
DEFAULT_1
 62
   250
100
AcDbSpline
210
0.0
220
0.0
230
1.0
 70
    24
 71
     3
 72
     8
 73
     4
 74
     0
 42
0.0000000001
 43
0.0000000001
 40
0.0
 40
0.0
 40
0.0
 40
0.0
 40
1.0
 40
1.0
 40
1.0
 40
1.0
 10
-12.2278
 20
14.6616
 30
0.0
 10
-12.2278
 20
14.6616
 30
0.0
 10
-11.9981
 20
14.6001
 30
0.0
 10
-11.9981
 20
14.6001
 30
0.0
  0
SPLINE
  5
143
330
1F
100
AcDbEntity
  8
DEFAULT_1
 62
   250
100
AcDbSpline
210
0.0
220
0.0
230
1.0
 70
    24
 71
     3
 72
     8
 73
     4
 74
     0
 42
0.0000000001
 43
0.0000000001
 40
0.0
 40
0.0
 40
0.0
 40
0.0
 40
1.0
 40
1.0
 40
1.0
 40
1.0
 10
-11.9981
 20
14.8553
 30
0.0
 10
-11.9981
 20
14.8553
 30
0.0
 10
-12.2278
 20
14.7938
 30
0.0
 10
-12.2278
 20
14.7938
 30
0.0
  0
SPLINE
  5
144
330
1F
100
AcDbEntity
  8
DEFAULT_1
 62
   250
100
AcDbSpline
210
0.0
220
0.0
230
1.0
 70
    24
 71
     3
 72
     8
 73
     4
 74
     0
 42
0.0000000001
 43
0.0000000001
 40
0.0
 40
0.0
 40
0.0
 40
0.0
 40
1.0
 40
1.0
 40
1.0
 40
1.0
 10
-11.9981
 20
14.8553
 30
0.0
 10
-11.9981
 20
14.8553
 30
0.0
 10
-11.9981
 20
15.2807
 30
0.0
 10
-11.9981
 20
15.2807
 30
0.0
  0
SPLINE
  5
145
330
1F
100
AcDbEntity
  8
DEFAULT_1
 62
   250
100
AcDbSpline
210
0.0
220
0.0
230
1.0
 70
    24
 71
     3
 72
     8
 73
     4
 74
     0
 42
0.0000000001
 43
0.0000000001
 40
0.0
 40
0.0
 40
0.0
 40
0.0
 40
1.0
 40
1.0
 40
1.0
 40
1.0
 10
-11.9981
 20
15.9614
 30
0.0
 10
-11.9981
 20
15.9614
 30
0.0
 10
-11.9981
 20
15.536
 30
0.0
 10
-11.9981
 20
15.536
 30
0.0
  0
SPLINE
  5
146
330
1F
100
AcDbEntity
  8
DEFAULT_1
 62
   250
100
AcDbSpline
210
0.0
220
0.0
230
1.0
 70
    24
 71
     3
 72
     8
 73
     4
 74
     0
 42
0.0000000001
 43
0.0000000001
 40
0.0
 40
0.0
 40
0.0
 40
0.0
 40
1.0
 40
1.0
 40
1.0
 40
1.0
 10
-12.2278
 20
15.3423
 30
0.0
 10
-12.2278
 20
15.3423
 30
0.0
 10
-12.2278
 20
15.4744
 30
0.0
 10
-12.2278
 20
15.4744
 30
0.0
  0
SPLINE
  5
147
330
1F
100
AcDbEntity
  8
DEFAULT_1
 62
   250
100
AcDbSpline
210
0.0
220
0.0
230
1.0
 70
    24
 71
     3
 72
     8
 73
     4
 74
     0
 42
0.0000000001
 43
0.0000000001
 40
0.0
 40
0.0
 40
0.0
 40
0.0
 40
1.0
 40
1.0
 40
1.0
 40
1.0
 10
-12.2278
 20
16.1552
 30
0.0
 10
-12.2278
 20
16.1552
 30
0.0
 10
-12.2278
 20
16.0231
 30
0.0
 10
-12.2278
 20
16.0231
 30
0.0
  0
SPLINE
  5
148
330
1F
100
AcDbEntity
  8
DEFAULT_1
 62
   250
100
AcDbSpline
210
0.0
220
0.0
230
1.0
 70
    24
 71
     3
 72
     8
 73
     4
 74
     0
 42
0.0000000001
 43
0.0000000001
 40
0.0
 40
0.0
 40
0.0
 40
0.0
 40
1.0
 40
1.0
 40
1.0
 40
1.0
 10
-11.9981
 20
15.536
 30
0.0
 10
-11.9981
 20
15.536
 30
0.0
 10
-12.2278
 20
15.4744
 30
0.0
 10
-12.2278
 20
15.4744
 30
0.0
  0
SPLINE
  5
149
330
1F
100
AcDbEntity
  8
DEFAULT_1
 62
   250
100
AcDbSpline
210
0.0
220
0.0
230
1.0
 70
    24
 71
     3
 72
     8
 73
     4
 74
     0
 42
0.0000000001
 43
0.0000000001
 40
0.0
 40
0.0
 40
0.0
 40
0.0
 40
1.0
 40
1.0
 40
1.0
 40
1.0
 10
-11.9981
 20
16.2167
 30
0.0
 10
-11.9981
 20
16.2167
 30
0.0
 10
-12.2278
 20
16.1552
 30
0.0
 10
-12.2278
 20
16.1552
 30
0.0
  0
SPLINE
  5
14A
330
1F
100
AcDbEntity
  8
DEFAULT_1
 62
   250
100
AcDbSpline
210
0.0
220
0.0
230
1.0
 70
    24
 71
     3
 72
     8
 73
     4
 74
     0
 42
0.0000000001
 43
0.0000000001
 40
0.0
 40
0.0
 40
0.0
 40
0.0
 40
1.0
 40
1.0
 40
1.0
 40
1.0
 10
-11.9981
 20
16.2167
 30
0.0
 10
-11.9981
 20
16.2167
 30
0.0
 10
-11.9981
 20
16.6422
 30
0.0
 10
-11.9981
 20
16.6422
 30
0.0
  0
SPLINE
  5
14B
330
1F
100
AcDbEntity
  8
DEFAULT_1
 62
   250
100
AcDbSpline
210
0.0
220
0.0
230
1.0
 70
    24
 71
     3
 72
     8
 73
     4
 74
     0
 42
0.0000000001
 43
0.0000000001
 40
0.0
 40
0.0
 40
0.0
 40
0.0
 40
1.0
 40
1.0
 40
1.0
 40
1.0
 10
-11.9981
 20
17.3228
 30
0.0
 10
-11.9981
 20
17.3228
 30
0.0
 10
-11.9981
 20
16.8974
 30
0.0
 10
-11.9981
 20
16.8974
 30
0.0
  0
SPLINE
  5
14C
330
1F
100
AcDbEntity
  8
DEFAULT_1
 62
   250
100
AcDbSpline
210
0.0
220
0.0
230
1.0
 70
    24
 71
     3
 72
     8
 73
     4
 74
     0
 42
0.0000000001
 43
0.0000000001
 40
0.0
 40
0.0
 40
0.0
 40
0.0
 40
1.0
 40
1.0
 40
1.0
 40
1.0
 10
-12.2278
 20
16.8359
 30
0.0
 10
-12.2278
 20
16.8359
 30
0.0
 10
-12.2278
 20
16.7037
 30
0.0
 10
-12.2278
 20
16.7037
 30
0.0
  0
SPLINE
  5
14D
330
1F
100
AcDbEntity
  8
DEFAULT_1
 62
   250
100
AcDbSpline
210
0.0
220
0.0
230
1.0
 70
    24
 71
     3
 72
     8
 73
     4
 74
     0
 42
0.0000000001
 43
0.0000000001
 40
0.0
 40
0.0
 40
0.0
 40
0.0
 40
1.0
 40
1.0
 40
1.0
 40
1.0
 10
-12.2278
 20
16.8359
 30
0.0
 10
-12.2278
 20
16.8359
 30
0.0
 10
-11.9981
 20
16.8974
 30
0.0
 10
-11.9981
 20
16.8974
 30
0.0
  0
SPLINE
  5
14E
330
1F
100
AcDbEntity
  8
DEFAULT_1
 62
   250
100
AcDbSpline
210
0.0
220
0.0
230
1.0
 70
    24
 71
     3
 72
     8
 73
     4
 74
     0
 42
0.0000000001
 43
0.0000000001
 40
0.0
 40
0.0
 40
0.0
 40
0.0
 40
1.0
 40
1.0
 40
1.0
 40
1.0
 10
-12.2278
 20
17.5165
 30
0.0
 10
-12.2278
 20
17.5165
 30
0.0
 10
-11.9981
 20
17.5781
 30
0.0
 10
-11.9981
 20
17.5781
 30
0.0
  0
SPLINE
  5
14F
330
1F
100
AcDbEntity
  8
DEFAULT_1
 62
   250
100
AcDbSpline
210
0.0
220
0.0
230
1.0
 70
    24
 71
     3
 72
     8
 73
     4
 74
     0
 42
0.0000000001
 43
0.0000000001
 40
0.0
 40
0.0
 40
0.0
 40
0.0
 40
1.0
 40
1.0
 40
1.0
 40
1.0
 10
-12.2278
 20
18.1973
 30
0.0
 10
-12.2278
 20
18.1973
 30
0.0
 10
-11.9981
 20
18.2588
 30
0.0
 10
-11.9981
 20
18.2588
 30
0.0
  0
SPLINE
  5
150
330
1F
100
AcDbEntity
  8
DEFAULT_1
 62
   250
100
AcDbSpline
210
0.0
220
0.0
230
1.0
 70
    24
 71
     3
 72
     8
 73
     4
 74
     0
 42
0.0000000001
 43
0.0000000001
 40
0.0
 40
0.0
 40
0.0
 40
0.0
 40
1.0
 40
1.0
 40
1.0
 40
1.0
 10
-12.2278
 20
18.8779
 30
0.0
 10
-12.2278
 20
18.8779
 30
0.0
 10
-11.9981
 20
18.9396
 30
0.0
 10
-11.9981
 20
18.9396
 30
0.0
  0
SPLINE
  5
151
330
1F
100
AcDbEntity
  8
DEFAULT_1
 62
   250
100
AcDbSpline
210
0.0
220
0.0
230
1.0
 70
    24
 71
     3
 72
     8
 73
     4
 74
     0
 42
0.0000000001
 43
0.0000000001
 40
0.0
 40
0.0
 40
0.0
 40
0.0
 40
1.0
 40
1.0
 40
1.0
 40
1.0
 10
-12.2278
 20
19.5587
 30
0.0
 10
-12.2278
 20
19.5587
 30
0.0
 10
-11.9981
 20
19.6202
 30
0.0
 10
-11.9981
 20
19.6202
 30
0.0
  0
SPLINE
  5
152
330
1F
100
AcDbEntity
  8
DEFAULT_1
 62
   250
100
AcDbSpline
210
0.0
220
0.0
230
1.0
 70
    24
 71
     3
 72
     8
 73
     4
 74
     0
 42
0.0000000001
 43
0.0000000001
 40
0.0
 40
0.0
 40
0.0
 40
0.0
 40
1.0
 40
1.0
 40
1.0
 40
1.0
 10
-12.2278
 20
20.2393
 30
0.0
 10
-12.2278
 20
20.2393
 30
0.0
 10
-11.9981
 20
20.3009
 30
0.0
 10
-11.9981
 20
20.3009
 30
0.0
  0
SPLINE
  5
153
330
1F
100
AcDbEntity
  8
DEFAULT_1
 62
   250
100
AcDbSpline
210
0.0
220
0.0
230
1.0
 70
    24
 71
     3
 72
     8
 73
     4
 74
     0
 42
0.0000000001
 43
0.0000000001
 40
0.0
 40
0.0
 40
0.0
 40
0.0
 40
1.0
 40
1.0
 40
1.0
 40
1.0
 10
-12.2278
 20
20.9201
 30
0.0
 10
-12.2278
 20
20.9201
 30
0.0
 10
-11.9981
 20
20.9816
 30
0.0
 10
-11.9981
 20
20.9816
 30
0.0
  0
SPLINE
  5
154
330
1F
100
AcDbEntity
  8
DEFAULT_1
 62
   250
100
AcDbSpline
210
0.0
220
0.0
230
1.0
 70
    24
 71
     3
 72
     8
 73
     4
 74
     0
 42
0.0000000001
 43
0.0000000001
 40
0.0
 40
0.0
 40
0.0
 40
0.0
 40
1.0
 40
1.0
 40
1.0
 40
1.0
 10
-12.2278
 20
21.6007
 30
0.0
 10
-12.2278
 20
21.6007
 30
0.0
 10
-11.9981
 20
21.6623
 30
0.0
 10
-11.9981
 20
21.6623
 30
0.0
  0
SPLINE
  5
155
330
1F
100
AcDbEntity
  8
DEFAULT_1
 62
   250
100
AcDbSpline
210
0.0
220
0.0
230
1.0
 70
    24
 71
     3
 72
     8
 73
     4
 74
     0
 42
0.0000000001
 43
0.0000000001
 40
0.0
 40
0.0
 40
0.0
 40
0.0
 40
1.0
 40
1.0
 40
1.0
 40
1.0
 10
-12.2278
 20
22.2814
 30
0.0
 10
-12.2278
 20
22.2814
 30
0.0
 10
-11.9981
 20
22.343
 30
0.0
 10
-11.9981
 20
22.343
 30
0.0
  0
SPLINE
  5
156
330
1F
100
AcDbEntity
  8
DEFAULT_1
 62
   250
100
AcDbSpline
210
0.0
220
0.0
230
1.0
 70
    24
 71
     3
 72
     8
 73
     4
 74
     0
 42
0.0000000001
 43
0.0000000001
 40
0.0
 40
0.0
 40
0.0
 40
0.0
 40
1.0
 40
1.0
 40
1.0
 40
1.0
 10
-12.2278
 20
22.9622
 30
0.0
 10
-12.2278
 20
22.9622
 30
0.0
 10
-11.9981
 20
23.0236
 30
0.0
 10
-11.9981
 20
23.0236
 30
0.0
  0
SPLINE
  5
157
330
1F
100
AcDbEntity
  8
DEFAULT_1
 62
   250
100
AcDbSpline
210
0.0
220
0.0
230
1.0
 70
    24
 71
     3
 72
     8
 73
     4
 74
     0
 42
0.0000000001
 43
0.0000000001
 40
0.0
 40
0.0
 40
0.0
 40
0.0
 40
1.0
 40
1.0
 40
1.0
 40
1.0
 10
-12.2278
 20
23.6428
 30
0.0
 10
-12.2278
 20
23.6428
 30
0.0
 10
-11.9981
 20
23.7044
 30
0.0
 10
-11.9981
 20
23.7044
 30
0.0
  0
SPLINE
  5
158
330
1F
100
AcDbEntity
  8
DEFAULT_1
 62
   250
100
AcDbSpline
210
0.0
220
0.0
230
1.0
 70
    24
 71
     3
 72
     8
 73
     4
 74
     0
 42
0.0000000001
 43
0.0000000001
 40
0.0
 40
0.0
 40
0.0
 40
0.0
 40
1.0
 40
1.0
 40
1.0
 40
1.0
 10
-12.2278
 20
24.3235
 30
0.0
 10
-12.2278
 20
24.3235
 30
0.0
 10
-11.9981
 20
24.3851
 30
0.0
 10
-11.9981
 20
24.3851
 30
0.0
  0
SPLINE
  5
159
330
1F
100
AcDbEntity
  8
DEFAULT_1
 62
   250
100
AcDbSpline
210
0.0
220
0.0
230
1.0
 70
    24
 71
     3
 72
     8
 73
     4
 74
     0
 42
0.0000000001
 43
0.0000000001
 40
0.0
 40
0.0
 40
0.0
 40
0.0
 40
1.0
 40
1.0
 40
1.0
 40
1.0
 10
-12.2278
 20
25.0042
 30
0.0
 10
-12.2278
 20
25.0042
 30
0.0
 10
-11.9981
 20
25.0657
 30
0.0
 10
-11.9981
 20
25.0657
 30
0.0
  0
SPLINE
  5
15A
330
1F
100
AcDbEntity
  8
DEFAULT_1
 62
   250
100
AcDbSpline
210
0.0
220
0.0
230
1.0
 70
    24
 71
     3
 72
     8
 73
     4
 74
     0
 42
0.0000000001
 43
0.0000000001
 40
0.0
 40
0.0
 40
0.0
 40
0.0
 40
1.0
 40
1.0
 40
1.0
 40
1.0
 10
-11.9981
 20
25.7464
 30
0.0
 10
-11.9981
 20
25.7464
 30
0.0
 10
-12.2278
 20
25.6849
 30
0.0
 10
-12.2278
 20
25.6849
 30
0.0
  0
SPLINE
  5
15B
330
1F
100
AcDbEntity
  8
DEFAULT_1
 62
   250
100
AcDbSpline
210
0.0
220
0.0
230
1.0
 70
    24
 71
     3
 72
     8
 73
     4
 74
     0
 42
0.0000000001
 43
0.0000000001
 40
0.0
 40
0.0
 40
0.0
 40
0.0
 40
1.0
 40
1.0
 40
1.0
 40
1.0
 10
-11.9981
 20
25.4911
 30
0.0
 10
-11.9981
 20
25.4911
 30
0.0
 10
-11.9981
 20
25.0657
 30
0.0
 10
-11.9981
 20
25.0657
 30
0.0
  0
SPLINE
  5
15C
330
1F
100
AcDbEntity
  8
DEFAULT_1
 62
   250
100
AcDbSpline
210
0.0
220
0.0
230
1.0
 70
    24
 71
     3
 72
     8
 73
     4
 74
     0
 42
0.0000000001
 43
0.0000000001
 40
0.0
 40
0.0
 40
0.0
 40
0.0
 40
1.0
 40
1.0
 40
1.0
 40
1.0
 10
-11.9981
 20
24.3851
 30
0.0
 10
-11.9981
 20
24.3851
 30
0.0
 10
-11.9981
 20
24.8105
 30
0.0
 10
-11.9981
 20
24.8105
 30
0.0
  0
SPLINE
  5
15D
330
1F
100
AcDbEntity
  8
DEFAULT_1
 62
   250
100
AcDbSpline
210
0.0
220
0.0
230
1.0
 70
    24
 71
     3
 72
     8
 73
     4
 74
     0
 42
0.0000000001
 43
0.0000000001
 40
0.0
 40
0.0
 40
0.0
 40
0.0
 40
1.0
 40
1.0
 40
1.0
 40
1.0
 10
-12.2278
 20
25.0042
 30
0.0
 10
-12.2278
 20
25.0042
 30
0.0
 10
-12.2278
 20
24.8721
 30
0.0
 10
-12.2278
 20
24.8721
 30
0.0
  0
SPLINE
  5
15E
330
1F
100
AcDbEntity
  8
DEFAULT_1
 62
   250
100
AcDbSpline
210
0.0
220
0.0
230
1.0
 70
    24
 71
     3
 72
     8
 73
     4
 74
     0
 42
0.0000000001
 43
0.0000000001
 40
0.0
 40
0.0
 40
0.0
 40
0.0
 40
1.0
 40
1.0
 40
1.0
 40
1.0
 10
-12.2278
 20
24.1914
 30
0.0
 10
-12.2278
 20
24.1914
 30
0.0
 10
-12.2278
 20
24.3235
 30
0.0
 10
-12.2278
 20
24.3235
 30
0.0
  0
SPLINE
  5
15F
330
1F
100
AcDbEntity
  8
DEFAULT_1
 62
   250
100
AcDbSpline
210
0.0
220
0.0
230
1.0
 70
    24
 71
     3
 72
     8
 73
     4
 74
     0
 42
0.0000000001
 43
0.0000000001
 40
0.0
 40
0.0
 40
0.0
 40
0.0
 40
1.0
 40
1.0
 40
1.0
 40
1.0
 10
-11.9981
 20
23.7044
 30
0.0
 10
-11.9981
 20
23.7044
 30
0.0
 10
-11.9981
 20
24.1298
 30
0.0
 10
-11.9981
 20
24.1298
 30
0.0
  0
SPLINE
  5
160
330
1F
100
AcDbEntity
  8
DEFAULT_1
 62
   250
100
AcDbSpline
210
0.0
220
0.0
230
1.0
 70
    24
 71
     3
 72
     8
 73
     4
 74
     0
 42
0.0000000001
 43
0.0000000001
 40
0.0
 40
0.0
 40
0.0
 40
0.0
 40
1.0
 40
1.0
 40
1.0
 40
1.0
 10
-12.2278
 20
23.5106
 30
0.0
 10
-12.2278
 20
23.5106
 30
0.0
 10
-12.2278
 20
23.6428
 30
0.0
 10
-12.2278
 20
23.6428
 30
0.0
  0
SPLINE
  5
161
330
1F
100
AcDbEntity
  8
DEFAULT_1
 62
   250
100
AcDbSpline
210
0.0
220
0.0
230
1.0
 70
    24
 71
     3
 72
     8
 73
     4
 74
     0
 42
0.0000000001
 43
0.0000000001
 40
0.0
 40
0.0
 40
0.0
 40
0.0
 40
1.0
 40
1.0
 40
1.0
 40
1.0
 10
-11.9981
 20
23.0236
 30
0.0
 10
-11.9981
 20
23.0236
 30
0.0
 10
-11.9981
 20
23.4491
 30
0.0
 10
-11.9981
 20
23.4491
 30
0.0
  0
SPLINE
  5
162
330
1F
100
AcDbEntity
  8
DEFAULT_1
 62
   250
100
AcDbSpline
210
0.0
220
0.0
230
1.0
 70
    24
 71
     3
 72
     8
 73
     4
 74
     0
 42
0.0000000001
 43
0.0000000001
 40
0.0
 40
0.0
 40
0.0
 40
0.0
 40
1.0
 40
1.0
 40
1.0
 40
1.0
 10
-12.2278
 20
22.83
 30
0.0
 10
-12.2278
 20
22.83
 30
0.0
 10
-12.2278
 20
22.9622
 30
0.0
 10
-12.2278
 20
22.9622
 30
0.0
  0
SPLINE
  5
163
330
1F
100
AcDbEntity
  8
DEFAULT_1
 62
   250
100
AcDbSpline
210
0.0
220
0.0
230
1.0
 70
    24
 71
     3
 72
     8
 73
     4
 74
     0
 42
0.0000000001
 43
0.0000000001
 40
0.0
 40
0.0
 40
0.0
 40
0.0
 40
1.0
 40
1.0
 40
1.0
 40
1.0
 10
-11.9981
 20
22.343
 30
0.0
 10
-11.9981
 20
22.343
 30
0.0
 10
-11.9981
 20
22.7684
 30
0.0
 10
-11.9981
 20
22.7684
 30
0.0
  0
SPLINE
  5
164
330
1F
100
AcDbEntity
  8
DEFAULT_1
 62
   250
100
AcDbSpline
210
0.0
220
0.0
230
1.0
 70
    24
 71
     3
 72
     8
 73
     4
 74
     0
 42
0.0000000001
 43
0.0000000001
 40
0.0
 40
0.0
 40
0.0
 40
0.0
 40
1.0
 40
1.0
 40
1.0
 40
1.0
 10
-12.2278
 20
22.1493
 30
0.0
 10
-12.2278
 20
22.1493
 30
0.0
 10
-12.2278
 20
22.2814
 30
0.0
 10
-12.2278
 20
22.2814
 30
0.0
  0
SPLINE
  5
165
330
1F
100
AcDbEntity
  8
DEFAULT_1
 62
   250
100
AcDbSpline
210
0.0
220
0.0
230
1.0
 70
    24
 71
     3
 72
     8
 73
     4
 74
     0
 42
0.0000000001
 43
0.0000000001
 40
0.0
 40
0.0
 40
0.0
 40
0.0
 40
1.0
 40
1.0
 40
1.0
 40
1.0
 10
-11.9981
 20
21.6623
 30
0.0
 10
-11.9981
 20
21.6623
 30
0.0
 10
-11.9981
 20
22.0877
 30
0.0
 10
-11.9981
 20
22.0877
 30
0.0
  0
SPLINE
  5
166
330
1F
100
AcDbEntity
  8
DEFAULT_1
 62
   250
100
AcDbSpline
210
0.0
220
0.0
230
1.0
 70
    24
 71
     3
 72
     8
 73
     4
 74
     0
 42
0.0000000001
 43
0.0000000001
 40
0.0
 40
0.0
 40
0.0
 40
0.0
 40
1.0
 40
1.0
 40
1.0
 40
1.0
 10
-12.2278
 20
21.4685
 30
0.0
 10
-12.2278
 20
21.4685
 30
0.0
 10
-12.2278
 20
21.6007
 30
0.0
 10
-12.2278
 20
21.6007
 30
0.0
  0
SPLINE
  5
167
330
1F
100
AcDbEntity
  8
DEFAULT_1
 62
   250
100
AcDbSpline
210
0.0
220
0.0
230
1.0
 70
    24
 71
     3
 72
     8
 73
     4
 74
     0
 42
0.0000000001
 43
0.0000000001
 40
0.0
 40
0.0
 40
0.0
 40
0.0
 40
1.0
 40
1.0
 40
1.0
 40
1.0
 10
-11.9981
 20
20.9816
 30
0.0
 10
-11.9981
 20
20.9816
 30
0.0
 10
-11.9981
 20
21.407
 30
0.0
 10
-11.9981
 20
21.407
 30
0.0
  0
SPLINE
  5
168
330
1F
100
AcDbEntity
  8
DEFAULT_1
 62
   250
100
AcDbSpline
210
0.0
220
0.0
230
1.0
 70
    24
 71
     3
 72
     8
 73
     4
 74
     0
 42
0.0000000001
 43
0.0000000001
 40
0.0
 40
0.0
 40
0.0
 40
0.0
 40
1.0
 40
1.0
 40
1.0
 40
1.0
 10
-12.2278
 20
20.7879
 30
0.0
 10
-12.2278
 20
20.7879
 30
0.0
 10
-12.2278
 20
20.9201
 30
0.0
 10
-12.2278
 20
20.9201
 30
0.0
  0
SPLINE
  5
169
330
1F
100
AcDbEntity
  8
DEFAULT_1
 62
   250
100
AcDbSpline
210
0.0
220
0.0
230
1.0
 70
    24
 71
     3
 72
     8
 73
     4
 74
     0
 42
0.0000000001
 43
0.0000000001
 40
0.0
 40
0.0
 40
0.0
 40
0.0
 40
1.0
 40
1.0
 40
1.0
 40
1.0
 10
-11.9981
 20
20.3009
 30
0.0
 10
-11.9981
 20
20.3009
 30
0.0
 10
-11.9981
 20
20.7263
 30
0.0
 10
-11.9981
 20
20.7263
 30
0.0
  0
SPLINE
  5
16A
330
1F
100
AcDbEntity
  8
DEFAULT_1
 62
   250
100
AcDbSpline
210
0.0
220
0.0
230
1.0
 70
    24
 71
     3
 72
     8
 73
     4
 74
     0
 42
0.0000000001
 43
0.0000000001
 40
0.0
 40
0.0
 40
0.0
 40
0.0
 40
1.0
 40
1.0
 40
1.0
 40
1.0
 10
-12.2278
 20
20.1072
 30
0.0
 10
-12.2278
 20
20.1072
 30
0.0
 10
-12.2278
 20
20.2393
 30
0.0
 10
-12.2278
 20
20.2393
 30
0.0
  0
SPLINE
  5
16B
330
1F
100
AcDbEntity
  8
DEFAULT_1
 62
   250
100
AcDbSpline
210
0.0
220
0.0
230
1.0
 70
    24
 71
     3
 72
     8
 73
     4
 74
     0
 42
0.0000000001
 43
0.0000000001
 40
0.0
 40
0.0
 40
0.0
 40
0.0
 40
1.0
 40
1.0
 40
1.0
 40
1.0
 10
-11.9981
 20
19.6202
 30
0.0
 10
-11.9981
 20
19.6202
 30
0.0
 10
-11.9981
 20
20.0456
 30
0.0
 10
-11.9981
 20
20.0456
 30
0.0
  0
SPLINE
  5
16C
330
1F
100
AcDbEntity
  8
DEFAULT_1
 62
   250
100
AcDbSpline
210
0.0
220
0.0
230
1.0
 70
    24
 71
     3
 72
     8
 73
     4
 74
     0
 42
0.0000000001
 43
0.0000000001
 40
0.0
 40
0.0
 40
0.0
 40
0.0
 40
1.0
 40
1.0
 40
1.0
 40
1.0
 10
-12.2278
 20
19.4265
 30
0.0
 10
-12.2278
 20
19.4265
 30
0.0
 10
-12.2278
 20
19.5587
 30
0.0
 10
-12.2278
 20
19.5587
 30
0.0
  0
SPLINE
  5
16D
330
1F
100
AcDbEntity
  8
DEFAULT_1
 62
   250
100
AcDbSpline
210
0.0
220
0.0
230
1.0
 70
    24
 71
     3
 72
     8
 73
     4
 74
     0
 42
0.0000000001
 43
0.0000000001
 40
0.0
 40
0.0
 40
0.0
 40
0.0
 40
1.0
 40
1.0
 40
1.0
 40
1.0
 10
-11.9981
 20
18.9396
 30
0.0
 10
-11.9981
 20
18.9396
 30
0.0
 10
-11.9981
 20
19.365
 30
0.0
 10
-11.9981
 20
19.365
 30
0.0
  0
SPLINE
  5
16E
330
1F
100
AcDbEntity
  8
DEFAULT_1
 62
   250
100
AcDbSpline
210
0.0
220
0.0
230
1.0
 70
    24
 71
     3
 72
     8
 73
     4
 74
     0
 42
0.0000000001
 43
0.0000000001
 40
0.0
 40
0.0
 40
0.0
 40
0.0
 40
1.0
 40
1.0
 40
1.0
 40
1.0
 10
-12.2278
 20
18.7458
 30
0.0
 10
-12.2278
 20
18.7458
 30
0.0
 10
-12.2278
 20
18.8779
 30
0.0
 10
-12.2278
 20
18.8779
 30
0.0
  0
SPLINE
  5
16F
330
1F
100
AcDbEntity
  8
DEFAULT_1
 62
   250
100
AcDbSpline
210
0.0
220
0.0
230
1.0
 70
    24
 71
     3
 72
     8
 73
     4
 74
     0
 42
0.0000000001
 43
0.0000000001
 40
0.0
 40
0.0
 40
0.0
 40
0.0
 40
1.0
 40
1.0
 40
1.0
 40
1.0
 10
-11.9981
 20
18.2588
 30
0.0
 10
-11.9981
 20
18.2588
 30
0.0
 10
-11.9981
 20
18.6842
 30
0.0
 10
-11.9981
 20
18.6842
 30
0.0
  0
SPLINE
  5
170
330
1F
100
AcDbEntity
  8
DEFAULT_1
 62
   250
100
AcDbSpline
210
0.0
220
0.0
230
1.0
 70
    24
 71
     3
 72
     8
 73
     4
 74
     0
 42
0.0000000001
 43
0.0000000001
 40
0.0
 40
0.0
 40
0.0
 40
0.0
 40
1.0
 40
1.0
 40
1.0
 40
1.0
 10
-12.2278
 20
18.0651
 30
0.0
 10
-12.2278
 20
18.0651
 30
0.0
 10
-12.2278
 20
18.1973
 30
0.0
 10
-12.2278
 20
18.1973
 30
0.0
  0
SPLINE
  5
171
330
1F
100
AcDbEntity
  8
DEFAULT_1
 62
   250
100
AcDbSpline
210
0.0
220
0.0
230
1.0
 70
    24
 71
     3
 72
     8
 73
     4
 74
     0
 42
0.0000000001
 43
0.0000000001
 40
0.0
 40
0.0
 40
0.0
 40
0.0
 40
1.0
 40
1.0
 40
1.0
 40
1.0
 10
-11.9981
 20
17.5781
 30
0.0
 10
-11.9981
 20
17.5781
 30
0.0
 10
-11.9981
 20
18.0036
 30
0.0
 10
-11.9981
 20
18.0036
 30
0.0
  0
SPLINE
  5
172
330
1F
100
AcDbEntity
  8
DEFAULT_1
 62
   250
100
AcDbSpline
210
0.0
220
0.0
230
1.0
 70
    24
 71
     3
 72
     8
 73
     4
 74
     0
 42
0.0000000001
 43
0.0000000001
 40
0.0
 40
0.0
 40
0.0
 40
0.0
 40
1.0
 40
1.0
 40
1.0
 40
1.0
 10
-12.2278
 20
17.3844
 30
0.0
 10
-12.2278
 20
17.3844
 30
0.0
 10
-12.2278
 20
17.5165
 30
0.0
 10
-12.2278
 20
17.5165
 30
0.0
  0
SPLINE
  5
173
330
1F
100
AcDbEntity
  8
DEFAULT_1
 62
   250
100
AcDbSpline
210
0.0
220
0.0
230
1.0
 70
    24
 71
     3
 72
     8
 73
     4
 74
     0
 42
0.0000000001
 43
0.0000000001
 40
0.0
 40
0.0
 40
0.0
 40
0.0
 40
1.0
 40
1.0
 40
1.0
 40
1.0
 10
-12.2278
 20
25.6849
 30
0.0
 10
-12.2278
 20
25.6849
 30
0.0
 10
-12.2278
 20
25.5528
 30
0.0
 10
-12.2278
 20
25.5528
 30
0.0
  0
SPLINE
  5
174
330
1F
100
AcDbEntity
  8
DEFAULT_1
 62
   250
100
AcDbSpline
210
0.0
220
0.0
230
1.0
 70
    24
 71
     3
 72
     8
 73
     4
 74
     0
 42
0.0000000001
 43
0.0000000001
 40
0.0
 40
0.0
 40
0.0
 40
0.0
 40
1.0
 40
1.0
 40
1.0
 40
1.0
 10
-12.2278
 20
14.7938
 30
0.0
 10
-12.2278
 20
14.7938
 30
0.0
 10
-12.2278
 20
14.6616
 30
0.0
 10
-12.2278
 20
14.6616
 30
0.0
  0
SPLINE
  5
175
330
1F
100
AcDbEntity
  8
DEFAULT_1
 62
   250
100
AcDbSpline
210
0.0
220
0.0
230
1.0
 70
    24
 71
     3
 72
     8
 73
     4
 74
     0
 42
0.0000000001
 43
0.0000000001
 40
0.0
 40
0.0
 40
0.0
 40
0.0
 40
1.0
 40
1.0
 40
1.0
 40
1.0
 10
-12.2278
 20
26.3656
 30
0.0
 10
-12.2278
 20
26.3656
 30
0.0
 10
-3.6182
 20
26.3656
 30
0.0
 10
-3.6182
 20
26.3656
 30
0.0
  0
SPLINE
  5
176
330
1F
100
AcDbEntity
  8
DEFAULT_1
 62
   250
100
AcDbSpline
210
0.0
220
0.0
230
1.0
 70
    24
 71
     3
 72
     8
 73
     4
 74
     0
 42
0.0000000001
 43
0.0000000001
 40
0.0
 40
0.0
 40
0.0
 40
0.0
 40
1.0
 40
1.0
 40
1.0
 40
1.0
 10
-12.2278
 20
26.9141
 30
0.0
 10
-12.2278
 20
26.9141
 30
0.0
 10
5.4191
 20
26.9141
 30
0.0
 10
5.4191
 20
26.9141
 30
0.0
  0
SPLINE
  5
177
330
1F
100
AcDbEntity
  8
DEFAULT_1
 62
   250
100
AcDbSpline
210
0.0
220
0.0
230
1.0
 70
    24
 71
     3
 72
     8
 73
     4
 74
     0
 42
0.0000000001
 43
0.0000000001
 40
0.0
 40
0.0
 40
0.0
 40
0.0
 40
1.0
 40
1.0
 40
1.0
 40
1.0
 10
-3.1904
 20
26.3656
 30
0.0
 10
-3.1904
 20
26.3656
 30
0.0
 10
5.4191
 20
26.3656
 30
0.0
 10
5.4191
 20
26.3656
 30
0.0
  0
SPLINE
  5
178
330
1F
100
AcDbEntity
  8
DEFAULT_1
 62
   250
100
AcDbSpline
210
0.0
220
0.0
230
1.0
 70
    24
 71
     3
 72
     8
 73
     4
 74
     0
 42
0.0000000001
 43
0.0000000001
 40
0.0
 40
0.0
 40
0.0
 40
0.0
 40
1.0
 40
1.0
 40
1.0
 40
1.0
 10
-3.1916
 20
25.7464
 30
0.0
 10
-3.1916
 20
25.7464
 30
0.0
 10
5.1894
 20
25.7464
 30
0.0
 10
5.1894
 20
25.7464
 30
0.0
  0
SPLINE
  5
179
330
1F
100
AcDbEntity
  8
DEFAULT_1
 62
   250
100
AcDbSpline
210
0.0
220
0.0
230
1.0
 70
    24
 71
     3
 72
     8
 73
     4
 74
     0
 42
0.0000000001
 43
0.0000000001
 40
0.0
 40
0.0
 40
0.0
 40
0.0
 40
1.0
 40
1.0
 40
1.0
 40
1.0
 10
-3.1904
 20
25.6849
 30
0.0
 10
-3.1904
 20
25.6849
 30
0.0
 10
5.4191
 20
25.6849
 30
0.0
 10
5.4191
 20
25.6849
 30
0.0
  0
SPLINE
  5
17A
330
1F
100
AcDbEntity
  8
DEFAULT_1
 62
   250
100
AcDbSpline
210
0.0
220
0.0
230
1.0
 70
    24
 71
     3
 72
     8
 73
     4
 74
     0
 42
0.0000000001
 43
0.0000000001
 40
0.0
 40
0.0
 40
0.0
 40
0.0
 40
1.0
 40
1.0
 40
1.0
 40
1.0
 10
-3.1904
 20
26.2334
 30
0.0
 10
-3.1904
 20
26.2334
 30
0.0
 10
5.4191
 20
26.2334
 30
0.0
 10
5.4191
 20
26.2334
 30
0.0
  0
SPLINE
  5
17B
330
1F
100
AcDbEntity
  8
DEFAULT_1
 62
   250
100
AcDbSpline
210
0.0
220
0.0
230
1.0
 70
    24
 71
     3
 72
     8
 73
     4
 74
     0
 42
0.0000000001
 43
0.0000000001
 40
0.0
 40
0.0
 40
0.0
 40
0.0
 40
1.0
 40
1.0
 40
1.0
 40
1.0
 10
-3.1916
 20
26.1719
 30
0.0
 10
-3.1916
 20
26.1719
 30
0.0
 10
5.1894
 20
26.1719
 30
0.0
 10
5.1894
 20
26.1719
 30
0.0
  0
SPLINE
  5
17C
330
1F
100
AcDbEntity
  8
DEFAULT_1
 62
   250
100
AcDbSpline
210
0.0
220
0.0
230
1.0
 70
    24
 71
     3
 72
     8
 73
     4
 74
     0
 42
0.0000000001
 43
0.0000000001
 40
0.0
 40
0.0
 40
0.0
 40
0.0
 40
1.0
 40
1.0
 40
1.0
 40
1.0
 10
-3.1904
 20
25.5528
 30
0.0
 10
-3.1904
 20
25.5528
 30
0.0
 10
5.4191
 20
25.5528
 30
0.0
 10
5.4191
 20
25.5528
 30
0.0
  0
SPLINE
  5
17D
330
1F
100
AcDbEntity
  8
DEFAULT_1
 62
   250
100
AcDbSpline
210
0.0
220
0.0
230
1.0
 70
    24
 71
     3
 72
     8
 73
     4
 74
     0
 42
0.0000000001
 43
0.0000000001
 40
0.0
 40
0.0
 40
0.0
 40
0.0
 40
1.0
 40
1.0
 40
1.0
 40
1.0
 10
-3.1904
 20
25.0042
 30
0.0
 10
-3.1904
 20
25.0042
 30
0.0
 10
5.4191
 20
25.0042
 30
0.0
 10
5.4191
 20
25.0042
 30
0.0
  0
SPLINE
  5
17E
330
1F
100
AcDbEntity
  8
DEFAULT_1
 62
   250
100
AcDbSpline
210
0.0
220
0.0
230
1.0
 70
    24
 71
     3
 72
     8
 73
     4
 74
     0
 42
0.0000000001
 43
0.0000000001
 40
0.0
 40
0.0
 40
0.0
 40
0.0
 40
1.0
 40
1.0
 40
1.0
 40
1.0
 10
-3.1904
 20
24.8721
 30
0.0
 10
-3.1904
 20
24.8721
 30
0.0
 10
5.4191
 20
24.8721
 30
0.0
 10
5.4191
 20
24.8721
 30
0.0
  0
SPLINE
  5
17F
330
1F
100
AcDbEntity
  8
DEFAULT_1
 62
   250
100
AcDbSpline
210
0.0
220
0.0
230
1.0
 70
    24
 71
     3
 72
     8
 73
     4
 74
     0
 42
0.0000000001
 43
0.0000000001
 40
0.0
 40
0.0
 40
0.0
 40
0.0
 40
1.0
 40
1.0
 40
1.0
 40
1.0
 10
-3.1904
 20
24.3235
 30
0.0
 10
-3.1904
 20
24.3235
 30
0.0
 10
5.4191
 20
24.3235
 30
0.0
 10
5.4191
 20
24.3235
 30
0.0
  0
SPLINE
  5
180
330
1F
100
AcDbEntity
  8
DEFAULT_1
 62
   250
100
AcDbSpline
210
0.0
220
0.0
230
1.0
 70
    24
 71
     3
 72
     8
 73
     4
 74
     0
 42
0.0000000001
 43
0.0000000001
 40
0.0
 40
0.0
 40
0.0
 40
0.0
 40
1.0
 40
1.0
 40
1.0
 40
1.0
 10
-3.1904
 20
24.1914
 30
0.0
 10
-3.1904
 20
24.1914
 30
0.0
 10
5.4191
 20
24.1914
 30
0.0
 10
5.4191
 20
24.1914
 30
0.0
  0
SPLINE
  5
181
330
1F
100
AcDbEntity
  8
DEFAULT_1
 62
   250
100
AcDbSpline
210
0.0
220
0.0
230
1.0
 70
    24
 71
     3
 72
     8
 73
     4
 74
     0
 42
0.0000000001
 43
0.0000000001
 40
0.0
 40
0.0
 40
0.0
 40
0.0
 40
1.0
 40
1.0
 40
1.0
 40
1.0
 10
-3.1904
 20
23.6428
 30
0.0
 10
-3.1904
 20
23.6428
 30
0.0
 10
5.4191
 20
23.6428
 30
0.0
 10
5.4191
 20
23.6428
 30
0.0
  0
SPLINE
  5
182
330
1F
100
AcDbEntity
  8
DEFAULT_1
 62
   250
100
AcDbSpline
210
0.0
220
0.0
230
1.0
 70
    24
 71
     3
 72
     8
 73
     4
 74
     0
 42
0.0000000001
 43
0.0000000001
 40
0.0
 40
0.0
 40
0.0
 40
0.0
 40
1.0
 40
1.0
 40
1.0
 40
1.0
 10
-3.1904
 20
23.5106
 30
0.0
 10
-3.1904
 20
23.5106
 30
0.0
 10
5.4191
 20
23.5106
 30
0.0
 10
5.4191
 20
23.5106
 30
0.0
  0
SPLINE
  5
183
330
1F
100
AcDbEntity
  8
DEFAULT_1
 62
   250
100
AcDbSpline
210
0.0
220
0.0
230
1.0
 70
    24
 71
     3
 72
     8
 73
     4
 74
     0
 42
0.0000000001
 43
0.0000000001
 40
0.0
 40
0.0
 40
0.0
 40
0.0
 40
1.0
 40
1.0
 40
1.0
 40
1.0
 10
-3.1904
 20
22.9622
 30
0.0
 10
-3.1904
 20
22.9622
 30
0.0
 10
5.4191
 20
22.9622
 30
0.0
 10
5.4191
 20
22.9622
 30
0.0
  0
SPLINE
  5
184
330
1F
100
AcDbEntity
  8
DEFAULT_1
 62
   250
100
AcDbSpline
210
0.0
220
0.0
230
1.0
 70
    24
 71
     3
 72
     8
 73
     4
 74
     0
 42
0.0000000001
 43
0.0000000001
 40
0.0
 40
0.0
 40
0.0
 40
0.0
 40
1.0
 40
1.0
 40
1.0
 40
1.0
 10
-3.1904
 20
22.83
 30
0.0
 10
-3.1904
 20
22.83
 30
0.0
 10
5.4191
 20
22.83
 30
0.0
 10
5.4191
 20
22.83
 30
0.0
  0
SPLINE
  5
185
330
1F
100
AcDbEntity
  8
DEFAULT_1
 62
   250
100
AcDbSpline
210
0.0
220
0.0
230
1.0
 70
    24
 71
     3
 72
     8
 73
     4
 74
     0
 42
0.0000000001
 43
0.0000000001
 40
0.0
 40
0.0
 40
0.0
 40
0.0
 40
1.0
 40
1.0
 40
1.0
 40
1.0
 10
-3.1904
 20
22.2814
 30
0.0
 10
-3.1904
 20
22.2814
 30
0.0
 10
5.4191
 20
22.2814
 30
0.0
 10
5.4191
 20
22.2814
 30
0.0
  0
SPLINE
  5
186
330
1F
100
AcDbEntity
  8
DEFAULT_1
 62
   250
100
AcDbSpline
210
0.0
220
0.0
230
1.0
 70
    24
 71
     3
 72
     8
 73
     4
 74
     0
 42
0.0000000001
 43
0.0000000001
 40
0.0
 40
0.0
 40
0.0
 40
0.0
 40
1.0
 40
1.0
 40
1.0
 40
1.0
 10
-3.1904
 20
22.1493
 30
0.0
 10
-3.1904
 20
22.1493
 30
0.0
 10
5.4191
 20
22.1493
 30
0.0
 10
5.4191
 20
22.1493
 30
0.0
  0
SPLINE
  5
187
330
1F
100
AcDbEntity
  8
DEFAULT_1
 62
   250
100
AcDbSpline
210
0.0
220
0.0
230
1.0
 70
    24
 71
     3
 72
     8
 73
     4
 74
     0
 42
0.0000000001
 43
0.0000000001
 40
0.0
 40
0.0
 40
0.0
 40
0.0
 40
1.0
 40
1.0
 40
1.0
 40
1.0
 10
-3.1904
 20
21.6007
 30
0.0
 10
-3.1904
 20
21.6007
 30
0.0
 10
5.4191
 20
21.6007
 30
0.0
 10
5.4191
 20
21.6007
 30
0.0
  0
SPLINE
  5
188
330
1F
100
AcDbEntity
  8
DEFAULT_1
 62
   250
100
AcDbSpline
210
0.0
220
0.0
230
1.0
 70
    24
 71
     3
 72
     8
 73
     4
 74
     0
 42
0.0000000001
 43
0.0000000001
 40
0.0
 40
0.0
 40
0.0
 40
0.0
 40
1.0
 40
1.0
 40
1.0
 40
1.0
 10
-3.1904
 20
21.4685
 30
0.0
 10
-3.1904
 20
21.4685
 30
0.0
 10
5.4191
 20
21.4685
 30
0.0
 10
5.4191
 20
21.4685
 30
0.0
  0
SPLINE
  5
189
330
1F
100
AcDbEntity
  8
DEFAULT_1
 62
   250
100
AcDbSpline
210
0.0
220
0.0
230
1.0
 70
    24
 71
     3
 72
     8
 73
     4
 74
     0
 42
0.0000000001
 43
0.0000000001
 40
0.0
 40
0.0
 40
0.0
 40
0.0
 40
1.0
 40
1.0
 40
1.0
 40
1.0
 10
-3.1904
 20
20.9201
 30
0.0
 10
-3.1904
 20
20.9201
 30
0.0
 10
5.4191
 20
20.9201
 30
0.0
 10
5.4191
 20
20.9201
 30
0.0
  0
SPLINE
  5
18A
330
1F
100
AcDbEntity
  8
DEFAULT_1
 62
   250
100
AcDbSpline
210
0.0
220
0.0
230
1.0
 70
    24
 71
     3
 72
     8
 73
     4
 74
     0
 42
0.0000000001
 43
0.0000000001
 40
0.0
 40
0.0
 40
0.0
 40
0.0
 40
1.0
 40
1.0
 40
1.0
 40
1.0
 10
-3.1904
 20
20.7879
 30
0.0
 10
-3.1904
 20
20.7879
 30
0.0
 10
5.4191
 20
20.7879
 30
0.0
 10
5.4191
 20
20.7879
 30
0.0
  0
SPLINE
  5
18B
330
1F
100
AcDbEntity
  8
DEFAULT_1
 62
   250
100
AcDbSpline
210
0.0
220
0.0
230
1.0
 70
    24
 71
     3
 72
     8
 73
     4
 74
     0
 42
0.0000000001
 43
0.0000000001
 40
0.0
 40
0.0
 40
0.0
 40
0.0
 40
1.0
 40
1.0
 40
1.0
 40
1.0
 10
-3.1904
 20
20.2393
 30
0.0
 10
-3.1904
 20
20.2393
 30
0.0
 10
5.4191
 20
20.2393
 30
0.0
 10
5.4191
 20
20.2393
 30
0.0
  0
SPLINE
  5
18C
330
1F
100
AcDbEntity
  8
DEFAULT_1
 62
   250
100
AcDbSpline
210
0.0
220
0.0
230
1.0
 70
    24
 71
     3
 72
     8
 73
     4
 74
     0
 42
0.0000000001
 43
0.0000000001
 40
0.0
 40
0.0
 40
0.0
 40
0.0
 40
1.0
 40
1.0
 40
1.0
 40
1.0
 10
-3.1904
 20
20.1072
 30
0.0
 10
-3.1904
 20
20.1072
 30
0.0
 10
5.4191
 20
20.1072
 30
0.0
 10
5.4191
 20
20.1072
 30
0.0
  0
SPLINE
  5
18D
330
1F
100
AcDbEntity
  8
DEFAULT_1
 62
   250
100
AcDbSpline
210
0.0
220
0.0
230
1.0
 70
    24
 71
     3
 72
     8
 73
     4
 74
     0
 42
0.0000000001
 43
0.0000000001
 40
0.0
 40
0.0
 40
0.0
 40
0.0
 40
1.0
 40
1.0
 40
1.0
 40
1.0
 10
-3.1904
 20
19.5587
 30
0.0
 10
-3.1904
 20
19.5587
 30
0.0
 10
5.4191
 20
19.5587
 30
0.0
 10
5.4191
 20
19.5587
 30
0.0
  0
SPLINE
  5
18E
330
1F
100
AcDbEntity
  8
DEFAULT_1
 62
   250
100
AcDbSpline
210
0.0
220
0.0
230
1.0
 70
    24
 71
     3
 72
     8
 73
     4
 74
     0
 42
0.0000000001
 43
0.0000000001
 40
0.0
 40
0.0
 40
0.0
 40
0.0
 40
1.0
 40
1.0
 40
1.0
 40
1.0
 10
-3.1904
 20
19.4265
 30
0.0
 10
-3.1904
 20
19.4265
 30
0.0
 10
5.4191
 20
19.4265
 30
0.0
 10
5.4191
 20
19.4265
 30
0.0
  0
SPLINE
  5
18F
330
1F
100
AcDbEntity
  8
DEFAULT_1
 62
   250
100
AcDbSpline
210
0.0
220
0.0
230
1.0
 70
    24
 71
     3
 72
     8
 73
     4
 74
     0
 42
0.0000000001
 43
0.0000000001
 40
0.0
 40
0.0
 40
0.0
 40
0.0
 40
1.0
 40
1.0
 40
1.0
 40
1.0
 10
-3.1904
 20
18.8779
 30
0.0
 10
-3.1904
 20
18.8779
 30
0.0
 10
5.4191
 20
18.8779
 30
0.0
 10
5.4191
 20
18.8779
 30
0.0
  0
SPLINE
  5
190
330
1F
100
AcDbEntity
  8
DEFAULT_1
 62
   250
100
AcDbSpline
210
0.0
220
0.0
230
1.0
 70
    24
 71
     3
 72
     8
 73
     4
 74
     0
 42
0.0000000001
 43
0.0000000001
 40
0.0
 40
0.0
 40
0.0
 40
0.0
 40
1.0
 40
1.0
 40
1.0
 40
1.0
 10
-3.1904
 20
18.7458
 30
0.0
 10
-3.1904
 20
18.7458
 30
0.0
 10
5.4191
 20
18.7458
 30
0.0
 10
5.4191
 20
18.7458
 30
0.0
  0
SPLINE
  5
191
330
1F
100
AcDbEntity
  8
DEFAULT_1
 62
   250
100
AcDbSpline
210
0.0
220
0.0
230
1.0
 70
    24
 71
     3
 72
     8
 73
     4
 74
     0
 42
0.0000000001
 43
0.0000000001
 40
0.0
 40
0.0
 40
0.0
 40
0.0
 40
1.0
 40
1.0
 40
1.0
 40
1.0
 10
-3.1904
 20
18.1973
 30
0.0
 10
-3.1904
 20
18.1973
 30
0.0
 10
5.4191
 20
18.1973
 30
0.0
 10
5.4191
 20
18.1973
 30
0.0
  0
SPLINE
  5
192
330
1F
100
AcDbEntity
  8
DEFAULT_1
 62
   250
100
AcDbSpline
210
0.0
220
0.0
230
1.0
 70
    24
 71
     3
 72
     8
 73
     4
 74
     0
 42
0.0000000001
 43
0.0000000001
 40
0.0
 40
0.0
 40
0.0
 40
0.0
 40
1.0
 40
1.0
 40
1.0
 40
1.0
 10
-3.1904
 20
18.0651
 30
0.0
 10
-3.1904
 20
18.0651
 30
0.0
 10
5.4191
 20
18.0651
 30
0.0
 10
5.4191
 20
18.0651
 30
0.0
  0
SPLINE
  5
193
330
1F
100
AcDbEntity
  8
DEFAULT_1
 62
   250
100
AcDbSpline
210
0.0
220
0.0
230
1.0
 70
    24
 71
     3
 72
     8
 73
     4
 74
     0
 42
0.0000000001
 43
0.0000000001
 40
0.0
 40
0.0
 40
0.0
 40
0.0
 40
1.0
 40
1.0
 40
1.0
 40
1.0
 10
-3.1904
 20
17.5165
 30
0.0
 10
-3.1904
 20
17.5165
 30
0.0
 10
5.4191
 20
17.5165
 30
0.0
 10
5.4191
 20
17.5165
 30
0.0
  0
SPLINE
  5
194
330
1F
100
AcDbEntity
  8
DEFAULT_1
 62
   250
100
AcDbSpline
210
0.0
220
0.0
230
1.0
 70
    24
 71
     3
 72
     8
 73
     4
 74
     0
 42
0.0000000001
 43
0.0000000001
 40
0.0
 40
0.0
 40
0.0
 40
0.0
 40
1.0
 40
1.0
 40
1.0
 40
1.0
 10
-3.1904
 20
17.3844
 30
0.0
 10
-3.1904
 20
17.3844
 30
0.0
 10
5.4191
 20
17.3844
 30
0.0
 10
5.4191
 20
17.3844
 30
0.0
  0
SPLINE
  5
195
330
1F
100
AcDbEntity
  8
DEFAULT_1
 62
   250
100
AcDbSpline
210
0.0
220
0.0
230
1.0
 70
    24
 71
     3
 72
     8
 73
     4
 74
     0
 42
0.0000000001
 43
0.0000000001
 40
0.0
 40
0.0
 40
0.0
 40
0.0
 40
1.0
 40
1.0
 40
1.0
 40
1.0
 10
-3.1904
 20
16.8359
 30
0.0
 10
-3.1904
 20
16.8359
 30
0.0
 10
5.4191
 20
16.8359
 30
0.0
 10
5.4191
 20
16.8359
 30
0.0
  0
SPLINE
  5
196
330
1F
100
AcDbEntity
  8
DEFAULT_1
 62
   250
100
AcDbSpline
210
0.0
220
0.0
230
1.0
 70
    24
 71
     3
 72
     8
 73
     4
 74
     0
 42
0.0000000001
 43
0.0000000001
 40
0.0
 40
0.0
 40
0.0
 40
0.0
 40
1.0
 40
1.0
 40
1.0
 40
1.0
 10
-3.1904
 20
16.7037
 30
0.0
 10
-3.1904
 20
16.7037
 30
0.0
 10
5.4191
 20
16.7037
 30
0.0
 10
5.4191
 20
16.7037
 30
0.0
  0
SPLINE
  5
197
330
1F
100
AcDbEntity
  8
DEFAULT_1
 62
   250
100
AcDbSpline
210
0.0
220
0.0
230
1.0
 70
    24
 71
     3
 72
     8
 73
     4
 74
     0
 42
0.0000000001
 43
0.0000000001
 40
0.0
 40
0.0
 40
0.0
 40
0.0
 40
1.0
 40
1.0
 40
1.0
 40
1.0
 10
-3.1904
 20
16.1552
 30
0.0
 10
-3.1904
 20
16.1552
 30
0.0
 10
5.4191
 20
16.1552
 30
0.0
 10
5.4191
 20
16.1552
 30
0.0
  0
SPLINE
  5
198
330
1F
100
AcDbEntity
  8
DEFAULT_1
 62
   250
100
AcDbSpline
210
0.0
220
0.0
230
1.0
 70
    24
 71
     3
 72
     8
 73
     4
 74
     0
 42
0.0000000001
 43
0.0000000001
 40
0.0
 40
0.0
 40
0.0
 40
0.0
 40
1.0
 40
1.0
 40
1.0
 40
1.0
 10
-3.1904
 20
16.0231
 30
0.0
 10
-3.1904
 20
16.0231
 30
0.0
 10
5.4191
 20
16.0231
 30
0.0
 10
5.4191
 20
16.0231
 30
0.0
  0
SPLINE
  5
199
330
1F
100
AcDbEntity
  8
DEFAULT_1
 62
   250
100
AcDbSpline
210
0.0
220
0.0
230
1.0
 70
    24
 71
     3
 72
     8
 73
     4
 74
     0
 42
0.0000000001
 43
0.0000000001
 40
0.0
 40
0.0
 40
0.0
 40
0.0
 40
1.0
 40
1.0
 40
1.0
 40
1.0
 10
-3.1904
 20
15.4744
 30
0.0
 10
-3.1904
 20
15.4744
 30
0.0
 10
5.4191
 20
15.4744
 30
0.0
 10
5.4191
 20
15.4744
 30
0.0
  0
SPLINE
  5
19A
330
1F
100
AcDbEntity
  8
DEFAULT_1
 62
   250
100
AcDbSpline
210
0.0
220
0.0
230
1.0
 70
    24
 71
     3
 72
     8
 73
     4
 74
     0
 42
0.0000000001
 43
0.0000000001
 40
0.0
 40
0.0
 40
0.0
 40
0.0
 40
1.0
 40
1.0
 40
1.0
 40
1.0
 10
-3.1904
 20
15.3423
 30
0.0
 10
-3.1904
 20
15.3423
 30
0.0
 10
5.4191
 20
15.3423
 30
0.0
 10
5.4191
 20
15.3423
 30
0.0
  0
SPLINE
  5
19B
330
1F
100
AcDbEntity
  8
DEFAULT_1
 62
   250
100
AcDbSpline
210
0.0
220
0.0
230
1.0
 70
    24
 71
     3
 72
     8
 73
     4
 74
     0
 42
0.0000000001
 43
0.0000000001
 40
0.0
 40
0.0
 40
0.0
 40
0.0
 40
1.0
 40
1.0
 40
1.0
 40
1.0
 10
-3.1904
 20
14.7938
 30
0.0
 10
-3.1904
 20
14.7938
 30
0.0
 10
5.4191
 20
14.7938
 30
0.0
 10
5.4191
 20
14.7938
 30
0.0
  0
SPLINE
  5
19C
330
1F
100
AcDbEntity
  8
DEFAULT_1
 62
   250
100
AcDbSpline
210
0.0
220
0.0
230
1.0
 70
    24
 71
     3
 72
     8
 73
     4
 74
     0
 42
0.0000000001
 43
0.0000000001
 40
0.0
 40
0.0
 40
0.0
 40
0.0
 40
1.0
 40
1.0
 40
1.0
 40
1.0
 10
-3.1904
 20
14.6616
 30
0.0
 10
-3.1904
 20
14.6616
 30
0.0
 10
5.4191
 20
14.6616
 30
0.0
 10
5.4191
 20
14.6616
 30
0.0
  0
SPLINE
  5
19D
330
1F
100
AcDbEntity
  8
DEFAULT_1
 62
   250
100
AcDbSpline
210
0.0
220
0.0
230
1.0
 70
    24
 71
     3
 72
     8
 73
     4
 74
     0
 42
0.0000000001
 43
0.0000000001
 40
0.0
 40
0.0
 40
0.0
 40
0.0
 40
1.0
 40
1.0
 40
1.0
 40
1.0
 10
5.1894
 20
15.2807
 30
0.0
 10
5.1894
 20
15.2807
 30
0.0
 10
-3.1916
 20
15.2807
 30
0.0
 10
-3.1916
 20
15.2807
 30
0.0
  0
SPLINE
  5
19E
330
1F
100
AcDbEntity
  8
DEFAULT_1
 62
   250
100
AcDbSpline
210
0.0
220
0.0
230
1.0
 70
    24
 71
     3
 72
     8
 73
     4
 74
     0
 42
0.0000000001
 43
0.0000000001
 40
0.0
 40
0.0
 40
0.0
 40
0.0
 40
1.0
 40
1.0
 40
1.0
 40
1.0
 10
-11.9981
 20
15.536
 30
0.0
 10
-11.9981
 20
15.536
 30
0.0
 10
-3.617
 20
15.536
 30
0.0
 10
-3.617
 20
15.536
 30
0.0
  0
SPLINE
  5
19F
330
1F
100
AcDbEntity
  8
DEFAULT_1
 62
   250
100
AcDbSpline
210
0.0
220
0.0
230
1.0
 70
    24
 71
     3
 72
     8
 73
     4
 74
     0
 42
0.0000000001
 43
0.0000000001
 40
0.0
 40
0.0
 40
0.0
 40
0.0
 40
1.0
 40
1.0
 40
1.0
 40
1.0
 10
-12.2278
 20
16.7037
 30
0.0
 10
-12.2278
 20
16.7037
 30
0.0
 10
-3.6182
 20
16.7037
 30
0.0
 10
-3.6182
 20
16.7037
 30
0.0
  0
SPLINE
  5
1A0
330
1F
100
AcDbEntity
  8
DEFAULT_1
 62
   250
100
AcDbSpline
210
0.0
220
0.0
230
1.0
 70
    24
 71
     3
 72
     8
 73
     4
 74
     0
 42
0.0000000001
 43
0.0000000001
 40
0.0
 40
0.0
 40
0.0
 40
0.0
 40
1.0
 40
1.0
 40
1.0
 40
1.0
 10
5.1894
 20
17.3228
 30
0.0
 10
5.1894
 20
17.3228
 30
0.0
 10
-3.1916
 20
17.3228
 30
0.0
 10
-3.1916
 20
17.3228
 30
0.0
  0
SPLINE
  5
1A1
330
1F
100
AcDbEntity
  8
DEFAULT_1
 62
   250
100
AcDbSpline
210
0.0
220
0.0
230
1.0
 70
    24
 71
     3
 72
     8
 73
     4
 74
     0
 42
0.0000000001
 43
0.0000000001
 40
0.0
 40
0.0
 40
0.0
 40
0.0
 40
1.0
 40
1.0
 40
1.0
 40
1.0
 10
-3.6182
 20
16.8359
 30
0.0
 10
-3.6182
 20
16.8359
 30
0.0
 10
-12.2278
 20
16.8359
 30
0.0
 10
-12.2278
 20
16.8359
 30
0.0
  0
SPLINE
  5
1A2
330
1F
100
AcDbEntity
  8
DEFAULT_1
 62
   250
100
AcDbSpline
210
0.0
220
0.0
230
1.0
 70
    24
 71
     3
 72
     8
 73
     4
 74
     0
 42
0.0000000001
 43
0.0000000001
 40
0.0
 40
0.0
 40
0.0
 40
0.0
 40
1.0
 40
1.0
 40
1.0
 40
1.0
 10
-12.2278
 20
17.3844
 30
0.0
 10
-12.2278
 20
17.3844
 30
0.0
 10
-3.6182
 20
17.3844
 30
0.0
 10
-3.6182
 20
17.3844
 30
0.0
  0
SPLINE
  5
1A3
330
1F
100
AcDbEntity
  8
DEFAULT_1
 62
   250
100
AcDbSpline
210
0.0
220
0.0
230
1.0
 70
    24
 71
     3
 72
     8
 73
     4
 74
     0
 42
0.0000000001
 43
0.0000000001
 40
0.0
 40
0.0
 40
0.0
 40
0.0
 40
1.0
 40
1.0
 40
1.0
 40
1.0
 10
-3.1916
 20
18.0036
 30
0.0
 10
-3.1916
 20
18.0036
 30
0.0
 10
5.1894
 20
18.0036
 30
0.0
 10
5.1894
 20
18.0036
 30
0.0
  0
SPLINE
  5
1A4
330
1F
100
AcDbEntity
  8
DEFAULT_1
 62
   250
100
AcDbSpline
210
0.0
220
0.0
230
1.0
 70
    24
 71
     3
 72
     8
 73
     4
 74
     0
 42
0.0000000001
 43
0.0000000001
 40
0.0
 40
0.0
 40
0.0
 40
0.0
 40
1.0
 40
1.0
 40
1.0
 40
1.0
 10
-3.1916
 20
18.2588
 30
0.0
 10
-3.1916
 20
18.2588
 30
0.0
 10
5.1894
 20
18.2588
 30
0.0
 10
5.1894
 20
18.2588
 30
0.0
  0
SPLINE
  5
1A5
330
1F
100
AcDbEntity
  8
DEFAULT_1
 62
   250
100
AcDbSpline
210
0.0
220
0.0
230
1.0
 70
    24
 71
     3
 72
     8
 73
     4
 74
     0
 42
0.0000000001
 43
0.0000000001
 40
0.0
 40
0.0
 40
0.0
 40
0.0
 40
1.0
 40
1.0
 40
1.0
 40
1.0
 10
-3.1916
 20
18.6842
 30
0.0
 10
-3.1916
 20
18.6842
 30
0.0
 10
5.1894
 20
18.6842
 30
0.0
 10
5.1894
 20
18.6842
 30
0.0
  0
SPLINE
  5
1A6
330
1F
100
AcDbEntity
  8
DEFAULT_1
 62
   250
100
AcDbSpline
210
0.0
220
0.0
230
1.0
 70
    24
 71
     3
 72
     8
 73
     4
 74
     0
 42
0.0000000001
 43
0.0000000001
 40
0.0
 40
0.0
 40
0.0
 40
0.0
 40
1.0
 40
1.0
 40
1.0
 40
1.0
 10
-3.1916
 20
18.9396
 30
0.0
 10
-3.1916
 20
18.9396
 30
0.0
 10
5.1894
 20
18.9396
 30
0.0
 10
5.1894
 20
18.9396
 30
0.0
  0
SPLINE
  5
1A7
330
1F
100
AcDbEntity
  8
DEFAULT_1
 62
   250
100
AcDbSpline
210
0.0
220
0.0
230
1.0
 70
    24
 71
     3
 72
     8
 73
     4
 74
     0
 42
0.0000000001
 43
0.0000000001
 40
0.0
 40
0.0
 40
0.0
 40
0.0
 40
1.0
 40
1.0
 40
1.0
 40
1.0
 10
-3.1916
 20
19.365
 30
0.0
 10
-3.1916
 20
19.365
 30
0.0
 10
5.1894
 20
19.365
 30
0.0
 10
5.1894
 20
19.365
 30
0.0
  0
SPLINE
  5
1A8
330
1F
100
AcDbEntity
  8
DEFAULT_1
 62
   250
100
AcDbSpline
210
0.0
220
0.0
230
1.0
 70
    24
 71
     3
 72
     8
 73
     4
 74
     0
 42
0.0000000001
 43
0.0000000001
 40
0.0
 40
0.0
 40
0.0
 40
0.0
 40
1.0
 40
1.0
 40
1.0
 40
1.0
 10
-3.1916
 20
19.6202
 30
0.0
 10
-3.1916
 20
19.6202
 30
0.0
 10
5.1894
 20
19.6202
 30
0.0
 10
5.1894
 20
19.6202
 30
0.0
  0
SPLINE
  5
1A9
330
1F
100
AcDbEntity
  8
DEFAULT_1
 62
   250
100
AcDbSpline
210
0.0
220
0.0
230
1.0
 70
    24
 71
     3
 72
     8
 73
     4
 74
     0
 42
0.0000000001
 43
0.0000000001
 40
0.0
 40
0.0
 40
0.0
 40
0.0
 40
1.0
 40
1.0
 40
1.0
 40
1.0
 10
-3.1916
 20
20.0456
 30
0.0
 10
-3.1916
 20
20.0456
 30
0.0
 10
5.1894
 20
20.0456
 30
0.0
 10
5.1894
 20
20.0456
 30
0.0
  0
SPLINE
  5
1AA
330
1F
100
AcDbEntity
  8
DEFAULT_1
 62
   250
100
AcDbSpline
210
0.0
220
0.0
230
1.0
 70
    24
 71
     3
 72
     8
 73
     4
 74
     0
 42
0.0000000001
 43
0.0000000001
 40
0.0
 40
0.0
 40
0.0
 40
0.0
 40
1.0
 40
1.0
 40
1.0
 40
1.0
 10
-3.1916
 20
20.3009
 30
0.0
 10
-3.1916
 20
20.3009
 30
0.0
 10
5.1894
 20
20.3009
 30
0.0
 10
5.1894
 20
20.3009
 30
0.0
  0
SPLINE
  5
1AB
330
1F
100
AcDbEntity
  8
DEFAULT_1
 62
   250
100
AcDbSpline
210
0.0
220
0.0
230
1.0
 70
    24
 71
     3
 72
     8
 73
     4
 74
     0
 42
0.0000000001
 43
0.0000000001
 40
0.0
 40
0.0
 40
0.0
 40
0.0
 40
1.0
 40
1.0
 40
1.0
 40
1.0
 10
-3.1916
 20
20.7263
 30
0.0
 10
-3.1916
 20
20.7263
 30
0.0
 10
5.1894
 20
20.7263
 30
0.0
 10
5.1894
 20
20.7263
 30
0.0
  0
SPLINE
  5
1AC
330
1F
100
AcDbEntity
  8
DEFAULT_1
 62
   250
100
AcDbSpline
210
0.0
220
0.0
230
1.0
 70
    24
 71
     3
 72
     8
 73
     4
 74
     0
 42
0.0000000001
 43
0.0000000001
 40
0.0
 40
0.0
 40
0.0
 40
0.0
 40
1.0
 40
1.0
 40
1.0
 40
1.0
 10
-3.1916
 20
20.9816
 30
0.0
 10
-3.1916
 20
20.9816
 30
0.0
 10
5.1894
 20
20.9816
 30
0.0
 10
5.1894
 20
20.9816
 30
0.0
  0
SPLINE
  5
1AD
330
1F
100
AcDbEntity
  8
DEFAULT_1
 62
   250
100
AcDbSpline
210
0.0
220
0.0
230
1.0
 70
    24
 71
     3
 72
     8
 73
     4
 74
     0
 42
0.0000000001
 43
0.0000000001
 40
0.0
 40
0.0
 40
0.0
 40
0.0
 40
1.0
 40
1.0
 40
1.0
 40
1.0
 10
-3.1916
 20
21.407
 30
0.0
 10
-3.1916
 20
21.407
 30
0.0
 10
5.1894
 20
21.407
 30
0.0
 10
5.1894
 20
21.407
 30
0.0
  0
SPLINE
  5
1AE
330
1F
100
AcDbEntity
  8
DEFAULT_1
 62
   250
100
AcDbSpline
210
0.0
220
0.0
230
1.0
 70
    24
 71
     3
 72
     8
 73
     4
 74
     0
 42
0.0000000001
 43
0.0000000001
 40
0.0
 40
0.0
 40
0.0
 40
0.0
 40
1.0
 40
1.0
 40
1.0
 40
1.0
 10
-3.1916
 20
21.6623
 30
0.0
 10
-3.1916
 20
21.6623
 30
0.0
 10
5.1894
 20
21.6623
 30
0.0
 10
5.1894
 20
21.6623
 30
0.0
  0
SPLINE
  5
1AF
330
1F
100
AcDbEntity
  8
DEFAULT_1
 62
   250
100
AcDbSpline
210
0.0
220
0.0
230
1.0
 70
    24
 71
     3
 72
     8
 73
     4
 74
     0
 42
0.0000000001
 43
0.0000000001
 40
0.0
 40
0.0
 40
0.0
 40
0.0
 40
1.0
 40
1.0
 40
1.0
 40
1.0
 10
-3.1916
 20
22.0877
 30
0.0
 10
-3.1916
 20
22.0877
 30
0.0
 10
5.1894
 20
22.0877
 30
0.0
 10
5.1894
 20
22.0877
 30
0.0
  0
SPLINE
  5
1B0
330
1F
100
AcDbEntity
  8
DEFAULT_1
 62
   250
100
AcDbSpline
210
0.0
220
0.0
230
1.0
 70
    24
 71
     3
 72
     8
 73
     4
 74
     0
 42
0.0000000001
 43
0.0000000001
 40
0.0
 40
0.0
 40
0.0
 40
0.0
 40
1.0
 40
1.0
 40
1.0
 40
1.0
 10
-3.1916
 20
22.343
 30
0.0
 10
-3.1916
 20
22.343
 30
0.0
 10
5.1894
 20
22.343
 30
0.0
 10
5.1894
 20
22.343
 30
0.0
  0
SPLINE
  5
1B1
330
1F
100
AcDbEntity
  8
DEFAULT_1
 62
   250
100
AcDbSpline
210
0.0
220
0.0
230
1.0
 70
    24
 71
     3
 72
     8
 73
     4
 74
     0
 42
0.0000000001
 43
0.0000000001
 40
0.0
 40
0.0
 40
0.0
 40
0.0
 40
1.0
 40
1.0
 40
1.0
 40
1.0
 10
-3.1916
 20
22.7684
 30
0.0
 10
-3.1916
 20
22.7684
 30
0.0
 10
5.1894
 20
22.7684
 30
0.0
 10
5.1894
 20
22.7684
 30
0.0
  0
SPLINE
  5
1B2
330
1F
100
AcDbEntity
  8
DEFAULT_1
 62
   250
100
AcDbSpline
210
0.0
220
0.0
230
1.0
 70
    24
 71
     3
 72
     8
 73
     4
 74
     0
 42
0.0000000001
 43
0.0000000001
 40
0.0
 40
0.0
 40
0.0
 40
0.0
 40
1.0
 40
1.0
 40
1.0
 40
1.0
 10
-3.1916
 20
23.0236
 30
0.0
 10
-3.1916
 20
23.0236
 30
0.0
 10
5.1894
 20
23.0236
 30
0.0
 10
5.1894
 20
23.0236
 30
0.0
  0
SPLINE
  5
1B3
330
1F
100
AcDbEntity
  8
DEFAULT_1
 62
   250
100
AcDbSpline
210
0.0
220
0.0
230
1.0
 70
    24
 71
     3
 72
     8
 73
     4
 74
     0
 42
0.0000000001
 43
0.0000000001
 40
0.0
 40
0.0
 40
0.0
 40
0.0
 40
1.0
 40
1.0
 40
1.0
 40
1.0
 10
-3.1916
 20
23.4491
 30
0.0
 10
-3.1916
 20
23.4491
 30
0.0
 10
5.1894
 20
23.4491
 30
0.0
 10
5.1894
 20
23.4491
 30
0.0
  0
SPLINE
  5
1B4
330
1F
100
AcDbEntity
  8
DEFAULT_1
 62
   250
100
AcDbSpline
210
0.0
220
0.0
230
1.0
 70
    24
 71
     3
 72
     8
 73
     4
 74
     0
 42
0.0000000001
 43
0.0000000001
 40
0.0
 40
0.0
 40
0.0
 40
0.0
 40
1.0
 40
1.0
 40
1.0
 40
1.0
 10
-3.1916
 20
23.7044
 30
0.0
 10
-3.1916
 20
23.7044
 30
0.0
 10
5.1894
 20
23.7044
 30
0.0
 10
5.1894
 20
23.7044
 30
0.0
  0
SPLINE
  5
1B5
330
1F
100
AcDbEntity
  8
DEFAULT_1
 62
   250
100
AcDbSpline
210
0.0
220
0.0
230
1.0
 70
    24
 71
     3
 72
     8
 73
     4
 74
     0
 42
0.0000000001
 43
0.0000000001
 40
0.0
 40
0.0
 40
0.0
 40
0.0
 40
1.0
 40
1.0
 40
1.0
 40
1.0
 10
-3.1916
 20
24.1298
 30
0.0
 10
-3.1916
 20
24.1298
 30
0.0
 10
5.1894
 20
24.1298
 30
0.0
 10
5.1894
 20
24.1298
 30
0.0
  0
SPLINE
  5
1B6
330
1F
100
AcDbEntity
  8
DEFAULT_1
 62
   250
100
AcDbSpline
210
0.0
220
0.0
230
1.0
 70
    24
 71
     3
 72
     8
 73
     4
 74
     0
 42
0.0000000001
 43
0.0000000001
 40
0.0
 40
0.0
 40
0.0
 40
0.0
 40
1.0
 40
1.0
 40
1.0
 40
1.0
 10
-3.1916
 20
24.3851
 30
0.0
 10
-3.1916
 20
24.3851
 30
0.0
 10
5.1894
 20
24.3851
 30
0.0
 10
5.1894
 20
24.3851
 30
0.0
  0
SPLINE
  5
1B7
330
1F
100
AcDbEntity
  8
DEFAULT_1
 62
   250
100
AcDbSpline
210
0.0
220
0.0
230
1.0
 70
    24
 71
     3
 72
     8
 73
     4
 74
     0
 42
0.0000000001
 43
0.0000000001
 40
0.0
 40
0.0
 40
0.0
 40
0.0
 40
1.0
 40
1.0
 40
1.0
 40
1.0
 10
-3.1916
 20
24.8105
 30
0.0
 10
-3.1916
 20
24.8105
 30
0.0
 10
5.1894
 20
24.8105
 30
0.0
 10
5.1894
 20
24.8105
 30
0.0
  0
SPLINE
  5
1B8
330
1F
100
AcDbEntity
  8
DEFAULT_1
 62
   250
100
AcDbSpline
210
0.0
220
0.0
230
1.0
 70
    24
 71
     3
 72
     8
 73
     4
 74
     0
 42
0.0000000001
 43
0.0000000001
 40
0.0
 40
0.0
 40
0.0
 40
0.0
 40
1.0
 40
1.0
 40
1.0
 40
1.0
 10
-3.1916
 20
25.0657
 30
0.0
 10
-3.1916
 20
25.0657
 30
0.0
 10
5.1894
 20
25.0657
 30
0.0
 10
5.1894
 20
25.0657
 30
0.0
  0
SPLINE
  5
1B9
330
1F
100
AcDbEntity
  8
DEFAULT_1
 62
   250
100
AcDbSpline
210
0.0
220
0.0
230
1.0
 70
    24
 71
     3
 72
     8
 73
     4
 74
     0
 42
0.0000000001
 43
0.0000000001
 40
0.0
 40
0.0
 40
0.0
 40
0.0
 40
1.0
 40
1.0
 40
1.0
 40
1.0
 10
5.1894
 20
25.4911
 30
0.0
 10
5.1894
 20
25.4911
 30
0.0
 10
-3.1916
 20
25.4911
 30
0.0
 10
-3.1916
 20
25.4911
 30
0.0
  0
SPLINE
  5
1BA
330
1F
100
AcDbEntity
  8
DEFAULT_1
 62
   250
100
AcDbSpline
210
0.0
220
0.0
230
1.0
 70
    24
 71
     3
 72
     8
 73
     4
 74
     0
 42
0.0000000001
 43
0.0000000001
 40
0.0
 40
0.0
 40
0.0
 40
0.0
 40
1.0
 40
1.0
 40
1.0
 40
1.0
 10
-3.617
 20
25.7464
 30
0.0
 10
-3.617
 20
25.7464
 30
0.0
 10
-11.9981
 20
25.7464
 30
0.0
 10
-11.9981
 20
25.7464
 30
0.0
  0
SPLINE
  5
1BB
330
1F
100
AcDbEntity
  8
DEFAULT_1
 62
   250
100
AcDbSpline
210
0.0
220
0.0
230
1.0
 70
    24
 71
     3
 72
     8
 73
     4
 74
     0
 42
0.0000000001
 43
0.0000000001
 40
0.0
 40
0.0
 40
0.0
 40
0.0
 40
1.0
 40
1.0
 40
1.0
 40
1.0
 10
-12.2278
 20
25.5528
 30
0.0
 10
-12.2278
 20
25.5528
 30
0.0
 10
-3.6182
 20
25.5528
 30
0.0
 10
-3.6182
 20
25.5528
 30
0.0
  0
SPLINE
  5
1BC
330
1F
100
AcDbEntity
  8
DEFAULT_1
 62
   250
100
AcDbSpline
210
0.0
220
0.0
230
1.0
 70
    24
 71
     3
 72
     8
 73
     4
 74
     0
 42
0.0000000001
 43
0.0000000001
 40
0.0
 40
0.0
 40
0.0
 40
0.0
 40
1.0
 40
1.0
 40
1.0
 40
1.0
 10
-3.617
 20
24.3851
 30
0.0
 10
-3.617
 20
24.3851
 30
0.0
 10
-11.9981
 20
24.3851
 30
0.0
 10
-11.9981
 20
24.3851
 30
0.0
  0
SPLINE
  5
1BD
330
1F
100
AcDbEntity
  8
DEFAULT_1
 62
   250
100
AcDbSpline
210
0.0
220
0.0
230
1.0
 70
    24
 71
     3
 72
     8
 73
     4
 74
     0
 42
0.0000000001
 43
0.0000000001
 40
0.0
 40
0.0
 40
0.0
 40
0.0
 40
1.0
 40
1.0
 40
1.0
 40
1.0
 10
-12.2278
 20
24.1914
 30
0.0
 10
-12.2278
 20
24.1914
 30
0.0
 10
-3.6182
 20
24.1914
 30
0.0
 10
-3.6182
 20
24.1914
 30
0.0
  0
SPLINE
  5
1BE
330
1F
100
AcDbEntity
  8
DEFAULT_1
 62
   250
100
AcDbSpline
210
0.0
220
0.0
230
1.0
 70
    24
 71
     3
 72
     8
 73
     4
 74
     0
 42
0.0000000001
 43
0.0000000001
 40
0.0
 40
0.0
 40
0.0
 40
0.0
 40
1.0
 40
1.0
 40
1.0
 40
1.0
 10
-3.6182
 20
24.8721
 30
0.0
 10
-3.6182
 20
24.8721
 30
0.0
 10
-12.2278
 20
24.8721
 30
0.0
 10
-12.2278
 20
24.8721
 30
0.0
  0
SPLINE
  5
1BF
330
1F
100
AcDbEntity
  8
DEFAULT_1
 62
   250
100
AcDbSpline
210
0.0
220
0.0
230
1.0
 70
    24
 71
     3
 72
     8
 73
     4
 74
     0
 42
0.0000000001
 43
0.0000000001
 40
0.0
 40
0.0
 40
0.0
 40
0.0
 40
1.0
 40
1.0
 40
1.0
 40
1.0
 10
-3.6182
 20
25.0042
 30
0.0
 10
-3.6182
 20
25.0042
 30
0.0
 10
-12.2278
 20
25.0042
 30
0.0
 10
-12.2278
 20
25.0042
 30
0.0
  0
SPLINE
  5
1C0
330
1F
100
AcDbEntity
  8
DEFAULT_1
 62
   250
100
AcDbSpline
210
0.0
220
0.0
230
1.0
 70
    24
 71
     3
 72
     8
 73
     4
 74
     0
 42
0.0000000001
 43
0.0000000001
 40
0.0
 40
0.0
 40
0.0
 40
0.0
 40
1.0
 40
1.0
 40
1.0
 40
1.0
 10
-11.9981
 20
24.8105
 30
0.0
 10
-11.9981
 20
24.8105
 30
0.0
 10
-3.617
 20
24.8105
 30
0.0
 10
-3.617
 20
24.8105
 30
0.0
  0
SPLINE
  5
1C1
330
1F
100
AcDbEntity
  8
DEFAULT_1
 62
   250
100
AcDbSpline
210
0.0
220
0.0
230
1.0
 70
    24
 71
     3
 72
     8
 73
     4
 74
     0
 42
0.0000000001
 43
0.0000000001
 40
0.0
 40
0.0
 40
0.0
 40
0.0
 40
1.0
 40
1.0
 40
1.0
 40
1.0
 10
-12.2278
 20
25.6849
 30
0.0
 10
-12.2278
 20
25.6849
 30
0.0
 10
-3.6182
 20
25.6849
 30
0.0
 10
-3.6182
 20
25.6849
 30
0.0
  0
SPLINE
  5
1C2
330
1F
100
AcDbEntity
  8
DEFAULT_1
 62
   250
100
AcDbSpline
210
0.0
220
0.0
230
1.0
 70
    24
 71
     3
 72
     8
 73
     4
 74
     0
 42
0.0000000001
 43
0.0000000001
 40
0.0
 40
0.0
 40
0.0
 40
0.0
 40
1.0
 40
1.0
 40
1.0
 40
1.0
 10
5.1894
 20
26.8526
 30
0.0
 10
5.1894
 20
26.8526
 30
0.0
 10
-11.9981
 20
26.8526
 30
0.0
 10
-11.9981
 20
26.8526
 30
0.0
  0
SPLINE
  5
1C3
330
1F
100
AcDbEntity
  8
DEFAULT_1
 62
   250
100
AcDbSpline
210
0.0
220
0.0
230
1.0
 70
    24
 71
     3
 72
     8
 73
     4
 74
     0
 42
0.0000000001
 43
0.0000000001
 40
0.0
 40
0.0
 40
0.0
 40
0.0
 40
1.0
 40
1.0
 40
1.0
 40
1.0
 10
-3.6182
 20
26.2334
 30
0.0
 10
-3.6182
 20
26.2334
 30
0.0
 10
-12.2278
 20
26.2334
 30
0.0
 10
-12.2278
 20
26.2334
 30
0.0
  0
SPLINE
  5
1C4
330
1F
100
AcDbEntity
  8
DEFAULT_1
 62
   250
100
AcDbSpline
210
0.0
220
0.0
230
1.0
 70
    24
 71
     3
 72
     8
 73
     4
 74
     0
 42
0.0000000001
 43
0.0000000001
 40
0.0
 40
0.0
 40
0.0
 40
0.0
 40
1.0
 40
1.0
 40
1.0
 40
1.0
 10
-11.9981
 20
26.4272
 30
0.0
 10
-11.9981
 20
26.4272
 30
0.0
 10
-3.617
 20
26.4272
 30
0.0
 10
-3.617
 20
26.4272
 30
0.0
  0
SPLINE
  5
1C5
330
1F
100
AcDbEntity
  8
DEFAULT_1
 62
   250
100
AcDbSpline
210
0.0
220
0.0
230
1.0
 70
    24
 71
     3
 72
     8
 73
     4
 74
     0
 42
0.0000000001
 43
0.0000000001
 40
0.0
 40
0.0
 40
0.0
 40
0.0
 40
1.0
 40
1.0
 40
1.0
 40
1.0
 10
-3.1916
 20
26.4272
 30
0.0
 10
-3.1916
 20
26.4272
 30
0.0
 10
5.1894
 20
26.4272
 30
0.0
 10
5.1894
 20
26.4272
 30
0.0
  0
SPLINE
  5
1C6
330
1F
100
AcDbEntity
  8
DEFAULT_1
 62
   250
100
AcDbSpline
210
0.0
220
0.0
230
1.0
 70
    24
 71
     3
 72
     8
 73
     4
 74
     0
 42
0.0000000001
 43
0.0000000001
 40
0.0
 40
0.0
 40
0.0
 40
0.0
 40
1.0
 40
1.0
 40
1.0
 40
1.0
 10
-3.617
 20
25.0657
 30
0.0
 10
-3.617
 20
25.0657
 30
0.0
 10
-11.9981
 20
25.0657
 30
0.0
 10
-11.9981
 20
25.0657
 30
0.0
  0
SPLINE
  5
1C7
330
1F
100
AcDbEntity
  8
DEFAULT_1
 62
   250
100
AcDbSpline
210
0.0
220
0.0
230
1.0
 70
    24
 71
     3
 72
     8
 73
     4
 74
     0
 42
0.0000000001
 43
0.0000000001
 40
0.0
 40
0.0
 40
0.0
 40
0.0
 40
1.0
 40
1.0
 40
1.0
 40
1.0
 10
-3.617
 20
25.4911
 30
0.0
 10
-3.617
 20
25.4911
 30
0.0
 10
-11.9981
 20
25.4911
 30
0.0
 10
-11.9981
 20
25.4911
 30
0.0
  0
SPLINE
  5
1C8
330
1F
100
AcDbEntity
  8
DEFAULT_1
 62
   250
100
AcDbSpline
210
0.0
220
0.0
230
1.0
 70
    24
 71
     3
 72
     8
 73
     4
 74
     0
 42
0.0000000001
 43
0.0000000001
 40
0.0
 40
0.0
 40
0.0
 40
0.0
 40
1.0
 40
1.0
 40
1.0
 40
1.0
 10
-3.617
 20
26.1719
 30
0.0
 10
-3.617
 20
26.1719
 30
0.0
 10
-11.9981
 20
26.1719
 30
0.0
 10
-11.9981
 20
26.1719
 30
0.0
  0
SPLINE
  5
1C9
330
1F
100
AcDbEntity
  8
DEFAULT_1
 62
   250
100
AcDbSpline
210
0.0
220
0.0
230
1.0
 70
    24
 71
     3
 72
     8
 73
     4
 74
     0
 42
0.0000000001
 43
0.0000000001
 40
0.0
 40
0.0
 40
0.0
 40
0.0
 40
1.0
 40
1.0
 40
1.0
 40
1.0
 10
-12.2278
 20
24.3235
 30
0.0
 10
-12.2278
 20
24.3235
 30
0.0
 10
-3.6182
 20
24.3235
 30
0.0
 10
-3.6182
 20
24.3235
 30
0.0
  0
SPLINE
  5
1CA
330
1F
100
AcDbEntity
  8
DEFAULT_1
 62
   250
100
AcDbSpline
210
0.0
220
0.0
230
1.0
 70
    24
 71
     3
 72
     8
 73
     4
 74
     0
 42
0.0000000001
 43
0.0000000001
 40
0.0
 40
0.0
 40
0.0
 40
0.0
 40
1.0
 40
1.0
 40
1.0
 40
1.0
 10
-3.6182
 20
22.2814
 30
0.0
 10
-3.6182
 20
22.2814
 30
0.0
 10
-12.2278
 20
22.2814
 30
0.0
 10
-12.2278
 20
22.2814
 30
0.0
  0
SPLINE
  5
1CB
330
1F
100
AcDbEntity
  8
DEFAULT_1
 62
   250
100
AcDbSpline
210
0.0
220
0.0
230
1.0
 70
    24
 71
     3
 72
     8
 73
     4
 74
     0
 42
0.0000000001
 43
0.0000000001
 40
0.0
 40
0.0
 40
0.0
 40
0.0
 40
1.0
 40
1.0
 40
1.0
 40
1.0
 10
-12.2278
 20
22.1493
 30
0.0
 10
-12.2278
 20
22.1493
 30
0.0
 10
-3.6182
 20
22.1493
 30
0.0
 10
-3.6182
 20
22.1493
 30
0.0
  0
SPLINE
  5
1CC
330
1F
100
AcDbEntity
  8
DEFAULT_1
 62
   250
100
AcDbSpline
210
0.0
220
0.0
230
1.0
 70
    24
 71
     3
 72
     8
 73
     4
 74
     0
 42
0.0000000001
 43
0.0000000001
 40
0.0
 40
0.0
 40
0.0
 40
0.0
 40
1.0
 40
1.0
 40
1.0
 40
1.0
 10
-3.6182
 20
22.9622
 30
0.0
 10
-3.6182
 20
22.9622
 30
0.0
 10
-12.2278
 20
22.9622
 30
0.0
 10
-12.2278
 20
22.9622
 30
0.0
  0
SPLINE
  5
1CD
330
1F
100
AcDbEntity
  8
DEFAULT_1
 62
   250
100
AcDbSpline
210
0.0
220
0.0
230
1.0
 70
    24
 71
     3
 72
     8
 73
     4
 74
     0
 42
0.0000000001
 43
0.0000000001
 40
0.0
 40
0.0
 40
0.0
 40
0.0
 40
1.0
 40
1.0
 40
1.0
 40
1.0
 10
-12.2278
 20
23.5106
 30
0.0
 10
-12.2278
 20
23.5106
 30
0.0
 10
-3.6182
 20
23.5106
 30
0.0
 10
-3.6182
 20
23.5106
 30
0.0
  0
SPLINE
  5
1CE
330
1F
100
AcDbEntity
  8
DEFAULT_1
 62
   250
100
AcDbSpline
210
0.0
220
0.0
230
1.0
 70
    24
 71
     3
 72
     8
 73
     4
 74
     0
 42
0.0000000001
 43
0.0000000001
 40
0.0
 40
0.0
 40
0.0
 40
0.0
 40
1.0
 40
1.0
 40
1.0
 40
1.0
 10
-11.9981
 20
23.4491
 30
0.0
 10
-11.9981
 20
23.4491
 30
0.0
 10
-3.617
 20
23.4491
 30
0.0
 10
-3.617
 20
23.4491
 30
0.0
  0
SPLINE
  5
1CF
330
1F
100
AcDbEntity
  8
DEFAULT_1
 62
   250
100
AcDbSpline
210
0.0
220
0.0
230
1.0
 70
    24
 71
     3
 72
     8
 73
     4
 74
     0
 42
0.0000000001
 43
0.0000000001
 40
0.0
 40
0.0
 40
0.0
 40
0.0
 40
1.0
 40
1.0
 40
1.0
 40
1.0
 10
-12.2278
 20
22.83
 30
0.0
 10
-12.2278
 20
22.83
 30
0.0
 10
-3.6182
 20
22.83
 30
0.0
 10
-3.6182
 20
22.83
 30
0.0
  0
SPLINE
  5
1D0
330
1F
100
AcDbEntity
  8
DEFAULT_1
 62
   250
100
AcDbSpline
210
0.0
220
0.0
230
1.0
 70
    24
 71
     3
 72
     8
 73
     4
 74
     0
 42
0.0000000001
 43
0.0000000001
 40
0.0
 40
0.0
 40
0.0
 40
0.0
 40
1.0
 40
1.0
 40
1.0
 40
1.0
 10
-3.617
 20
22.7684
 30
0.0
 10
-3.617
 20
22.7684
 30
0.0
 10
-11.9981
 20
22.7684
 30
0.0
 10
-11.9981
 20
22.7684
 30
0.0
  0
SPLINE
  5
1D1
330
1F
100
AcDbEntity
  8
DEFAULT_1
 62
   250
100
AcDbSpline
210
0.0
220
0.0
230
1.0
 70
    24
 71
     3
 72
     8
 73
     4
 74
     0
 42
0.0000000001
 43
0.0000000001
 40
0.0
 40
0.0
 40
0.0
 40
0.0
 40
1.0
 40
1.0
 40
1.0
 40
1.0
 10
-11.9981
 20
22.343
 30
0.0
 10
-11.9981
 20
22.343
 30
0.0
 10
-3.617
 20
22.343
 30
0.0
 10
-3.617
 20
22.343
 30
0.0
  0
SPLINE
  5
1D2
330
1F
100
AcDbEntity
  8
DEFAULT_1
 62
   250
100
AcDbSpline
210
0.0
220
0.0
230
1.0
 70
    24
 71
     3
 72
     8
 73
     4
 74
     0
 42
0.0000000001
 43
0.0000000001
 40
0.0
 40
0.0
 40
0.0
 40
0.0
 40
1.0
 40
1.0
 40
1.0
 40
1.0
 10
-11.9981
 20
22.0877
 30
0.0
 10
-11.9981
 20
22.0877
 30
0.0
 10
-3.617
 20
22.0877
 30
0.0
 10
-3.617
 20
22.0877
 30
0.0
  0
SPLINE
  5
1D3
330
1F
100
AcDbEntity
  8
DEFAULT_1
 62
   250
100
AcDbSpline
210
0.0
220
0.0
230
1.0
 70
    24
 71
     3
 72
     8
 73
     4
 74
     0
 42
0.0000000001
 43
0.0000000001
 40
0.0
 40
0.0
 40
0.0
 40
0.0
 40
1.0
 40
1.0
 40
1.0
 40
1.0
 10
-3.6182
 20
23.6428
 30
0.0
 10
-3.6182
 20
23.6428
 30
0.0
 10
-12.2278
 20
23.6428
 30
0.0
 10
-12.2278
 20
23.6428
 30
0.0
  0
SPLINE
  5
1D4
330
1F
100
AcDbEntity
  8
DEFAULT_1
 62
   250
100
AcDbSpline
210
0.0
220
0.0
230
1.0
 70
    24
 71
     3
 72
     8
 73
     4
 74
     0
 42
0.0000000001
 43
0.0000000001
 40
0.0
 40
0.0
 40
0.0
 40
0.0
 40
1.0
 40
1.0
 40
1.0
 40
1.0
 10
-3.617
 20
24.1298
 30
0.0
 10
-3.617
 20
24.1298
 30
0.0
 10
-11.9981
 20
24.1298
 30
0.0
 10
-11.9981
 20
24.1298
 30
0.0
  0
SPLINE
  5
1D5
330
1F
100
AcDbEntity
  8
DEFAULT_1
 62
   250
100
AcDbSpline
210
0.0
220
0.0
230
1.0
 70
    24
 71
     3
 72
     8
 73
     4
 74
     0
 42
0.0000000001
 43
0.0000000001
 40
0.0
 40
0.0
 40
0.0
 40
0.0
 40
1.0
 40
1.0
 40
1.0
 40
1.0
 10
-3.617
 20
23.7044
 30
0.0
 10
-3.617
 20
23.7044
 30
0.0
 10
-11.9981
 20
23.7044
 30
0.0
 10
-11.9981
 20
23.7044
 30
0.0
  0
SPLINE
  5
1D6
330
1F
100
AcDbEntity
  8
DEFAULT_1
 62
   250
100
AcDbSpline
210
0.0
220
0.0
230
1.0
 70
    24
 71
     3
 72
     8
 73
     4
 74
     0
 42
0.0000000001
 43
0.0000000001
 40
0.0
 40
0.0
 40
0.0
 40
0.0
 40
1.0
 40
1.0
 40
1.0
 40
1.0
 10
-3.617
 20
23.0236
 30
0.0
 10
-3.617
 20
23.0236
 30
0.0
 10
-11.9981
 20
23.0236
 30
0.0
 10
-11.9981
 20
23.0236
 30
0.0
  0
SPLINE
  5
1D7
330
1F
100
AcDbEntity
  8
DEFAULT_1
 62
   250
100
AcDbSpline
210
0.0
220
0.0
230
1.0
 70
    24
 71
     3
 72
     8
 73
     4
 74
     0
 42
0.0000000001
 43
0.0000000001
 40
0.0
 40
0.0
 40
0.0
 40
0.0
 40
1.0
 40
1.0
 40
1.0
 40
1.0
 10
-12.2278
 20
21.4685
 30
0.0
 10
-12.2278
 20
21.4685
 30
0.0
 10
-3.6182
 20
21.4685
 30
0.0
 10
-3.6182
 20
21.4685
 30
0.0
  0
SPLINE
  5
1D8
330
1F
100
AcDbEntity
  8
DEFAULT_1
 62
   250
100
AcDbSpline
210
0.0
220
0.0
230
1.0
 70
    24
 71
     3
 72
     8
 73
     4
 74
     0
 42
0.0000000001
 43
0.0000000001
 40
0.0
 40
0.0
 40
0.0
 40
0.0
 40
1.0
 40
1.0
 40
1.0
 40
1.0
 10
-3.1916
 20
20.7263
 30
0.0
 10
-3.1916
 20
20.7263
 30
0.0
 10
-3.1916
 20
20.9816
 30
0.0
 10
-3.1916
 20
20.9816
 30
0.0
  0
SPLINE
  5
1D9
330
1F
100
AcDbEntity
  8
DEFAULT_1
 62
   250
100
AcDbSpline
210
0.0
220
0.0
230
1.0
 70
    24
 71
     3
 72
     8
 73
     4
 74
     0
 42
0.0000000001
 43
0.0000000001
 40
0.0
 40
0.0
 40
0.0
 40
0.0
 40
1.0
 40
1.0
 40
1.0
 40
1.0
 10
-11.9981
 20
21.407
 30
0.0
 10
-11.9981
 20
21.407
 30
0.0
 10
-3.617
 20
21.407
 30
0.0
 10
-3.617
 20
21.407
 30
0.0
  0
SPLINE
  5
1DA
330
1F
100
AcDbEntity
  8
DEFAULT_1
 62
   250
100
AcDbSpline
210
0.0
220
0.0
230
1.0
 70
    24
 71
     3
 72
     8
 73
     4
 74
     0
 42
0.0000000001
 43
0.0000000001
 40
0.0
 40
0.0
 40
0.0
 40
0.0
 40
1.0
 40
1.0
 40
1.0
 40
1.0
 10
-12.2278
 20
20.1072
 30
0.0
 10
-12.2278
 20
20.1072
 30
0.0
 10
-3.6182
 20
20.1072
 30
0.0
 10
-3.6182
 20
20.1072
 30
0.0
  0
SPLINE
  5
1DB
330
1F
100
AcDbEntity
  8
DEFAULT_1
 62
   250
100
AcDbSpline
210
0.0
220
0.0
230
1.0
 70
    24
 71
     3
 72
     8
 73
     4
 74
     0
 42
0.0000000001
 43
0.0000000001
 40
0.0
 40
0.0
 40
0.0
 40
0.0
 40
1.0
 40
1.0
 40
1.0
 40
1.0
 10
-3.617
 20
18.9396
 30
0.0
 10
-3.617
 20
18.9396
 30
0.0
 10
-11.9981
 20
18.9396
 30
0.0
 10
-11.9981
 20
18.9396
 30
0.0
  0
SPLINE
  5
1DC
330
1F
100
AcDbEntity
  8
DEFAULT_1
 62
   250
100
AcDbSpline
210
0.0
220
0.0
230
1.0
 70
    24
 71
     3
 72
     8
 73
     4
 74
     0
 42
0.0000000001
 43
0.0000000001
 40
0.0
 40
0.0
 40
0.0
 40
0.0
 40
1.0
 40
1.0
 40
1.0
 40
1.0
 10
-12.2278
 20
18.7458
 30
0.0
 10
-12.2278
 20
18.7458
 30
0.0
 10
-3.6182
 20
18.7458
 30
0.0
 10
-3.6182
 20
18.7458
 30
0.0
  0
SPLINE
  5
1DD
330
1F
100
AcDbEntity
  8
DEFAULT_1
 62
   250
100
AcDbSpline
210
0.0
220
0.0
230
1.0
 70
    24
 71
     3
 72
     8
 73
     4
 74
     0
 42
0.0000000001
 43
0.0000000001
 40
0.0
 40
0.0
 40
0.0
 40
0.0
 40
1.0
 40
1.0
 40
1.0
 40
1.0
 10
-12.2278
 20
19.4265
 30
0.0
 10
-12.2278
 20
19.4265
 30
0.0
 10
-3.6182
 20
19.4265
 30
0.0
 10
-3.6182
 20
19.4265
 30
0.0
  0
SPLINE
  5
1DE
330
1F
100
AcDbEntity
  8
DEFAULT_1
 62
   250
100
AcDbSpline
210
0.0
220
0.0
230
1.0
 70
    24
 71
     3
 72
     8
 73
     4
 74
     0
 42
0.0000000001
 43
0.0000000001
 40
0.0
 40
0.0
 40
0.0
 40
0.0
 40
1.0
 40
1.0
 40
1.0
 40
1.0
 10
-12.2278
 20
19.5587
 30
0.0
 10
-12.2278
 20
19.5587
 30
0.0
 10
-3.6182
 20
19.5587
 30
0.0
 10
-3.6182
 20
19.5587
 30
0.0
  0
SPLINE
  5
1DF
330
1F
100
AcDbEntity
  8
DEFAULT_1
 62
   250
100
AcDbSpline
210
0.0
220
0.0
230
1.0
 70
    24
 71
     3
 72
     8
 73
     4
 74
     0
 42
0.0000000001
 43
0.0000000001
 40
0.0
 40
0.0
 40
0.0
 40
0.0
 40
1.0
 40
1.0
 40
1.0
 40
1.0
 10
-3.6182
 20
18.8779
 30
0.0
 10
-3.6182
 20
18.8779
 30
0.0
 10
-12.2278
 20
18.8779
 30
0.0
 10
-12.2278
 20
18.8779
 30
0.0
  0
SPLINE
  5
1E0
330
1F
100
AcDbEntity
  8
DEFAULT_1
 62
   250
100
AcDbSpline
210
0.0
220
0.0
230
1.0
 70
    24
 71
     3
 72
     8
 73
     4
 74
     0
 42
0.0000000001
 43
0.0000000001
 40
0.0
 40
0.0
 40
0.0
 40
0.0
 40
1.0
 40
1.0
 40
1.0
 40
1.0
 10
-3.617
 20
18.6842
 30
0.0
 10
-3.617
 20
18.6842
 30
0.0
 10
-11.9981
 20
18.6842
 30
0.0
 10
-11.9981
 20
18.6842
 30
0.0
  0
SPLINE
  5
1E1
330
1F
100
AcDbEntity
  8
DEFAULT_1
 62
   250
100
AcDbSpline
210
0.0
220
0.0
230
1.0
 70
    24
 71
     3
 72
     8
 73
     4
 74
     0
 42
0.0000000001
 43
0.0000000001
 40
0.0
 40
0.0
 40
0.0
 40
0.0
 40
1.0
 40
1.0
 40
1.0
 40
1.0
 10
-12.2278
 20
18.0651
 30
0.0
 10
-12.2278
 20
18.0651
 30
0.0
 10
-3.6182
 20
18.0651
 30
0.0
 10
-3.6182
 20
18.0651
 30
0.0
  0
SPLINE
  5
1E2
330
1F
100
AcDbEntity
  8
DEFAULT_1
 62
   250
100
AcDbSpline
210
0.0
220
0.0
230
1.0
 70
    24
 71
     3
 72
     8
 73
     4
 74
     0
 42
0.0000000001
 43
0.0000000001
 40
0.0
 40
0.0
 40
0.0
 40
0.0
 40
1.0
 40
1.0
 40
1.0
 40
1.0
 10
-3.617
 20
18.0036
 30
0.0
 10
-3.617
 20
18.0036
 30
0.0
 10
-11.9981
 20
18.0036
 30
0.0
 10
-11.9981
 20
18.0036
 30
0.0
  0
SPLINE
  5
1E3
330
1F
100
AcDbEntity
  8
DEFAULT_1
 62
   250
100
AcDbSpline
210
0.0
220
0.0
230
1.0
 70
    24
 71
     3
 72
     8
 73
     4
 74
     0
 42
0.0000000001
 43
0.0000000001
 40
0.0
 40
0.0
 40
0.0
 40
0.0
 40
1.0
 40
1.0
 40
1.0
 40
1.0
 10
-3.6182
 20
18.1973
 30
0.0
 10
-3.6182
 20
18.1973
 30
0.0
 10
-12.2278
 20
18.1973
 30
0.0
 10
-12.2278
 20
18.1973
 30
0.0
  0
SPLINE
  5
1E4
330
1F
100
AcDbEntity
  8
DEFAULT_1
 62
   250
100
AcDbSpline
210
0.0
220
0.0
230
1.0
 70
    24
 71
     3
 72
     8
 73
     4
 74
     0
 42
0.0000000001
 43
0.0000000001
 40
0.0
 40
0.0
 40
0.0
 40
0.0
 40
1.0
 40
1.0
 40
1.0
 40
1.0
 10
-11.9981
 20
17.5781
 30
0.0
 10
-11.9981
 20
17.5781
 30
0.0
 10
-3.617
 20
17.5781
 30
0.0
 10
-3.617
 20
17.5781
 30
0.0
  0
SPLINE
  5
1E5
330
1F
100
AcDbEntity
  8
DEFAULT_1
 62
   250
100
AcDbSpline
210
0.0
220
0.0
230
1.0
 70
    24
 71
     3
 72
     8
 73
     4
 74
     0
 42
0.0000000001
 43
0.0000000001
 40
0.0
 40
0.0
 40
0.0
 40
0.0
 40
1.0
 40
1.0
 40
1.0
 40
1.0
 10
-3.1916
 20
17.5781
 30
0.0
 10
-3.1916
 20
17.5781
 30
0.0
 10
5.1894
 20
17.5781
 30
0.0
 10
5.1894
 20
17.5781
 30
0.0
  0
SPLINE
  5
1E6
330
1F
100
AcDbEntity
  8
DEFAULT_1
 62
   250
100
AcDbSpline
210
0.0
220
0.0
230
1.0
 70
    24
 71
     3
 72
     8
 73
     4
 74
     0
 42
0.0000000001
 43
0.0000000001
 40
0.0
 40
0.0
 40
0.0
 40
0.0
 40
1.0
 40
1.0
 40
1.0
 40
1.0
 10
-11.9981
 20
19.365
 30
0.0
 10
-11.9981
 20
19.365
 30
0.0
 10
-3.617
 20
19.365
 30
0.0
 10
-3.617
 20
19.365
 30
0.0
  0
SPLINE
  5
1E7
330
1F
100
AcDbEntity
  8
DEFAULT_1
 62
   250
100
AcDbSpline
210
0.0
220
0.0
230
1.0
 70
    24
 71
     3
 72
     8
 73
     4
 74
     0
 42
0.0000000001
 43
0.0000000001
 40
0.0
 40
0.0
 40
0.0
 40
0.0
 40
1.0
 40
1.0
 40
1.0
 40
1.0
 10
-3.617
 20
19.6202
 30
0.0
 10
-3.617
 20
19.6202
 30
0.0
 10
-11.9981
 20
19.6202
 30
0.0
 10
-11.9981
 20
19.6202
 30
0.0
  0
SPLINE
  5
1E8
330
1F
100
AcDbEntity
  8
DEFAULT_1
 62
   250
100
AcDbSpline
210
0.0
220
0.0
230
1.0
 70
    24
 71
     3
 72
     8
 73
     4
 74
     0
 42
0.0000000001
 43
0.0000000001
 40
0.0
 40
0.0
 40
0.0
 40
0.0
 40
1.0
 40
1.0
 40
1.0
 40
1.0
 10
-3.6182
 20
20.2393
 30
0.0
 10
-3.6182
 20
20.2393
 30
0.0
 10
-12.2278
 20
20.2393
 30
0.0
 10
-12.2278
 20
20.2393
 30
0.0
  0
SPLINE
  5
1E9
330
1F
100
AcDbEntity
  8
DEFAULT_1
 62
   250
100
AcDbSpline
210
0.0
220
0.0
230
1.0
 70
    24
 71
     3
 72
     8
 73
     4
 74
     0
 42
0.0000000001
 43
0.0000000001
 40
0.0
 40
0.0
 40
0.0
 40
0.0
 40
1.0
 40
1.0
 40
1.0
 40
1.0
 10
-12.2278
 20
20.7879
 30
0.0
 10
-12.2278
 20
20.7879
 30
0.0
 10
-3.6182
 20
20.7879
 30
0.0
 10
-3.6182
 20
20.7879
 30
0.0
  0
SPLINE
  5
1EA
330
1F
100
AcDbEntity
  8
DEFAULT_1
 62
   250
100
AcDbSpline
210
0.0
220
0.0
230
1.0
 70
    24
 71
     3
 72
     8
 73
     4
 74
     0
 42
0.0000000001
 43
0.0000000001
 40
0.0
 40
0.0
 40
0.0
 40
0.0
 40
1.0
 40
1.0
 40
1.0
 40
1.0
 10
-3.617
 20
20.9816
 30
0.0
 10
-3.617
 20
20.9816
 30
0.0
 10
-11.9981
 20
20.9816
 30
0.0
 10
-11.9981
 20
20.9816
 30
0.0
  0
SPLINE
  5
1EB
330
1F
100
AcDbEntity
  8
DEFAULT_1
 62
   250
100
AcDbSpline
210
0.0
220
0.0
230
1.0
 70
    24
 71
     3
 72
     8
 73
     4
 74
     0
 42
0.0000000001
 43
0.0000000001
 40
0.0
 40
0.0
 40
0.0
 40
0.0
 40
1.0
 40
1.0
 40
1.0
 40
1.0
 10
-12.2278
 20
21.6007
 30
0.0
 10
-12.2278
 20
21.6007
 30
0.0
 10
-3.6182
 20
21.6007
 30
0.0
 10
-3.6182
 20
21.6007
 30
0.0
  0
SPLINE
  5
1EC
330
1F
100
AcDbEntity
  8
DEFAULT_1
 62
   250
100
AcDbSpline
210
0.0
220
0.0
230
1.0
 70
    24
 71
     3
 72
     8
 73
     4
 74
     0
 42
0.0000000001
 43
0.0000000001
 40
0.0
 40
0.0
 40
0.0
 40
0.0
 40
1.0
 40
1.0
 40
1.0
 40
1.0
 10
-11.9981
 20
21.6623
 30
0.0
 10
-11.9981
 20
21.6623
 30
0.0
 10
-3.617
 20
21.6623
 30
0.0
 10
-3.617
 20
21.6623
 30
0.0
  0
SPLINE
  5
1ED
330
1F
100
AcDbEntity
  8
DEFAULT_1
 62
   250
100
AcDbSpline
210
0.0
220
0.0
230
1.0
 70
    24
 71
     3
 72
     8
 73
     4
 74
     0
 42
0.0000000001
 43
0.0000000001
 40
0.0
 40
0.0
 40
0.0
 40
0.0
 40
1.0
 40
1.0
 40
1.0
 40
1.0
 10
-12.2278
 20
20.9201
 30
0.0
 10
-12.2278
 20
20.9201
 30
0.0
 10
-3.6182
 20
20.9201
 30
0.0
 10
-3.6182
 20
20.9201
 30
0.0
  0
SPLINE
  5
1EE
330
1F
100
AcDbEntity
  8
DEFAULT_1
 62
   250
100
AcDbSpline
210
0.0
220
0.0
230
1.0
 70
    24
 71
     3
 72
     8
 73
     4
 74
     0
 42
0.0000000001
 43
0.0000000001
 40
0.0
 40
0.0
 40
0.0
 40
0.0
 40
1.0
 40
1.0
 40
1.0
 40
1.0
 10
-11.9981
 20
20.7263
 30
0.0
 10
-11.9981
 20
20.7263
 30
0.0
 10
-3.617
 20
20.7263
 30
0.0
 10
-3.617
 20
20.7263
 30
0.0
  0
SPLINE
  5
1EF
330
1F
100
AcDbEntity
  8
DEFAULT_1
 62
   250
100
AcDbSpline
210
0.0
220
0.0
230
1.0
 70
    24
 71
     3
 72
     8
 73
     4
 74
     0
 42
0.0000000001
 43
0.0000000001
 40
0.0
 40
0.0
 40
0.0
 40
0.0
 40
1.0
 40
1.0
 40
1.0
 40
1.0
 10
-11.9981
 20
20.3009
 30
0.0
 10
-11.9981
 20
20.3009
 30
0.0
 10
-3.617
 20
20.3009
 30
0.0
 10
-3.617
 20
20.3009
 30
0.0
  0
SPLINE
  5
1F0
330
1F
100
AcDbEntity
  8
DEFAULT_1
 62
   250
100
AcDbSpline
210
0.0
220
0.0
230
1.0
 70
    24
 71
     3
 72
     8
 73
     4
 74
     0
 42
0.0000000001
 43
0.0000000001
 40
0.0
 40
0.0
 40
0.0
 40
0.0
 40
1.0
 40
1.0
 40
1.0
 40
1.0
 10
-11.9981
 20
20.0456
 30
0.0
 10
-11.9981
 20
20.0456
 30
0.0
 10
-3.617
 20
20.0456
 30
0.0
 10
-3.617
 20
20.0456
 30
0.0
  0
SPLINE
  5
1F1
330
1F
100
AcDbEntity
  8
DEFAULT_1
 62
   250
100
AcDbSpline
210
0.0
220
0.0
230
1.0
 70
    24
 71
     3
 72
     8
 73
     4
 74
     0
 42
0.0000000001
 43
0.0000000001
 40
0.0
 40
0.0
 40
0.0
 40
0.0
 40
1.0
 40
1.0
 40
1.0
 40
1.0
 10
-11.9981
 20
18.2588
 30
0.0
 10
-11.9981
 20
18.2588
 30
0.0
 10
-3.617
 20
18.2588
 30
0.0
 10
-3.617
 20
18.2588
 30
0.0
  0
SPLINE
  5
1F2
330
1F
100
AcDbEntity
  8
DEFAULT_1
 62
   250
100
AcDbSpline
210
0.0
220
0.0
230
1.0
 70
    24
 71
     3
 72
     8
 73
     4
 74
     0
 42
0.0000000001
 43
0.0000000001
 40
0.0
 40
0.0
 40
0.0
 40
0.0
 40
1.0
 40
1.0
 40
1.0
 40
1.0
 10
-12.2278
 20
17.5165
 30
0.0
 10
-12.2278
 20
17.5165
 30
0.0
 10
-3.6182
 20
17.5165
 30
0.0
 10
-3.6182
 20
17.5165
 30
0.0
  0
SPLINE
  5
1F3
330
1F
100
AcDbEntity
  8
DEFAULT_1
 62
   250
100
AcDbSpline
210
0.0
220
0.0
230
1.0
 70
    24
 71
     3
 72
     8
 73
     4
 74
     0
 42
0.0000000001
 43
0.0000000001
 40
0.0
 40
0.0
 40
0.0
 40
0.0
 40
1.0
 40
1.0
 40
1.0
 40
1.0
 10
-11.9981
 20
17.3228
 30
0.0
 10
-11.9981
 20
17.3228
 30
0.0
 10
-3.617
 20
17.3228
 30
0.0
 10
-3.617
 20
17.3228
 30
0.0
  0
SPLINE
  5
1F4
330
1F
100
AcDbEntity
  8
DEFAULT_1
 62
   250
100
AcDbSpline
210
0.0
220
0.0
230
1.0
 70
    24
 71
     3
 72
     8
 73
     4
 74
     0
 42
0.0000000001
 43
0.0000000001
 40
0.0
 40
0.0
 40
0.0
 40
0.0
 40
1.0
 40
1.0
 40
1.0
 40
1.0
 10
-3.1916
 20
16.8974
 30
0.0
 10
-3.1916
 20
16.8974
 30
0.0
 10
5.1894
 20
16.8974
 30
0.0
 10
5.1894
 20
16.8974
 30
0.0
  0
SPLINE
  5
1F5
330
1F
100
AcDbEntity
  8
DEFAULT_1
 62
   250
100
AcDbSpline
210
0.0
220
0.0
230
1.0
 70
    24
 71
     3
 72
     8
 73
     4
 74
     0
 42
0.0000000001
 43
0.0000000001
 40
0.0
 40
0.0
 40
0.0
 40
0.0
 40
1.0
 40
1.0
 40
1.0
 40
1.0
 10
-3.1916
 20
16.6422
 30
0.0
 10
-3.1916
 20
16.6422
 30
0.0
 10
5.1894
 20
16.6422
 30
0.0
 10
5.1894
 20
16.6422
 30
0.0
  0
SPLINE
  5
1F6
330
1F
100
AcDbEntity
  8
DEFAULT_1
 62
   250
100
AcDbSpline
210
0.0
220
0.0
230
1.0
 70
    24
 71
     3
 72
     8
 73
     4
 74
     0
 42
0.0000000001
 43
0.0000000001
 40
0.0
 40
0.0
 40
0.0
 40
0.0
 40
1.0
 40
1.0
 40
1.0
 40
1.0
 10
-3.1916
 20
16.2167
 30
0.0
 10
-3.1916
 20
16.2167
 30
0.0
 10
5.1894
 20
16.2167
 30
0.0
 10
5.1894
 20
16.2167
 30
0.0
  0
SPLINE
  5
1F7
330
1F
100
AcDbEntity
  8
DEFAULT_1
 62
   250
100
AcDbSpline
210
0.0
220
0.0
230
1.0
 70
    24
 71
     3
 72
     8
 73
     4
 74
     0
 42
0.0000000001
 43
0.0000000001
 40
0.0
 40
0.0
 40
0.0
 40
0.0
 40
1.0
 40
1.0
 40
1.0
 40
1.0
 10
-3.1916
 20
15.9614
 30
0.0
 10
-3.1916
 20
15.9614
 30
0.0
 10
5.1894
 20
15.9614
 30
0.0
 10
5.1894
 20
15.9614
 30
0.0
  0
SPLINE
  5
1F8
330
1F
100
AcDbEntity
  8
DEFAULT_1
 62
   250
100
AcDbSpline
210
0.0
220
0.0
230
1.0
 70
    24
 71
     3
 72
     8
 73
     4
 74
     0
 42
0.0000000001
 43
0.0000000001
 40
0.0
 40
0.0
 40
0.0
 40
0.0
 40
1.0
 40
1.0
 40
1.0
 40
1.0
 10
5.1894
 20
15.536
 30
0.0
 10
5.1894
 20
15.536
 30
0.0
 10
-3.1916
 20
15.536
 30
0.0
 10
-3.1916
 20
15.536
 30
0.0
  0
SPLINE
  5
1F9
330
1F
100
AcDbEntity
  8
DEFAULT_1
 62
   250
100
AcDbSpline
210
0.0
220
0.0
230
1.0
 70
    24
 71
     3
 72
     8
 73
     4
 74
     0
 42
0.0000000001
 43
0.0000000001
 40
0.0
 40
0.0
 40
0.0
 40
0.0
 40
1.0
 40
1.0
 40
1.0
 40
1.0
 10
-11.9981
 20
15.2807
 30
0.0
 10
-11.9981
 20
15.2807
 30
0.0
 10
-3.617
 20
15.2807
 30
0.0
 10
-3.617
 20
15.2807
 30
0.0
  0
SPLINE
  5
1FA
330
1F
100
AcDbEntity
  8
DEFAULT_1
 62
   250
100
AcDbSpline
210
0.0
220
0.0
230
1.0
 70
    24
 71
     3
 72
     8
 73
     4
 74
     0
 42
0.0000000001
 43
0.0000000001
 40
0.0
 40
0.0
 40
0.0
 40
0.0
 40
1.0
 40
1.0
 40
1.0
 40
1.0
 10
-12.2278
 20
15.4744
 30
0.0
 10
-12.2278
 20
15.4744
 30
0.0
 10
-3.6182
 20
15.4744
 30
0.0
 10
-3.6182
 20
15.4744
 30
0.0
  0
SPLINE
  5
1FB
330
1F
100
AcDbEntity
  8
DEFAULT_1
 62
   250
100
AcDbSpline
210
0.0
220
0.0
230
1.0
 70
    24
 71
     3
 72
     8
 73
     4
 74
     0
 42
0.0000000001
 43
0.0000000001
 40
0.0
 40
0.0
 40
0.0
 40
0.0
 40
1.0
 40
1.0
 40
1.0
 40
1.0
 10
-11.9981
 20
16.8974
 30
0.0
 10
-11.9981
 20
16.8974
 30
0.0
 10
-3.617
 20
16.8974
 30
0.0
 10
-3.617
 20
16.8974
 30
0.0
  0
SPLINE
  5
1FC
330
1F
100
AcDbEntity
  8
DEFAULT_1
 62
   250
100
AcDbSpline
210
0.0
220
0.0
230
1.0
 70
    24
 71
     3
 72
     8
 73
     4
 74
     0
 42
0.0000000001
 43
0.0000000001
 40
0.0
 40
0.0
 40
0.0
 40
0.0
 40
1.0
 40
1.0
 40
1.0
 40
1.0
 10
-3.617
 20
16.6422
 30
0.0
 10
-3.617
 20
16.6422
 30
0.0
 10
-11.9981
 20
16.6422
 30
0.0
 10
-11.9981
 20
16.6422
 30
0.0
  0
SPLINE
  5
1FD
330
1F
100
AcDbEntity
  8
DEFAULT_1
 62
   250
100
AcDbSpline
210
0.0
220
0.0
230
1.0
 70
    24
 71
     3
 72
     8
 73
     4
 74
     0
 42
0.0000000001
 43
0.0000000001
 40
0.0
 40
0.0
 40
0.0
 40
0.0
 40
1.0
 40
1.0
 40
1.0
 40
1.0
 10
-12.2278
 20
16.1552
 30
0.0
 10
-12.2278
 20
16.1552
 30
0.0
 10
-3.6182
 20
16.1552
 30
0.0
 10
-3.6182
 20
16.1552
 30
0.0
  0
SPLINE
  5
1FE
330
1F
100
AcDbEntity
  8
DEFAULT_1
 62
   250
100
AcDbSpline
210
0.0
220
0.0
230
1.0
 70
    24
 71
     3
 72
     8
 73
     4
 74
     0
 42
0.0000000001
 43
0.0000000001
 40
0.0
 40
0.0
 40
0.0
 40
0.0
 40
1.0
 40
1.0
 40
1.0
 40
1.0
 10
-3.1916
 20
14.8553
 30
0.0
 10
-3.1916
 20
14.8553
 30
0.0
 10
5.1894
 20
14.8553
 30
0.0
 10
5.1894
 20
14.8553
 30
0.0
  0
SPLINE
  5
1FF
330
1F
100
AcDbEntity
  8
DEFAULT_1
 62
   250
100
AcDbSpline
210
0.0
220
0.0
230
1.0
 70
    24
 71
     3
 72
     8
 73
     4
 74
     0
 42
0.0000000001
 43
0.0000000001
 40
0.0
 40
0.0
 40
0.0
 40
0.0
 40
1.0
 40
1.0
 40
1.0
 40
1.0
 10
-12.2278
 20
14.6616
 30
0.0
 10
-12.2278
 20
14.6616
 30
0.0
 10
-3.6182
 20
14.6616
 30
0.0
 10
-3.6182
 20
14.6616
 30
0.0
  0
SPLINE
  5
200
330
1F
100
AcDbEntity
  8
DEFAULT_1
 62
   250
100
AcDbSpline
210
0.0
220
0.0
230
1.0
 70
    24
 71
     3
 72
     8
 73
     4
 74
     0
 42
0.0000000001
 43
0.0000000001
 40
0.0
 40
0.0
 40
0.0
 40
0.0
 40
1.0
 40
1.0
 40
1.0
 40
1.0
 10
-3.617
 20
14.8553
 30
0.0
 10
-3.617
 20
14.8553
 30
0.0
 10
-11.9981
 20
14.8553
 30
0.0
 10
-11.9981
 20
14.8553
 30
0.0
  0
SPLINE
  5
201
330
1F
100
AcDbEntity
  8
DEFAULT_1
 62
   250
100
AcDbSpline
210
0.0
220
0.0
230
1.0
 70
    24
 71
     3
 72
     8
 73
     4
 74
     0
 42
0.0000000001
 43
0.0000000001
 40
0.0
 40
0.0
 40
0.0
 40
0.0
 40
1.0
 40
1.0
 40
1.0
 40
1.0
 10
-3.6182
 20
15.3423
 30
0.0
 10
-3.6182
 20
15.3423
 30
0.0
 10
-12.2278
 20
15.3423
 30
0.0
 10
-12.2278
 20
15.3423
 30
0.0
  0
SPLINE
  5
202
330
1F
100
AcDbEntity
  8
DEFAULT_1
 62
   250
100
AcDbSpline
210
0.0
220
0.0
230
1.0
 70
    24
 71
     3
 72
     8
 73
     4
 74
     0
 42
0.0000000001
 43
0.0000000001
 40
0.0
 40
0.0
 40
0.0
 40
0.0
 40
1.0
 40
1.0
 40
1.0
 40
1.0
 10
-3.6182
 20
14.7938
 30
0.0
 10
-3.6182
 20
14.7938
 30
0.0
 10
-12.2278
 20
14.7938
 30
0.0
 10
-12.2278
 20
14.7938
 30
0.0
  0
SPLINE
  5
203
330
1F
100
AcDbEntity
  8
DEFAULT_1
 62
   250
100
AcDbSpline
210
0.0
220
0.0
230
1.0
 70
    24
 71
     3
 72
     8
 73
     4
 74
     0
 42
0.0000000001
 43
0.0000000001
 40
0.0
 40
0.0
 40
0.0
 40
0.0
 40
1.0
 40
1.0
 40
1.0
 40
1.0
 10
-3.6182
 20
16.0231
 30
0.0
 10
-3.6182
 20
16.0231
 30
0.0
 10
-12.2278
 20
16.0231
 30
0.0
 10
-12.2278
 20
16.0231
 30
0.0
  0
SPLINE
  5
204
330
1F
100
AcDbEntity
  8
DEFAULT_1
 62
   250
100
AcDbSpline
210
0.0
220
0.0
230
1.0
 70
    24
 71
     3
 72
     8
 73
     4
 74
     0
 42
0.0000000001
 43
0.0000000001
 40
0.0
 40
0.0
 40
0.0
 40
0.0
 40
1.0
 40
1.0
 40
1.0
 40
1.0
 10
-3.617
 20
16.2167
 30
0.0
 10
-3.617
 20
16.2167
 30
0.0
 10
-11.9981
 20
16.2167
 30
0.0
 10
-11.9981
 20
16.2167
 30
0.0
  0
SPLINE
  5
205
330
1F
100
AcDbEntity
  8
DEFAULT_1
 62
   250
100
AcDbSpline
210
0.0
220
0.0
230
1.0
 70
    24
 71
     3
 72
     8
 73
     4
 74
     0
 42
0.0000000001
 43
0.0000000001
 40
0.0
 40
0.0
 40
0.0
 40
0.0
 40
1.0
 40
1.0
 40
1.0
 40
1.0
 10
-3.617
 20
15.9614
 30
0.0
 10
-3.617
 20
15.9614
 30
0.0
 10
-11.9981
 20
15.9614
 30
0.0
 10
-11.9981
 20
15.9614
 30
0.0
  0
SPLINE
  5
206
330
1F
100
AcDbEntity
  8
DEFAULT_1
 62
   250
100
AcDbSpline
210
0.0
220
0.0
230
1.0
 70
     8
 71
     3
 72
    20
 73
    16
 74
     0
 42
0.0000000001
 43
0.0000000001
 40
0.0
 40
0.0
 40
0.0
 40
0.0
 40
0.2
 40
0.2
 40
0.2
 40
0.2
 40
0.4
 40
0.4
 40
0.4
 40
0.4
 40
0.6
 40
0.6
 40
0.6
 40
0.6
 40
1.0
 40
1.0
 40
1.0
 40
1.0
 10
5.6356
 20
28.9798
 30
0.0
 10
5.6356
 20
28.9798
 30
0.0
 10
5.6297
 20
29.32
 30
0.0
 10
5.6297
 20
29.32
 30
0.0
 10
5.6297
 20
29.32
 30
0.0
 10
5.6297
 20
29.32
 30
0.0
 10
5.6223
 20
29.7471
 30
0.0
 10
5.6223
 20
29.7471
 30
0.0
 10
5.6223
 20
29.7471
 30
0.0
 10
5.6223
 20
29.7471
 30
0.0
 10
5.6163
 20
30.0874
 30
0.0
 10
5.6163
 20
30.0874
 30
0.0
 10
5.6163
 20
30.0874
 30
0.0
 10
5.6163
 20
30.0874
 30
0.0
 10
5.6149
 20
30.102
 30
0.0
 10
5.6149
 20
30.102
 30
0.0
  0
SPLINE
  5
207
330
1F
100
AcDbEntity
  8
DEFAULT_1
 62
   250
100
AcDbSpline
210
0.0
220
0.0
230
1.0
 70
     8
 71
     3
 72
     8
 73
     4
 74
     0
 42
0.0000000001
 43
0.0000000001
 40
0.0
 40
0.0
 40
0.0
 40
0.0
 40
1.0
 40
1.0
 40
1.0
 40
1.0
 10
5.6149
 20
30.102
 30
0.0
 10
5.6072
 20
30.1415
 30
0.0
 10
5.5716
 20
30.1709
 30
0.0
 10
5.5312
 20
30.1709
 30
0.0
  0
SPLINE
  5
208
330
1F
100
AcDbEntity
  8
DEFAULT_1
 62
   250
100
AcDbSpline
210
0.0
220
0.0
230
1.0
 70
    24
 71
     3
 72
    16
 73
    12
 74
     0
 42
0.0000000001
 43
0.0000000001
 40
0.0
 40
0.0
 40
0.0
 40
0.0
 40
0.25
 40
0.25
 40
0.25
 40
0.25
 40
0.5
 40
0.5
 40
0.5
 40
0.5
 40
1.0
 40
1.0
 40
1.0
 40
1.0
 10
5.5312
 20
30.1709
 30
0.0
 10
5.5312
 20
30.1709
 30
0.0
 10
5.1909
 20
30.1709
 30
0.0
 10
5.1909
 20
30.1709
 30
0.0
 10
5.1909
 20
30.1709
 30
0.0
 10
5.1909
 20
30.1709
 30
0.0
 10
-11.9995
 20
30.1709
 30
0.0
 10
-11.9995
 20
30.1709
 30
0.0
 10
-11.9995
 20
30.1709
 30
0.0
 10
-11.9995
 20
30.1709
 30
0.0
 10
-12.3399
 20
30.1709
 30
0.0
 10
-12.3399
 20
30.1709
 30
0.0
  0
SPLINE
  5
209
330
1F
100
AcDbEntity
  8
DEFAULT_1
 62
   250
100
AcDbSpline
210
0.0
220
0.0
230
1.0
 70
     8
 71
     3
 72
     8
 73
     4
 74
     0
 42
0.0000000001
 43
0.0000000001
 40
0.0
 40
0.0
 40
0.0
 40
0.0
 40
1.0
 40
1.0
 40
1.0
 40
1.0
 10
-12.3399
 20
30.1709
 30
0.0
 10
-12.3549
 20
30.1699
 30
0.0
 10
-12.3676
 20
30.1671
 30
0.0
 10
-12.3811
 20
30.1604
 30
0.0
  0
SPLINE
  5
20A
330
1F
100
AcDbEntity
  8
DEFAULT_1
 62
   250
100
AcDbSpline
210
0.0
220
0.0
230
1.0
 70
     8
 71
     3
 72
    12
 73
     8
 74
     0
 42
0.0000000001
 43
0.0000000001
 40
0.0
 40
0.0
 40
0.0
 40
0.0
 40
0.3333333333333333
 40
0.3333333333333333
 40
0.3333333333333333
 40
0.3333333333333333
 40
1.0
 40
1.0
 40
1.0
 40
1.0
 10
-12.4443
 20
28.9798
 30
0.0
 10
-12.4443
 20
28.9798
 30
0.0
 10
-12.4384
 20
29.32
 30
0.0
 10
-12.4384
 20
29.32
 30
0.0
 10
-12.4384
 20
29.32
 30
0.0
 10
-12.4384
 20
29.32
 30
0.0
 10
-12.431
 20
29.7471
 30
0.0
 10
-12.431
 20
29.7471
 30
0.0
  0
SPLINE
  5
20B
330
1F
100
AcDbEntity
  8
DEFAULT_1
 62
   250
100
AcDbSpline
210
0.0
220
0.0
230
1.0
 70
     8
 71
     3
 72
     8
 73
     4
 74
     0
 42
0.0000000001
 43
0.0000000001
 40
0.0
 40
0.0
 40
0.0
 40
0.0
 40
1.0
 40
1.0
 40
1.0
 40
1.0
 10
-12.431
 20
29.7471
 30
0.0
 10
-12.4308
 20
29.757
 30
0.0
 10
-12.4965
 20
30.0975
 30
0.0
 10
-12.3753
 20
30.1633
 30
0.0
  0
SPLINE
  5
20C
330
1F
100
AcDbEntity
  8
DEFAULT_1
 62
   250
100
AcDbSpline
210
0.0
220
0.0
230
1.0
 70
    24
 71
     3
 72
     8
 73
     4
 74
     0
 42
0.0000000001
 43
0.0000000001
 40
0.0
 40
0.0
 40
0.0
 40
0.0
 40
1.0
 40
1.0
 40
1.0
 40
1.0
 10
-12.4443
 20
28.9798
 30
0.0
 10
-12.4278
 20
28.9798
 30
0.0
 10
-12.4112
 20
28.9798
 30
0.0
 10
-12.3946
 20
28.9798
 30
0.0
  0
SPLINE
  5
20D
330
1F
100
AcDbEntity
  8
DEFAULT_1
 62
   250
100
AcDbSpline
210
0.0
220
0.0
230
1.0
 70
    24
 71
     3
 72
    16
 73
    12
 74
     0
 42
0.0000000001
 43
0.0000000001
 40
0.0
 40
0.0
 40
0.0
 40
0.0
 40
0.25
 40
0.25
 40
0.25
 40
0.25
 40
0.5
 40
0.5
 40
0.5
 40
0.5
 40
1.0
 40
1.0
 40
1.0
 40
1.0
 10
-12.3946
 20
28.9798
 30
0.0
 10
-12.3946
 20
28.9798
 30
0.0
 10
-12.0543
 20
28.9798
 30
0.0
 10
-12.0543
 20
28.9798
 30
0.0
 10
-12.0543
 20
28.9798
 30
0.0
 10
-12.0543
 20
28.9798
 30
0.0
 10
5.2456
 20
28.9798
 30
0.0
 10
5.2456
 20
28.9798
 30
0.0
 10
5.2456
 20
28.9798
 30
0.0
 10
5.2456
 20
28.9798
 30
0.0
 10
5.586
 20
28.9798
 30
0.0
 10
5.586
 20
28.9798
 30
0.0
  0
SPLINE
  5
20E
330
1F
100
AcDbEntity
  8
DEFAULT_1
 62
   250
100
AcDbSpline
210
0.0
220
0.0
230
1.0
 70
    24
 71
     3
 72
     8
 73
     4
 74
     0
 42
0.0000000001
 43
0.0000000001
 40
0.0
 40
0.0
 40
0.0
 40
0.0
 40
1.0
 40
1.0
 40
1.0
 40
1.0
 10
5.586
 20
28.9798
 30
0.0
 10
5.6022
 20
28.9798
 30
0.0
 10
5.6186
 20
28.9798
 30
0.0
 10
5.6348
 20
28.9798
 30
0.0
  0
SPLINE
  5
20F
330
1F
100
AcDbEntity
  8
DEFAULT_1
 62
   250
100
AcDbSpline
210
0.0
220
0.0
230
1.0
 70
     8
 71
     3
 72
     8
 73
     4
 74
     0
 42
0.0000000001
 43
0.0000000001
 40
0.0
 40
0.0
 40
0.0
 40
0.0
 40
1.0
 40
1.0
 40
1.0
 40
1.0
 10
-12.3399
 20
30.1697
 30
0.0
 10
-12.3399
 20
29.7731
 30
0.0
 10
-12.3523
 20
29.3763
 30
0.0
 10
-12.3592
 20
28.9798
 30
0.0
  0
SPLINE
  5
210
330
1F
100
AcDbEntity
  8
DEFAULT_1
 62
   250
100
AcDbSpline
210
0.0
220
0.0
230
1.0
 70
     8
 71
     3
 72
     8
 73
     4
 74
     0
 42
0.0000000001
 43
0.0000000001
 40
0.0
 40
0.0
 40
0.0
 40
0.0
 40
1.0
 40
1.0
 40
1.0
 40
1.0
 10
5.6163
 20
30.0874
 30
0.0
 10
5.6082
 20
30.0883
 30
0.0
 10
5.5996
 20
30.0879
 30
0.0
 10
5.5914
 20
30.088
 30
0.0
  0
SPLINE
  5
211
330
1F
100
AcDbEntity
  8
DEFAULT_1
 62
   250
100
AcDbSpline
210
0.0
220
0.0
230
1.0
 70
     8
 71
     3
 72
    24
 73
    20
 74
     0
 42
0.0000000001
 43
0.0000000001
 40
0.0
 40
0.0
 40
0.0
 40
0.0
 40
0.1666666666666667
 40
0.1666666666666667
 40
0.1666666666666667
 40
0.1666666666666667
 40
0.3333333333333333
 40
0.3333333333333333
 40
0.3333333333333333
 40
0.3333333333333333
 40
0.5
 40
0.5
 40
0.5
 40
0.5
 40
0.6666666666666666
 40
0.6666666666666666
 40
0.6666666666666666
 40
0.6666666666666666
 40
1.0
 40
1.0
 40
1.0
 40
1.0
 10
5.5914
 20
30.088
 30
0.0
 10
5.5914
 20
30.088
 30
0.0
 10
5.5312
 20
30.0874
 30
0.0
 10
5.5312
 20
30.0874
 30
0.0
 10
5.5312
 20
30.0874
 30
0.0
 10
5.5312
 20
30.0874
 30
0.0
 10
5.1909
 20
30.0874
 30
0.0
 10
5.1909
 20
30.0874
 30
0.0
 10
5.1909
 20
30.0874
 30
0.0
 10
5.1909
 20
30.0874
 30
0.0
 10
-11.9995
 20
30.0874
 30
0.0
 10
-11.9995
 20
30.0874
 30
0.0
 10
-11.9995
 20
30.0874
 30
0.0
 10
-11.9995
 20
30.0874
 30
0.0
 10
-12.3399
 20
30.0874
 30
0.0
 10
-12.3399
 20
30.0874
 30
0.0
 10
-12.3399
 20
30.0874
 30
0.0
 10
-12.3399
 20
30.0874
 30
0.0
 10
-12.4001
 20
30.088
 30
0.0
 10
-12.4001
 20
30.088
 30
0.0
  0
SPLINE
  5
212
330
1F
100
AcDbEntity
  8
DEFAULT_1
 62
   250
100
AcDbSpline
210
0.0
220
0.0
230
1.0
 70
     8
 71
     3
 72
     8
 73
     4
 74
     0
 42
0.0000000001
 43
0.0000000001
 40
0.0
 40
0.0
 40
0.0
 40
0.0
 40
1.0
 40
1.0
 40
1.0
 40
1.0
 10
-12.4001
 20
30.088
 30
0.0
 10
-12.4082
 20
30.0879
 30
0.0
 10
-12.4169
 20
30.0883
 30
0.0
 10
-12.425
 20
30.0874
 30
0.0
  0
SPLINE
  5
213
330
1F
100
AcDbEntity
  8
DEFAULT_1
 62
   250
100
AcDbSpline
210
0.0
220
0.0
230
1.0
 70
     8
 71
     3
 72
     8
 73
     4
 74
     0
 42
0.0000000001
 43
0.0000000001
 40
0.0
 40
0.0
 40
0.0
 40
0.0
 40
1.0
 40
1.0
 40
1.0
 40
1.0
 10
5.5506
 20
28.9798
 30
0.0
 10
5.5437
 20
29.376
 30
0.0
 10
5.5231
 20
29.7738
 30
0.0
 10
5.5313
 20
30.1702
 30
0.0
  0
SPLINE
  5
214
330
1F
100
AcDbEntity
  8
DEFAULT_1
 62
   250
100
AcDbSpline
210
0.0
220
0.0
230
1.0
 70
     8
 71
     3
 72
     8
 73
     4
 74
     0
 42
0.0000000001
 43
0.0000000001
 40
0.0
 40
0.0
 40
0.0
 40
0.0
 40
1.0
 40
1.0
 40
1.0
 40
1.0
 10
-3.1916
 20
14.8553
 30
0.0
 10
-3.1899
 20
14.7702
 30
0.0
 10
-3.1899
 20
14.6852
 30
0.0
 10
-3.1916
 20
14.6001
 30
0.0
  0
SPLINE
  5
215
330
1F
100
AcDbEntity
  8
DEFAULT_1
 62
   250
100
AcDbSpline
210
0.0
220
0.0
230
1.0
 70
     8
 71
     3
 72
     8
 73
     4
 74
     0
 42
0.0000000001
 43
0.0000000001
 40
0.0
 40
0.0
 40
0.0
 40
0.0
 40
1.0
 40
1.0
 40
1.0
 40
1.0
 10
-3.617
 20
14.6001
 30
0.0
 10
-3.6187
 20
14.6852
 30
0.0
 10
-3.6187
 20
14.7702
 30
0.0
 10
-3.617
 20
14.8553
 30
0.0
  0
SPLINE
  5
216
330
1F
100
AcDbEntity
  8
DEFAULT_1
 62
   250
100
AcDbSpline
210
0.0
220
0.0
230
1.0
 70
     8
 71
     3
 72
     8
 73
     4
 74
     0
 42
0.0000000001
 43
0.0000000001
 40
0.0
 40
0.0
 40
0.0
 40
0.0
 40
1.0
 40
1.0
 40
1.0
 40
1.0
 10
-3.1916
 20
15.2807
 30
0.0
 10
-3.1899
 20
15.3659
 30
0.0
 10
-3.1899
 20
15.4509
 30
0.0
 10
-3.1916
 20
15.536
 30
0.0
  0
SPLINE
  5
217
330
1F
100
AcDbEntity
  8
DEFAULT_1
 62
   250
100
AcDbSpline
210
0.0
220
0.0
230
1.0
 70
     8
 71
     3
 72
     8
 73
     4
 74
     0
 42
0.0000000001
 43
0.0000000001
 40
0.0
 40
0.0
 40
0.0
 40
0.0
 40
1.0
 40
1.0
 40
1.0
 40
1.0
 10
-3.617
 20
15.9614
 30
0.0
 10
-3.6187
 20
16.0465
 30
0.0
 10
-3.6187
 20
16.1316
 30
0.0
 10
-3.617
 20
16.2167
 30
0.0
  0
SPLINE
  5
218
330
1F
100
AcDbEntity
  8
DEFAULT_1
 62
   250
100
AcDbSpline
210
0.0
220
0.0
230
1.0
 70
     8
 71
     3
 72
     8
 73
     4
 74
     0
 42
0.0000000001
 43
0.0000000001
 40
0.0
 40
0.0
 40
0.0
 40
0.0
 40
1.0
 40
1.0
 40
1.0
 40
1.0
 10
-3.617
 20
16.6422
 30
0.0
 10
-3.6187
 20
16.7273
 30
0.0
 10
-3.6187
 20
16.8123
 30
0.0
 10
-3.617
 20
16.8974
 30
0.0
  0
SPLINE
  5
219
330
1F
100
AcDbEntity
  8
DEFAULT_1
 62
   250
100
AcDbSpline
210
0.0
220
0.0
230
1.0
 70
     8
 71
     3
 72
     8
 73
     4
 74
     0
 42
0.0000000001
 43
0.0000000001
 40
0.0
 40
0.0
 40
0.0
 40
0.0
 40
1.0
 40
1.0
 40
1.0
 40
1.0
 10
-3.617
 20
17.3228
 30
0.0
 10
-3.6187
 20
17.4079
 30
0.0
 10
-3.6187
 20
17.493
 30
0.0
 10
-3.617
 20
17.5781
 30
0.0
  0
SPLINE
  5
21A
330
1F
100
AcDbEntity
  8
DEFAULT_1
 62
   250
100
AcDbSpline
210
0.0
220
0.0
230
1.0
 70
     8
 71
     3
 72
     8
 73
     4
 74
     0
 42
0.0000000001
 43
0.0000000001
 40
0.0
 40
0.0
 40
0.0
 40
0.0
 40
1.0
 40
1.0
 40
1.0
 40
1.0
 10
-3.617
 20
18.0036
 30
0.0
 10
-3.6187
 20
18.0887
 30
0.0
 10
-3.6187
 20
18.1736
 30
0.0
 10
-3.617
 20
18.2588
 30
0.0
  0
SPLINE
  5
21B
330
1F
100
AcDbEntity
  8
DEFAULT_1
 62
   250
100
AcDbSpline
210
0.0
220
0.0
230
1.0
 70
     8
 71
     3
 72
     8
 73
     4
 74
     0
 42
0.0000000001
 43
0.0000000001
 40
0.0
 40
0.0
 40
0.0
 40
0.0
 40
1.0
 40
1.0
 40
1.0
 40
1.0
 10
-3.617
 20
18.6842
 30
0.0
 10
-3.6187
 20
18.7694
 30
0.0
 10
-3.6187
 20
18.8544
 30
0.0
 10
-3.617
 20
18.9396
 30
0.0
  0
SPLINE
  5
21C
330
1F
100
AcDbEntity
  8
DEFAULT_1
 62
   250
100
AcDbSpline
210
0.0
220
0.0
230
1.0
 70
     8
 71
     3
 72
     8
 73
     4
 74
     0
 42
0.0000000001
 43
0.0000000001
 40
0.0
 40
0.0
 40
0.0
 40
0.0
 40
1.0
 40
1.0
 40
1.0
 40
1.0
 10
-3.617
 20
19.365
 30
0.0
 10
-3.6187
 20
19.45
 30
0.0
 10
-3.6187
 20
19.5351
 30
0.0
 10
-3.617
 20
19.6202
 30
0.0
  0
SPLINE
  5
21D
330
1F
100
AcDbEntity
  8
DEFAULT_1
 62
   250
100
AcDbSpline
210
0.0
220
0.0
230
1.0
 70
     8
 71
     3
 72
     8
 73
     4
 74
     0
 42
0.0000000001
 43
0.0000000001
 40
0.0
 40
0.0
 40
0.0
 40
0.0
 40
1.0
 40
1.0
 40
1.0
 40
1.0
 10
-3.617
 20
20.0456
 30
0.0
 10
-3.6187
 20
20.1307
 30
0.0
 10
-3.6187
 20
20.2158
 30
0.0
 10
-3.617
 20
20.3009
 30
0.0
  0
SPLINE
  5
21E
330
1F
100
AcDbEntity
  8
DEFAULT_1
 62
   250
100
AcDbSpline
210
0.0
220
0.0
230
1.0
 70
     8
 71
     3
 72
     8
 73
     4
 74
     0
 42
0.0000000001
 43
0.0000000001
 40
0.0
 40
0.0
 40
0.0
 40
0.0
 40
1.0
 40
1.0
 40
1.0
 40
1.0
 10
-3.617
 20
20.7263
 30
0.0
 10
-3.6187
 20
20.8114
 30
0.0
 10
-3.6187
 20
20.8965
 30
0.0
 10
-3.617
 20
20.9816
 30
0.0
  0
SPLINE
  5
21F
330
1F
100
AcDbEntity
  8
DEFAULT_1
 62
   250
100
AcDbSpline
210
0.0
220
0.0
230
1.0
 70
     8
 71
     3
 72
     8
 73
     4
 74
     0
 42
0.0000000001
 43
0.0000000001
 40
0.0
 40
0.0
 40
0.0
 40
0.0
 40
1.0
 40
1.0
 40
1.0
 40
1.0
 10
-3.617
 20
21.407
 30
0.0
 10
-3.6187
 20
21.4921
 30
0.0
 10
-3.6187
 20
21.5771
 30
0.0
 10
-3.617
 20
21.6623
 30
0.0
  0
SPLINE
  5
220
330
1F
100
AcDbEntity
  8
DEFAULT_1
 62
   250
100
AcDbSpline
210
0.0
220
0.0
230
1.0
 70
     8
 71
     3
 72
     8
 73
     4
 74
     0
 42
0.0000000001
 43
0.0000000001
 40
0.0
 40
0.0
 40
0.0
 40
0.0
 40
1.0
 40
1.0
 40
1.0
 40
1.0
 10
-3.617
 20
22.0877
 30
0.0
 10
-3.6187
 20
22.1728
 30
0.0
 10
-3.6187
 20
22.2579
 30
0.0
 10
-3.617
 20
22.343
 30
0.0
  0
SPLINE
  5
221
330
1F
100
AcDbEntity
  8
DEFAULT_1
 62
   250
100
AcDbSpline
210
0.0
220
0.0
230
1.0
 70
     8
 71
     3
 72
     8
 73
     4
 74
     0
 42
0.0000000001
 43
0.0000000001
 40
0.0
 40
0.0
 40
0.0
 40
0.0
 40
1.0
 40
1.0
 40
1.0
 40
1.0
 10
-3.617
 20
22.7684
 30
0.0
 10
-3.6187
 20
22.8536
 30
0.0
 10
-3.6187
 20
22.9386
 30
0.0
 10
-3.617
 20
23.0236
 30
0.0
  0
SPLINE
  5
222
330
1F
100
AcDbEntity
  8
DEFAULT_1
 62
   250
100
AcDbSpline
210
0.0
220
0.0
230
1.0
 70
     8
 71
     3
 72
     8
 73
     4
 74
     0
 42
0.0000000001
 43
0.0000000001
 40
0.0
 40
0.0
 40
0.0
 40
0.0
 40
1.0
 40
1.0
 40
1.0
 40
1.0
 10
-3.617
 20
23.4491
 30
0.0
 10
-3.6187
 20
23.5342
 30
0.0
 10
-3.6187
 20
23.6193
 30
0.0
 10
-3.617
 20
23.7044
 30
0.0
  0
SPLINE
  5
223
330
1F
100
AcDbEntity
  8
DEFAULT_1
 62
   250
100
AcDbSpline
210
0.0
220
0.0
230
1.0
 70
     8
 71
     3
 72
     8
 73
     4
 74
     0
 42
0.0000000001
 43
0.0000000001
 40
0.0
 40
0.0
 40
0.0
 40
0.0
 40
1.0
 40
1.0
 40
1.0
 40
1.0
 10
-3.617
 20
24.1298
 30
0.0
 10
-3.6187
 20
24.2149
 30
0.0
 10
-3.6187
 20
24.3
 30
0.0
 10
-3.617
 20
24.3851
 30
0.0
  0
SPLINE
  5
224
330
1F
100
AcDbEntity
  8
DEFAULT_1
 62
   250
100
AcDbSpline
210
0.0
220
0.0
230
1.0
 70
     8
 71
     3
 72
     8
 73
     4
 74
     0
 42
0.0000000001
 43
0.0000000001
 40
0.0
 40
0.0
 40
0.0
 40
0.0
 40
1.0
 40
1.0
 40
1.0
 40
1.0
 10
-3.617
 20
24.8105
 30
0.0
 10
-3.6187
 20
24.8955
 30
0.0
 10
-3.6187
 20
24.9807
 30
0.0
 10
-3.617
 20
25.0657
 30
0.0
  0
SPLINE
  5
225
330
1F
100
AcDbEntity
  8
DEFAULT_1
 62
   250
100
AcDbSpline
210
0.0
220
0.0
230
1.0
 70
     8
 71
     3
 72
     8
 73
     4
 74
     0
 42
0.0000000001
 43
0.0000000001
 40
0.0
 40
0.0
 40
0.0
 40
0.0
 40
1.0
 40
1.0
 40
1.0
 40
1.0
 10
-3.617
 20
25.4911
 30
0.0
 10
-3.6187
 20
25.5763
 30
0.0
 10
-3.6187
 20
25.6614
 30
0.0
 10
-3.617
 20
25.7464
 30
0.0
  0
SPLINE
  5
226
330
1F
100
AcDbEntity
  8
DEFAULT_1
 62
   250
100
AcDbSpline
210
0.0
220
0.0
230
1.0
 70
     8
 71
     3
 72
     8
 73
     4
 74
     0
 42
0.0000000001
 43
0.0000000001
 40
0.0
 40
0.0
 40
0.0
 40
0.0
 40
1.0
 40
1.0
 40
1.0
 40
1.0
 10
-3.617
 20
26.1719
 30
0.0
 10
-3.6187
 20
26.257
 30
0.0
 10
-3.6187
 20
26.342
 30
0.0
 10
-3.617
 20
26.4272
 30
0.0
  0
SPLINE
  5
227
330
1F
100
AcDbEntity
  8
DEFAULT_1
 62
   250
100
AcDbSpline
210
0.0
220
0.0
230
1.0
 70
     8
 71
     3
 72
     8
 73
     4
 74
     0
 42
0.0000000001
 43
0.0000000001
 40
0.0
 40
0.0
 40
0.0
 40
0.0
 40
1.0
 40
1.0
 40
1.0
 40
1.0
 10
-3.1916
 20
26.4272
 30
0.0
 10
-3.1899
 20
26.342
 30
0.0
 10
-3.1899
 20
26.257
 30
0.0
 10
-3.1916
 20
26.1719
 30
0.0
  0
SPLINE
  5
228
330
1F
100
AcDbEntity
  8
DEFAULT_1
 62
   250
100
AcDbSpline
210
0.0
220
0.0
230
1.0
 70
     8
 71
     3
 72
     8
 73
     4
 74
     0
 42
0.0000000001
 43
0.0000000001
 40
0.0
 40
0.0
 40
0.0
 40
0.0
 40
1.0
 40
1.0
 40
1.0
 40
1.0
 10
-3.1916
 20
25.4911
 30
0.0
 10
-3.1899
 20
25.5763
 30
0.0
 10
-3.1899
 20
25.6614
 30
0.0
 10
-3.1916
 20
25.7464
 30
0.0
  0
SPLINE
  5
229
330
1F
100
AcDbEntity
  8
DEFAULT_1
 62
   250
100
AcDbSpline
210
0.0
220
0.0
230
1.0
 70
     8
 71
     3
 72
     8
 73
     4
 74
     0
 42
0.0000000001
 43
0.0000000001
 40
0.0
 40
0.0
 40
0.0
 40
0.0
 40
1.0
 40
1.0
 40
1.0
 40
1.0
 10
-3.1916
 20
15.9614
 30
0.0
 10
-3.1899
 20
16.0465
 30
0.0
 10
-3.1899
 20
16.1316
 30
0.0
 10
-3.1916
 20
16.2167
 30
0.0
  0
SPLINE
  5
22A
330
1F
100
AcDbEntity
  8
DEFAULT_1
 62
   250
100
AcDbSpline
210
0.0
220
0.0
230
1.0
 70
     8
 71
     3
 72
     8
 73
     4
 74
     0
 42
0.0000000001
 43
0.0000000001
 40
0.0
 40
0.0
 40
0.0
 40
0.0
 40
1.0
 40
1.0
 40
1.0
 40
1.0
 10
-3.1916
 20
16.8974
 30
0.0
 10
-3.1899
 20
16.8123
 30
0.0
 10
-3.1899
 20
16.7273
 30
0.0
 10
-3.1916
 20
16.6422
 30
0.0
  0
SPLINE
  5
22B
330
1F
100
AcDbEntity
  8
DEFAULT_1
 62
   250
100
AcDbSpline
210
0.0
220
0.0
230
1.0
 70
     8
 71
     3
 72
     8
 73
     4
 74
     0
 42
0.0000000001
 43
0.0000000001
 40
0.0
 40
0.0
 40
0.0
 40
0.0
 40
1.0
 40
1.0
 40
1.0
 40
1.0
 10
-3.1916
 20
17.5781
 30
0.0
 10
-3.1899
 20
17.493
 30
0.0
 10
-3.1899
 20
17.4079
 30
0.0
 10
-3.1916
 20
17.3228
 30
0.0
  0
SPLINE
  5
22C
330
1F
100
AcDbEntity
  8
DEFAULT_1
 62
   250
100
AcDbSpline
210
0.0
220
0.0
230
1.0
 70
     8
 71
     3
 72
     8
 73
     4
 74
     0
 42
0.0000000001
 43
0.0000000001
 40
0.0
 40
0.0
 40
0.0
 40
0.0
 40
1.0
 40
1.0
 40
1.0
 40
1.0
 10
-3.1916
 20
25.0657
 30
0.0
 10
-3.1899
 20
24.9807
 30
0.0
 10
-3.1899
 20
24.8955
 30
0.0
 10
-3.1916
 20
24.8105
 30
0.0
  0
SPLINE
  5
22D
330
1F
100
AcDbEntity
  8
DEFAULT_1
 62
   250
100
AcDbSpline
210
0.0
220
0.0
230
1.0
 70
     8
 71
     3
 72
     8
 73
     4
 74
     0
 42
0.0000000001
 43
0.0000000001
 40
0.0
 40
0.0
 40
0.0
 40
0.0
 40
1.0
 40
1.0
 40
1.0
 40
1.0
 10
-3.1916
 20
24.1298
 30
0.0
 10
-3.1899
 20
24.2149
 30
0.0
 10
-3.1899
 20
24.3
 30
0.0
 10
-3.1916
 20
24.3851
 30
0.0
  0
SPLINE
  5
22E
330
1F
100
AcDbEntity
  8
DEFAULT_1
 62
   250
100
AcDbSpline
210
0.0
220
0.0
230
1.0
 70
     8
 71
     3
 72
     8
 73
     4
 74
     0
 42
0.0000000001
 43
0.0000000001
 40
0.0
 40
0.0
 40
0.0
 40
0.0
 40
1.0
 40
1.0
 40
1.0
 40
1.0
 10
-3.1916
 20
23.4491
 30
0.0
 10
-3.1899
 20
23.5342
 30
0.0
 10
-3.1899
 20
23.6193
 30
0.0
 10
-3.1916
 20
23.7044
 30
0.0
  0
SPLINE
  5
22F
330
1F
100
AcDbEntity
  8
DEFAULT_1
 62
   250
100
AcDbSpline
210
0.0
220
0.0
230
1.0
 70
     8
 71
     3
 72
     8
 73
     4
 74
     0
 42
0.0000000001
 43
0.0000000001
 40
0.0
 40
0.0
 40
0.0
 40
0.0
 40
1.0
 40
1.0
 40
1.0
 40
1.0
 10
-3.1916
 20
23.0236
 30
0.0
 10
-3.1899
 20
22.9386
 30
0.0
 10
-3.1899
 20
22.8536
 30
0.0
 10
-3.1916
 20
22.7684
 30
0.0
  0
SPLINE
  5
230
330
1F
100
AcDbEntity
  8
DEFAULT_1
 62
   250
100
AcDbSpline
210
0.0
220
0.0
230
1.0
 70
     8
 71
     3
 72
     8
 73
     4
 74
     0
 42
0.0000000001
 43
0.0000000001
 40
0.0
 40
0.0
 40
0.0
 40
0.0
 40
1.0
 40
1.0
 40
1.0
 40
1.0
 10
-3.1916
 20
22.0877
 30
0.0
 10
-3.1899
 20
22.1728
 30
0.0
 10
-3.1899
 20
22.2579
 30
0.0
 10
-3.1916
 20
22.343
 30
0.0
  0
SPLINE
  5
231
330
1F
100
AcDbEntity
  8
DEFAULT_1
 62
   250
100
AcDbSpline
210
0.0
220
0.0
230
1.0
 70
     8
 71
     3
 72
     8
 73
     4
 74
     0
 42
0.0000000001
 43
0.0000000001
 40
0.0
 40
0.0
 40
0.0
 40
0.0
 40
1.0
 40
1.0
 40
1.0
 40
1.0
 10
-3.1916
 20
21.407
 30
0.0
 10
-3.1899
 20
21.4921
 30
0.0
 10
-3.1899
 20
21.5771
 30
0.0
 10
-3.1916
 20
21.6623
 30
0.0
  0
SPLINE
  5
232
330
1F
100
AcDbEntity
  8
DEFAULT_1
 62
   250
100
AcDbSpline
210
0.0
220
0.0
230
1.0
 70
     8
 71
     3
 72
     8
 73
     4
 74
     0
 42
0.0000000001
 43
0.0000000001
 40
0.0
 40
0.0
 40
0.0
 40
0.0
 40
1.0
 40
1.0
 40
1.0
 40
1.0
 10
-3.1916
 20
19.6202
 30
0.0
 10
-3.1899
 20
19.5351
 30
0.0
 10
-3.1899
 20
19.45
 30
0.0
 10
-3.1916
 20
19.365
 30
0.0
  0
SPLINE
  5
233
330
1F
100
AcDbEntity
  8
DEFAULT_1
 62
   250
100
AcDbSpline
210
0.0
220
0.0
230
1.0
 70
     8
 71
     3
 72
     8
 73
     4
 74
     0
 42
0.0000000001
 43
0.0000000001
 40
0.0
 40
0.0
 40
0.0
 40
0.0
 40
1.0
 40
1.0
 40
1.0
 40
1.0
 10
-3.1916
 20
18.6842
 30
0.0
 10
-3.1899
 20
18.7694
 30
0.0
 10
-3.1899
 20
18.8544
 30
0.0
 10
-3.1916
 20
18.9396
 30
0.0
  0
SPLINE
  5
234
330
1F
100
AcDbEntity
  8
DEFAULT_1
 62
   250
100
AcDbSpline
210
0.0
220
0.0
230
1.0
 70
     8
 71
     3
 72
     8
 73
     4
 74
     0
 42
0.0000000001
 43
0.0000000001
 40
0.0
 40
0.0
 40
0.0
 40
0.0
 40
1.0
 40
1.0
 40
1.0
 40
1.0
 10
-3.1916
 20
18.0036
 30
0.0
 10
-3.1899
 20
18.0887
 30
0.0
 10
-3.1899
 20
18.1736
 30
0.0
 10
-3.1916
 20
18.2588
 30
0.0
  0
SPLINE
  5
235
330
1F
100
AcDbEntity
  8
DEFAULT_1
 62
   250
100
AcDbSpline
210
0.0
220
0.0
230
1.0
 70
     8
 71
     3
 72
     8
 73
     4
 74
     0
 42
0.0000000001
 43
0.0000000001
 40
0.0
 40
0.0
 40
0.0
 40
0.0
 40
1.0
 40
1.0
 40
1.0
 40
1.0
 10
-3.1916
 20
20.3009
 30
0.0
 10
-3.1899
 20
20.2158
 30
0.0
 10
-3.1899
 20
20.1307
 30
0.0
 10
-3.1916
 20
20.0456
 30
0.0
  0
SPLINE
  5
236
330
1F
100
AcDbEntity
  8
DEFAULT_1
 62
   250
100
AcDbSpline
210
0.0
220
0.0
230
1.0
 70
     8
 71
     3
 72
     8
 73
     4
 74
     0
 42
0.0000000001
 43
0.0000000001
 40
0.0
 40
0.0
 40
0.0
 40
0.0
 40
1.0
 40
1.0
 40
1.0
 40
1.0
 10
-3.617
 20
15.536
 30
0.0
 10
-3.6187
 20
15.4509
 30
0.0
 10
-3.6187
 20
15.3659
 30
0.0
 10
-3.617
 20
15.2807
 30
0.0
  0
ENDSEC
  0
SECTION
  2
OBJECTS
  0
DICTIONARY
  5
C
330
0
100
AcDbDictionary
  3
ACAD_GROUP
350
D
  3
ACAD_LAYOUT
350
1A
  3
ACAD_MATERIAL
350
3B
  3
ACAD_MLEADERSTYLE
350
259
  3
ACAD_MLINESTYLE
350
17
  3
ACAD_PLOTSETTINGS
350
19
  3
ACAD_VISUALSTYLE
350
2A
  3
ACDBHEADERROUNDTRIPXREC
350
237
  3
ACDBVARIABLEDICTIONARY
350
257
  0
DICTIONARY
  5
D
102
{ACAD_REACTORS
330
C
102
}
330
C
100
AcDbDictionary
  0
DICTIONARY
  5
1A
102
{ACAD_REACTORS
330
C
102
}
330
C
100
AcDbDictionary
  0
DICTIONARY
  5
3B
102
{ACAD_REACTORS
330
C
102
}
330
C
100
AcDbDictionary
  3
BYBLOCK
350
3D
  3
BYLAYER
350
3C
  3
GLOBAL
350
3E
  0
DICTIONARY
  5
259
102
{ACAD_REACTORS
330
C
102
}
330
C
100
AcDbDictionary
  0
DICTIONARY
  5
17
102
{ACAD_REACTORS
330
C
102
}
330
C
100
AcDbDictionary
  3
STANDARD
350
18
  0
DICTIONARY
  5
19
102
{ACAD_REACTORS
330
C
102
}
330
C
100
AcDbDictionary
  0
DICTIONARY
  5
2A
102
{ACAD_REACTORS
330
C
102
}
330
C
100
AcDbDictionary
  3
2DWIREFRAME
350
2F
  3
3D_HIDDEN
350
31
  3
3DWIREFRAME
350
30
  3
BASIC
350
32
  3
BRIGHTEN
350
36
  3
COLORCHANGE
350
3A
  3
CONCEPTUAL
350
34
  3
DIM
350
35
  3
FACEPATTERN
350
39
  3
FLAT
350
2B
  3
FLATWITHEDGES
350
2C
  3
GOURAUD
350
2D
  3
GOURAUDWITHEDGES
350
2E
  3
LINEPATTERN
350
38
  3
REALISTIC
350
33
  3
THICKEN
350
37
  0
DICTIONARY
  5
237
102
{ACAD_REACTORS
330
C
102
}
330
C
100
AcDbDictionary
  3
CEPSNTYPE
350
240
  3
DIMSTYLEDATA
350
256
  3
FINGERPRINTGUID
350
241
  3
HYPERLINKBASE
350
23A
  3
INSUNITS
350
23F
  3
LAYOUTDICT
350
23C
  3
LWETCUNION
350
23E
  3
PLOTSETDICT
350
23D
  3
PSVPSCALE
350
243
  3
PUCSBASE
350
246
  3
PUCSORGBACK
350
24C
  3
PUCSORGBOTTOM
350
248
  3
PUCSORGFRONT
350
24B
  3
PUCSORGLEFT
350
249
  3
PUCSORGRIGHT
350
24A
  3
PUCSORGTOP
350
247
  3
PUCSORTHOREF
350
244
  3
PUCSORTHOVIEW
350
245
  3
STYLESHEET
350
23B
  3
TSTACKALIGN
350
238
  3
TSTACKSIZE
350
239
  3
UCSBASE
350
24F
  3
UCSORGBACK
350
255
  3
UCSORGBOTTOM
350
251
  3
UCSORGFRONT
350
254
  3
UCSORGLEFT
350
252
  3
UCSORGRIGHT
350
253
  3
UCSORGTOP
350
250
  3
UCSORTHOREF
350
24D
  3
UCSORTHOVIEW
350
24E
  3
VERSIONGUID
350
242
  0
DICTIONARY
  5
257
102
{ACAD_REACTORS
330
C
102
}
330
C
100
AcDbDictionary
  3
DIMASSOC
350
25A
  3
HIDETEXT
350
25B
  0
MATERIAL
  5
3D
102
{ACAD_REACTORS
330
3B
102
}
102
{ACAD_XDICTIONARY
360
25E
102
}
330
3B
100
AcDbMaterial
  1
ByBlock
  0
MATERIAL
  5
3C
102
{ACAD_REACTORS
330
3B
102
}
102
{ACAD_XDICTIONARY
360
25C
102
}
330
3B
100
AcDbMaterial
  1
ByLayer
  0
MATERIAL
  5
3E
102
{ACAD_REACTORS
330
3B
102
}
102
{ACAD_XDICTIONARY
360
260
102
}
330
3B
100
AcDbMaterial
  1
Global
  0
MLINESTYLE
  5
18
102
{ACAD_REACTORS
330
17
102
}
330
17
100
AcDbMlineStyle
  2
Standard
 70
     0
  3

 62
   256
 51
90.0
 52
90.0
 71
     2
 49
0.5
 62
   256
  6
BYLAYER
 49
-0.5
 62
   256
  6
BYLAYER
  0
ACAD_PROXY_OBJECT
  5
2F
102
{ACAD_REACTORS
330
2A
102
}
330
2A
100
AcDbProxyObject
 90
      499
 91
      501
 93
      436
310
42CC9915DA5C99599C985B595049028333333333333E3BF0000000000000FB0107901411070040501600405405064090741402480A0340
1001
ACAD
1000
AcDbSavedByObjectVersion
1070
     0
  0
ACAD_PROXY_OBJECT
  5
31
102
{ACAD_REACTORS
330
2A
102
}
330
2A
100
AcDbProxyObject
 90
      499
 91
      501
 93
      500
310
424CD108121A5919195B90640502408333333333333E3BF0000000000000FB01079024090700405020000000000001110200405405064090740C02480A0340
1001
ACAD
1000
AcDbSavedByObjectVersion
1070
     0
  0
ACAD_PROXY_OBJECT
  5
30
102
{ACAD_REACTORS
330
2A
102
}
330
2A
100
AcDbProxyObject
 90
      499
 91
      501
 93
      436
310
42CCD915DA5C99599C985B595059028333333333333E3BF0000000000000FB0107901411070040501600405405064090741402480A0340
1001
ACAD
1000
AcDbSavedByObjectVersion
1070
     0
  0
ACAD_PROXY_OBJECT
  5
32
102
{ACAD_REACTORS
330
2A
102
}
330
2A
100
AcDbProxyObject
 90
      499
 91
      501
 93
      388
310
4150985CDA58D07406404333333333333E3BF0000000000000FB0107A41107004050150841D405064090741402480A0350
1001
ACAD
1000
AcDbSavedByObjectVersion
1070
     0
  0
ACAD_PROXY_OBJECT
  5
36
102
{ACAD_REACTORS
330
2A
102
}
330
2A
100
AcDbProxyObject
 90
      499
 91
      501
 93
      428
310
42109C9A59DA1D195B90C409028333333333333E3BF0000000000000FB010790141107004050150841D405064090741402480A029950
1001
ACAD
1000
AcDbSavedByObjectVersion
1070
     0
  0
ACAD_PROXY_OBJECT
  5
3A
102
{ACAD_REACTORS
330
2A
102
}
330
2A
100
AcDbProxyObject
 90
      499
 91
      501
 93
      452
310
42D0DBDB1BDC90DA185B99D95104090240C333333333333E3BF0000000000000FB0108901411070040501508421405064090741402480A0350
1001
ACAD
1000
AcDbSavedByObjectVersion
1070
     0
  0
ACAD_PROXY_OBJECT
  5
34
102
{ACAD_REACTORS
330
2A
102
}
330
2A
100
AcDbProxyObject
 90
      499
 91
      501
 93
      500
310
4290DBDB98D95C1D1D585B10940D028333333333333E3BF0000000000000FB0107902409070040501000000000000111010841D405064090740C02480A0340
1001
ACAD
1000
AcDbSavedByObjectVersion
1070
     0
  0
ACAD_PROXY_OBJECT
  5
35
102
{ACAD_REACTORS
330
2A
102
}
330
2A
100
AcDbProxyObject
 90
      499
 91
      501
 93
      412
310
40D11A5B50B409028333333333333E3BF0000000000000FB010790141107004050150841D405064090741402480A02677FFFFFD0
1001
ACAD
1000
AcDbSavedByObjectVersion
1070
     0
  0
ACAD_PROXY_OBJECT
  5
39
102
{ACAD_REACTORS
330
2A
102
}
330
2A
100
AcDbProxyObject
 90
      499
 91
      501
 93
      444
310
42D19858D95C185D1D195C9B90F409028333333333333E3BF0000000000000FB010790141107004050150841D405064090741402480A0350
1001
ACAD
1000
AcDbSavedByObjectVersion
1070
     0
  0
ACAD_PROXY_OBJECT
  5
2B
102
{ACAD_REACTORS
330
2A
102
}
330
2A
100
AcDbProxyObject
 90
      499
 91
      501
 93
      388
310
41119B185D240901404333333333333E3BF0000000000000F9010740A41107004050150841D405064090741402480A1B50
1001
ACAD
1000
AcDbSavedByObjectVersion
1070
     0
  0
ACAD_PROXY_OBJECT
  5
2C
102
{ACAD_REACTORS
330
2A
102
}
330
2A
100
AcDbProxyObject
 90
      499
 91
      501
 93
      476
310
43519B185D15DA5D1A115919D95CD0140901404333333333333E3BF0000000000000F9010740901411070040501600405405064090741402480A1B50
1001
ACAD
1000
AcDbSavedByObjectVersion
1070
     0
  0
ACAD_PROXY_OBJECT
  5
2D
102
{ACAD_REACTORS
330
2A
102
}
330
2A
100
AcDbProxyObject
 90
      499
 91
      501
 93
      412
310
41D1DBDD5C985D5910240902404333333333333E3BF0000000000000F9010740A411070040501641D405064090741402480A1B50
1001
ACAD
1000
AcDbSavedByObjectVersion
1070
     0
  0
ACAD_PROXY_OBJECT
  5
2E
102
{ACAD_REACTORS
330
2A
102
}
330
2A
100
AcDbProxyObject
 90
      499
 91
      501
 93
      500
310
4411DBDD5C985D5915DA5D1A115919D95CD0340902404333333333333E3BF0000000000000F9010740901411070040501600405405064090741402480A1B50
1001
ACAD
1000
AcDbSavedByObjectVersion
1070
     0
  0
ACAD_PROXY_OBJECT
  5
38
102
{ACAD_REACTORS
330
2A
102
}
330
2A
100
AcDbProxyObject
 90
      499
 91
      501
 93
      444
310
42D31A5B995C185D1D195C9B90E409028333333333333E3BF0000000000000FB010790141107004050750841D405064090741402483A0350
1001
ACAD
1000
AcDbSavedByObjectVersion
1070
     0
  0
ACAD_PROXY_OBJECT
  5
33
102
{ACAD_REACTORS
330
2A
102
}
330
2A
100
AcDbProxyObject
 90
      499
 91
      501
 93
      420
310
425499585B1A5CDD1A58D08409028333333333333E3BF0000000000000FB01079019070040501508421405064090741402480A1B40
1001
ACAD
1000
AcDbSavedByObjectVersion
1070
     0
  0
ACAD_PROXY_OBJECT
  5
37
102
{ACAD_REACTORS
330
2A
102
}
330
2A
100
AcDbProxyObject
 90
      499
 91
      501
 93
      412
310
41D51A1A58DAD95B90D409028333333333333E3BF0000000000000FB010790141107004050150C41D405064090741402480A0350
1001
ACAD
1000
AcDbSavedByObjectVersion
1070
     0
  0
XRECORD
  5
240
102
{ACAD_REACTORS
330
237
102
}
330
237
100
AcDbXrecord
 90
        0
  0
XRECORD
  5
256
102
{ACAD_REACTORS
330
237
102
}
330
237
100
AcDbXrecord
1000
DSTYLE
1002
{
1070
   340
340
11
1002
}
  0
XRECORD
  5
241
102
{ACAD_REACTORS
330
237
102
}
330
237
100
AcDbXrecord
  1
{A520384E-F9AF-4A36-AECA-656E74732EA6}
  0
XRECORD
  5
23A
102
{ACAD_REACTORS
330
237
102
}
330
237
100
AcDbXrecord
  1

  0
XRECORD
  5
23F
102
{ACAD_REACTORS
330
237
102
}
330
237
100
AcDbXrecord
 90
        4
  0
XRECORD
  5
23C
102
{ACAD_REACTORS
330
237
102
}
330
237
100
AcDbXrecord
340
1A
  0
XRECORD
  5
23E
102
{ACAD_REACTORS
330
237
102
}
330
237
100
AcDbXrecord
 90
    10781
  0
XRECORD
  5
23D
102
{ACAD_REACTORS
330
237
102
}
330
237
100
AcDbXrecord
340
19
  0
XRECORD
  5
243
102
{ACAD_REACTORS
330
237
102
}
330
237
100
AcDbXrecord
 40
0.0
  0
XRECORD
  5
246
102
{ACAD_REACTORS
330
237
102
}
330
237
100
AcDbXrecord
340
0
  0
XRECORD
  5
24C
102
{ACAD_REACTORS
330
237
102
}
330
237
100
AcDbXrecord
 10
0.0
 20
0.0
 30
0.0
  0
XRECORD
  5
248
102
{ACAD_REACTORS
330
237
102
}
330
237
100
AcDbXrecord
 10
0.0
 20
0.0
 30
0.0
  0
XRECORD
  5
24B
102
{ACAD_REACTORS
330
237
102
}
330
237
100
AcDbXrecord
 10
0.0
 20
0.0
 30
0.0
  0
XRECORD
  5
249
102
{ACAD_REACTORS
330
237
102
}
330
237
100
AcDbXrecord
 10
0.0
 20
0.0
 30
0.0
  0
XRECORD
  5
24A
102
{ACAD_REACTORS
330
237
102
}
330
237
100
AcDbXrecord
 10
0.0
 20
0.0
 30
0.0
  0
XRECORD
  5
247
102
{ACAD_REACTORS
330
237
102
}
330
237
100
AcDbXrecord
 10
0.0
 20
0.0
 30
0.0
  0
XRECORD
  5
244
102
{ACAD_REACTORS
330
237
102
}
330
237
100
AcDbXrecord
340
0
  0
XRECORD
  5
245
102
{ACAD_REACTORS
330
237
102
}
330
237
100
AcDbXrecord
 70
     0
  0
XRECORD
  5
23B
102
{ACAD_REACTORS
330
237
102
}
330
237
100
AcDbXrecord
  1

  0
XRECORD
  5
238
102
{ACAD_REACTORS
330
237
102
}
330
237
100
AcDbXrecord
 90
        1
  0
XRECORD
  5
239
102
{ACAD_REACTORS
330
237
102
}
330
237
100
AcDbXrecord
 90
       70
  0
XRECORD
  5
24F
102
{ACAD_REACTORS
330
237
102
}
330
237
100
AcDbXrecord
340
0
  0
XRECORD
  5
255
102
{ACAD_REACTORS
330
237
102
}
330
237
100
AcDbXrecord
 10
0.0
 20
0.0
 30
0.0
  0
XRECORD
  5
251
102
{ACAD_REACTORS
330
237
102
}
330
237
100
AcDbXrecord
 10
0.0
 20
0.0
 30
0.0
  0
XRECORD
  5
254
102
{ACAD_REACTORS
330
237
102
}
330
237
100
AcDbXrecord
 10
0.0
 20
0.0
 30
0.0
  0
XRECORD
  5
252
102
{ACAD_REACTORS
330
237
102
}
330
237
100
AcDbXrecord
 10
0.0
 20
0.0
 30
0.0
  0
XRECORD
  5
253
102
{ACAD_REACTORS
330
237
102
}
330
237
100
AcDbXrecord
 10
0.0
 20
0.0
 30
0.0
  0
XRECORD
  5
250
102
{ACAD_REACTORS
330
237
102
}
330
237
100
AcDbXrecord
 10
0.0
 20
0.0
 30
0.0
  0
XRECORD
  5
24D
102
{ACAD_REACTORS
330
237
102
}
330
237
100
AcDbXrecord
340
0
  0
XRECORD
  5
24E
102
{ACAD_REACTORS
330
237
102
}
330
237
100
AcDbXrecord
 70
     0
  0
XRECORD
  5
242
102
{ACAD_REACTORS
330
237
102
}
330
237
100
AcDbXrecord
  1
{FAEB1C32-E019-11D5-929B-00C0DF256EC4}
  0
DICTIONARYVAR
  5
25A
102
{ACAD_REACTORS
330
257
102
}
330
257
100
DictionaryVariables
280
     0
  1
2
  0
DICTIONARYVAR
  5
25B
102
{ACAD_REACTORS
330
257
102
}
330
257
100
DictionaryVariables
280
     0
  1
1
  0
DICTIONARY
  5
25E
330
3D
100
AcDbDictionary
280
     1
  3
ACAD_XREC_ROUNDTRIP
360
25F
  0
DICTIONARY
  5
25C
330
3C
100
AcDbDictionary
280
     1
  3
ACAD_XREC_ROUNDTRIP
360
25D
  0
DICTIONARY
  5
260
330
3E
100
AcDbDictionary
280
     1
  3
ACAD_XREC_ROUNDTRIP
360
261
  0
XRECORD
  5
25F
102
{ACAD_REACTORS
330
25E
102
}
330
25E
100
AcDbXrecord
102
MATERIAL
148
0.0
149
0.0
149
0.0
 93
        0
 94
      127
282
     0
 72
     1
 77
     1
171
     1
175
     1
179
     1
273
     0
  0
XRECORD
  5
25D
102
{ACAD_REACTORS
330
25C
102
}
330
25C
100
AcDbXrecord
102
MATERIAL
148
0.0
149
0.0
149
0.0
 93
        0
 94
      127
282
     0
 72
     1
 77
     1
171
     1
175
     1
179
     1
273
     0
  0
XRECORD
  5
261
102
{ACAD_REACTORS
330
260
102
}
330
260
100
AcDbXrecord
102
MATERIAL
148
0.0
149
0.0
149
0.0
 93
        0
 94
      127
282
     0
 72
     1
 77
     1
171
     1
175
     1
179
     1
273
     0
  0
ENDSEC
  0
EOF
