  0
SECTION
  2
HEADER
  9
$ACADVER
  1
AC1014
  9
$ACADMAINTVER
 70
     9
  9
$DWGCODEPAGE
  3
ANSI_1250
  9
$INSBASE
 10
0.0
 20
0.0
 30
0.0
  9
$EXTMIN
 10
-29.7723
 20
-18.4465
 30
0.0
  9
$EXTMAX
 10
29.772
 20
18.3647
 30
0.0
  9
$LIMMIN
 10
0.0
 20
0.0
  9
$LIMMAX
 10
12.0
 20
9.0
  9
$ORTHOMODE
 70
     0
  9
$REGENMODE
 70
     1
  9
$FILLMODE
 70
     1
  9
$QTEXTMODE
 70
     0
  9
$MIRRTEXT
 70
     1
  9
$DRAGMODE
 70
     2
  9
$LTSCALE
 40
1.0
  9
$OSMODE
 70
    37
  9
$ATTMODE
 70
     1
  9
$TEXTSIZE
 40
0.2
  9
$TRACEWID
 40
0.05
  9
$TEXTSTYLE
  7
STANDARD
  9
$CLAYER
  8
0
  9
$CELTYPE
  6
BYLAYER
  9
$CECOLOR
 62
   256
  9
$CELTSCALE
 40
1.0
  9
$DELOBJ
 70
     1
  9
$DISPSILH
 70
     0
  9
$DIMSCALE
 40
1.0
  9
$DIMASZ
 40
0.18
  9
$DIMEXO
 40
0.0625
  9
$DIMDLI
 40
0.38
  9
$DIMRND
 40
0.0
  9
$DIMDLE
 40
0.0
  9
$DIMEXE
 40
0.18
  9
$DIMTP
 40
0.0
  9
$DIMTM
 40
0.0
  9
$DIMTXT
 40
0.18
  9
$DIMCEN
 40
0.09
  9
$DIMTSZ
 40
0.0
  9
$DIMTOL
 70
     0
  9
$DIMLIM
 70
     0
  9
$DIMTIH
 70
     1
  9
$DIMTOH
 70
     1
  9
$DIMSE1
 70
     0
  9
$DIMSE2
 70
     0
  9
$DIMTAD
 70
     0
  9
$DIMZIN
 70
     0
  9
$DIMBLK
  1

  9
$DIMASO
 70
     1
  9
$DIMSHO
 70
     1
  9
$DIMPOST
  1

  9
$DIMAPOST
  1

  9
$DIMALT
 70
     0
  9
$DIMALTD
 70
     2
  9
$DIMALTF
 40
25.4
  9
$DIMLFAC
 40
1.0
  9
$DIMTOFL
 70
     0
  9
$DIMTVP
 40
0.0
  9
$DIMTIX
 70
     0
  9
$DIMSOXD
 70
     0
  9
$DIMSAH
 70
     0
  9
$DIMBLK1
  1

  9
$DIMBLK2
  1

  9
$DIMSTYLE
  2
STANDARD
  9
$DIMCLRD
 70
     0
  9
$DIMCLRE
 70
     0
  9
$DIMCLRT
 70
     0
  9
$DIMTFAC
 40
1.0
  9
$DIMGAP
 40
0.09
  9
$DIMJUST
 70
     0
  9
$DIMSD1
 70
     0
  9
$DIMSD2
 70
     0
  9
$DIMTOLJ
 70
     1
  9
$DIMTZIN
 70
     0
  9
$DIMALTZ
 70
     0
  9
$DIMALTTZ
 70
     0
  9
$DIMFIT
 70
     3
  9
$DIMUPT
 70
     0
  9
$DIMUNIT
 70
     2
  9
$DIMDEC
 70
     4
  9
$DIMTDEC
 70
     4
  9
$DIMALTU
 70
     2
  9
$DIMALTTD
 70
     2
  9
$DIMTXSTY
  7
STANDARD
  9
$DIMAUNIT
 70
     0
  9
$LUNITS
 70
     2
  9
$LUPREC
 70
     4
  9
$SKETCHINC
 40
0.1
  9
$FILLETRAD
 40
0.5
  9
$AUNITS
 70
     0
  9
$AUPREC
 70
     0
  9
$MENU
  1
.
  9
$ELEVATION
 40
0.0
  9
$PELEVATION
 40
0.0
  9
$THICKNESS
 40
0.0
  9
$LIMCHECK
 70
     0
  9
$CHAMFERA
 40
0.5
  9
$CHAMFERB
 40
0.5
  9
$CHAMFERC
 40
1.0
  9
$CHAMFERD
 40
0.0
  9
$SKPOLY
 70
     0
  9
$TDCREATE
 40
2456220.564194815
  9
$TDUPDATE
 40
2456220.564194826
  9
$TDINDWG
 40
0.0000000116
  9
$TDUSRTIMER
 40
0.0000000116
  9
$USRTIMER
 70
     1
  9
$ANGBASE
 50
0.0
  9
$ANGDIR
 70
     0
  9
$PDMODE
 70
     0
  9
$PDSIZE
 40
0.0
  9
$PLINEWID
 40
0.0
  9
$COORDS
 70
     1
  9
$SPLFRAME
 70
     0
  9
$SPLINETYPE
 70
     6
  9
$SPLINESEGS
 70
     8
  9
$ATTDIA
 70
     0
  9
$ATTREQ
 70
     1
  9
$HANDLING
 70
     1
  9
$HANDSEED
  5
CD
  9
$SURFTAB1
 70
     6
  9
$SURFTAB2
 70
     6
  9
$SURFTYPE
 70
     6
  9
$SURFU
 70
     6
  9
$SURFV
 70
     6
  9
$UCSNAME
  2

  9
$UCSORG
 10
0.0
 20
0.0
 30
0.0
  9
$UCSXDIR
 10
1.0
 20
0.0
 30
0.0
  9
$UCSYDIR
 10
0.0
 20
1.0
 30
0.0
  9
$PUCSNAME
  2

  9
$PUCSORG
 10
0.0
 20
0.0
 30
0.0
  9
$PUCSXDIR
 10
1.0
 20
0.0
 30
0.0
  9
$PUCSYDIR
 10
0.0
 20
1.0
 30
0.0
  9
$USERI1
 70
     0
  9
$USERI2
 70
     0
  9
$USERI3
 70
     0
  9
$USERI4
 70
     0
  9
$USERI5
 70
     0
  9
$USERR1
 40
0.0
  9
$USERR2
 40
0.0
  9
$USERR3
 40
0.0
  9
$USERR4
 40
0.0
  9
$USERR5
 40
0.0
  9
$WORLDVIEW
 70
     1
  9
$SHADEDGE
 70
     3
  9
$SHADEDIF
 70
    70
  9
$TILEMODE
 70
     1
  9
$MAXACTVP
 70
    64
  9
$PINSBASE
 10
0.0
 20
0.0
 30
0.0
  9
$PLIMCHECK
 70
     0
  9
$PEXTMIN
 10
1.000000000000000E+20
 20
1.000000000000000E+20
 30
1.000000000000000E+20
  9
$PEXTMAX
 10
-1.000000000000000E+20
 20
-1.000000000000000E+20
 30
-1.000000000000000E+20
  9
$PLIMMIN
 10
0.0
 20
0.0
  9
$PLIMMAX
 10
12.0
 20
9.0
  9
$UNITMODE
 70
     0
  9
$VISRETAIN
 70
     1
  9
$PLINEGEN
 70
     0
  9
$PSLTSCALE
 70
     1
  9
$TREEDEPTH
 70
  3020
  9
$PICKSTYLE
 70
     1
  9
$CMLSTYLE
  2
STANDARD
  9
$CMLJUST
 70
     0
  9
$CMLSCALE
 40
1.0
  9
$PROXYGRAPHICS
 70
     1
  9
$MEASUREMENT
 70
     0
  0
ENDSEC
  0
SECTION
  2
CLASSES
  0
CLASS
  1
ACDBDICTIONARYWDFLT
  2
AcDbDictionaryWithDefault
  3
ObjectDBX Classes
 90
        0
280
     0
281
     0
  0
CLASS
  1
VISUALSTYLE
  2
AcDbVisualStyle
  3
ObjectDBX Classes
 90
     4095
280
     0
281
     0
  0
CLASS
  1
MATERIAL
  2
AcDbMaterial
  3
ObjectDBX Classes
 90
     1153
280
     0
281
     0
  0
CLASS
  1
DICTIONARYVAR
  2
AcDbDictionaryVar
  3
ObjectDBX Classes
 90
        0
280
     0
281
     0
  0
CLASS
  1
XRECORD
  2
AcDbXrecord
  3
AutoCAD 2000
 90
        0
280
     0
281
     0
  0
CLASS
  1
LWPOLYLINE
  2
AcDbPolyline
  3
AutoCAD 2000
 90
        0
280
     0
281
     1
  0
CLASS
  1
HATCH
  2
AcDbHatch
  3
AutoCAD 2000
 90
        0
280
     0
281
     1
  0
CLASS
  1
ACDBPLACEHOLDER
  2
AcDbPlaceHolder
  3
ObjectDBX Classes
 90
        0
280
     0
281
     0
  0
CLASS
  1
LAYOUT
  2
AcDbLayout
  3
ObjectDBX Classes
 90
        0
280
     0
281
     0
  0
ENDSEC
  0
SECTION
  2
TABLES
  0
TABLE
  2
VPORT
  5
8
330
0
100
AcDbSymbolTable
 70
     1
  0
VPORT
  5
29
330
8
100
AcDbSymbolTableRecord
100
AcDbViewportTableRecord
  2
*ACTIVE
 70
     0
 10
0.0
 20
0.0
 11
1.0
 21
1.0
 12
10.42990654205607
 22
4.5
 13
0.0
 23
0.0
 14
0.5
 24
0.5
 15
0.5
 25
0.5
 16
0.0
 26
0.0
 36
1.0
 17
0.0
 27
0.0
 37
0.0
 40
9.0
 41
1.972972972850329
 42
50.0
 43
0.0
 44
0.0
 50
0.0
 51
0.0
 71
     0
 72
   100
 73
     1
 74
     3
 75
     0
 76
     0
 77
     0
 78
     0
  0
ENDTAB
  0
TABLE
  2
LTYPE
  5
5
330
0
100
AcDbSymbolTable
 70
     1
  0
LTYPE
  5
14
330
5
100
AcDbSymbolTableRecord
100
AcDbLinetypeTableRecord
  2
BYBLOCK
 70
     0
  3

 72
    65
 73
     0
 40
0.0
  0
LTYPE
  5
15
330
5
100
AcDbSymbolTableRecord
100
AcDbLinetypeTableRecord
  2
BYLAYER
 70
     0
  3

 72
    65
 73
     0
 40
0.0
  0
LTYPE
  5
16
330
5
100
AcDbSymbolTableRecord
100
AcDbLinetypeTableRecord
  2
CONTINUOUS
 70
     0
  3
Solid line
 72
    65
 73
     0
 40
0.0
  0
ENDTAB
  0
TABLE
  2
LAYER
  5
2
330
0
100
AcDbSymbolTable
 70
     2
  0
LAYER
  5
10
330
2
100
AcDbSymbolTableRecord
100
AcDbLayerTableRecord
  2
0
 70
     0
 62
     7
  6
CONTINUOUS
  0
LAYER
  5
40
330
2
100
AcDbSymbolTableRecord
100
AcDbLayerTableRecord
  2
AXIS
 70
     0
 62
     7
  6
CONTINUOUS
  0
ENDTAB
  0
TABLE
  2
STYLE
  5
3
330
0
100
AcDbSymbolTable
 70
     1
  0
STYLE
  5
11
330
3
100
AcDbSymbolTableRecord
100
AcDbTextStyleTableRecord
  2
STANDARD
 70
     0
 40
0.0
 41
1.0
 50
0.0
 71
     0
 42
0.2
  3
txt
  4

  0
ENDTAB
  0
TABLE
  2
VIEW
  5
6
330
0
100
AcDbSymbolTable
 70
     0
  0
ENDTAB
  0
TABLE
  2
UCS
  5
7
330
0
100
AcDbSymbolTable
 70
     0
  0
ENDTAB
  0
TABLE
  2
APPID
  5
9
330
0
100
AcDbSymbolTable
 70
     2
  0
APPID
  5
12
330
9
100
AcDbSymbolTableRecord
100
AcDbRegAppTableRecord
  2
ACAD
 70
     0
  0
APPID
  5
3F
330
9
100
AcDbSymbolTableRecord
100
AcDbRegAppTableRecord
  2
ODA
 70
     0
  0
ENDTAB
  0
TABLE
  2
DIMSTYLE
  5
A
330
0
100
AcDbSymbolTable
 70
     1
  0
DIMSTYLE
105
27
330
A
100
AcDbSymbolTableRecord
100
AcDbDimStyleTableRecord
  2
STANDARD
 70
     0
  3

  4

  5

  6

  7

 40
1.0
 41
0.18
 42
0.0625
 43
0.38
 44
0.18
 45
0.0
 46
0.0
 47
0.0
 48
0.0
140
0.18
141
0.09
142
0.0
143
25.4
144
1.0
145
0.0
146
1.0
147
0.09
 71
     0
 72
     0
 73
     1
 74
     1
 75
     0
 76
     0
 77
     0
 78
     0
170
     0
171
     2
172
     0
173
     0
174
     0
175
     0
176
     0
177
     0
178
     0
270
     2
271
     4
272
     4
273
     2
274
     2
340
11
275
     0
280
     0
281
     0
282
     0
283
     1
284
     0
285
     0
286
     0
287
     3
288
     0
  0
ENDTAB
  0
TABLE
  2
BLOCK_RECORD
  5
1
330
0
100
AcDbSymbolTable
 70
     1
  0
BLOCK_RECORD
  5
1F
330
1
100
AcDbSymbolTableRecord
100
AcDbBlockTableRecord
  2
*MODEL_SPACE
  0
BLOCK_RECORD
  5
1B
330
1
100
AcDbSymbolTableRecord
100
AcDbBlockTableRecord
  2
*PAPER_SPACE
  0
ENDTAB
  0
ENDSEC
  0
SECTION
  2
BLOCKS
  0
BLOCK
  5
20
330
1F
100
AcDbEntity
  8
0
100
AcDbBlockBegin
  2
*MODEL_SPACE
 70
     0
 10
0.0
 20
0.0
 30
0.0
  3
*MODEL_SPACE
  1

  0
ENDBLK
  5
21
330
1F
100
AcDbEntity
  8
0
100
AcDbBlockEnd
  0
BLOCK
  5
1C
330
1B
100
AcDbEntity
 67
     1
  8
0
100
AcDbBlockBegin
  2
*PAPER_SPACE
 70
     0
 10
0.0
 20
0.0
 30
0.0
  3
*PAPER_SPACE
  1

  0
ENDBLK
  5
1D
330
1B
100
AcDbEntity
 67
     1
  8
0
100
AcDbBlockEnd
  0
ENDSEC
  0
SECTION
  2
ENTITIES
  0
SPLINE
  5
41
330
1F
100
AcDbEntity
  8
AXIS
 62
   250
100
AcDbSpline
210
0.0
220
0.0
230
1.0
 70
    11
 71
     3
 72
    20
 73
    16
 74
     0
 42
0.0000000001
 43
0.0000000001
 40
0.0
 40
0.0
 40
0.0
 40
0.0
 40
0.2
 40
0.2
 40
0.2
 40
0.2
 40
0.4
 40
0.4
 40
0.4
 40
0.4
 40
0.6
 40
0.6
 40
0.6
 40
0.6
 40
1.0
 40
1.0
 40
1.0
 40
1.0
 10
-26.907
 20
-10.8382
 30
0.0
 10
-26.907
 20
-10.8382
 30
0.0
 10
-27.3304
 20
-13.8384
 30
0.0
 10
-27.3304
 20
-13.8384
 30
0.0
 10
-27.3304
 20
-13.8384
 30
0.0
 10
-27.3304
 20
-13.8384
 30
0.0
 10
-27.4244
 20
-13.8384
 30
0.0
 10
-27.4244
 20
-13.8384
 30
0.0
 10
-27.4244
 20
-13.8384
 30
0.0
 10
-27.4244
 20
-13.8384
 30
0.0
 10
-27.876
 20
-10.8382
 30
0.0
 10
-27.876
 20
-10.8382
 30
0.0
 10
-27.876
 20
-10.8382
 30
0.0
 10
-27.876
 20
-10.8382
 30
0.0
 10
-26.907
 20
-10.8382
 30
0.0
 10
-26.907
 20
-10.8382
 30
0.0
  0
SPLINE
  5
42
330
1F
100
AcDbEntity
  8
AXIS
 62
   250
100
AcDbSpline
210
0.0
220
0.0
230
1.0
 70
    11
 71
     3
 72
    20
 73
    16
 74
     0
 42
0.0000000001
 43
0.0000000001
 40
0.0
 40
0.0
 40
0.0
 40
0.0
 40
0.2
 40
0.2
 40
0.2
 40
0.2
 40
0.4
 40
0.4
 40
0.4
 40
0.4
 40
0.6
 40
0.6
 40
0.6
 40
0.6
 40
1.0
 40
1.0
 40
1.0
 40
1.0
 10
-27.8312
 20
10.4806
 30
0.0
 10
-27.8312
 20
10.4806
 30
0.0
 10
-27.4078
 20
13.4809
 30
0.0
 10
-27.4078
 20
13.4809
 30
0.0
 10
-27.4078
 20
13.4809
 30
0.0
 10
-27.4078
 20
13.4809
 30
0.0
 10
-27.3137
 20
13.4809
 30
0.0
 10
-27.3137
 20
13.4809
 30
0.0
 10
-27.3137
 20
13.4809
 30
0.0
 10
-27.3137
 20
13.4809
 30
0.0
 10
-26.8622
 20
10.4806
 30
0.0
 10
-26.8622
 20
10.4806
 30
0.0
 10
-26.8622
 20
10.4806
 30
0.0
 10
-26.8622
 20
10.4806
 30
0.0
 10
-27.8312
 20
10.4806
 30
0.0
 10
-27.8312
 20
10.4806
 30
0.0
  0
SPLINE
  5
43
330
1F
100
AcDbEntity
  8
AXIS
 62
   250
100
AcDbSpline
210
0.0
220
0.0
230
1.0
 70
    11
 71
     3
 72
    20
 73
    16
 74
     0
 42
0.0000000001
 43
0.0000000001
 40
0.0
 40
0.0
 40
0.0
 40
0.0
 40
0.2
 40
0.2
 40
0.2
 40
0.2
 40
0.4
 40
0.4
 40
0.4
 40
0.4
 40
0.6
 40
0.6
 40
0.6
 40
0.6
 40
1.0
 40
1.0
 40
1.0
 40
1.0
 10
14.2433
 20
-6.9335
 30
0.0
 10
14.2433
 20
-6.9335
 30
0.0
 10
13.8198
 20
-9.9345
 30
0.0
 10
13.8198
 20
-9.9345
 30
0.0
 10
13.8198
 20
-9.9345
 30
0.0
 10
13.8198
 20
-9.9345
 30
0.0
 10
13.7257
 20
-9.9345
 30
0.0
 10
13.7257
 20
-9.9345
 30
0.0
 10
13.7257
 20
-9.9345
 30
0.0
 10
13.7257
 20
-9.9345
 30
0.0
 10
13.274
 20
-6.9335
 30
0.0
 10
13.274
 20
-6.9335
 30
0.0
 10
13.274
 20
-6.9335
 30
0.0
 10
13.274
 20
-6.9335
 30
0.0
 10
14.2433
 20
-6.9335
 30
0.0
 10
14.2433
 20
-6.9335
 30
0.0
  0
SPLINE
  5
44
330
1F
100
AcDbEntity
  8
AXIS
 62
   250
100
AcDbSpline
210
0.0
220
0.0
230
1.0
 70
    11
 71
     3
 72
    20
 73
    16
 74
     0
 42
0.0000000001
 43
0.0000000001
 40
0.0
 40
0.0
 40
0.0
 40
0.0
 40
0.2
 40
0.2
 40
0.2
 40
0.2
 40
0.4
 40
0.4
 40
0.4
 40
0.4
 40
0.6
 40
0.6
 40
0.6
 40
0.6
 40
1.0
 40
1.0
 40
1.0
 40
1.0
 10
13.31
 20
6.8581
 30
0.0
 10
13.31
 20
6.8581
 30
0.0
 10
13.7334
 20
9.8586
 30
0.0
 10
13.7334
 20
9.8586
 30
0.0
 10
13.7334
 20
9.8586
 30
0.0
 10
13.7334
 20
9.8586
 30
0.0
 10
13.8275
 20
9.8586
 30
0.0
 10
13.8275
 20
9.8586
 30
0.0
 10
13.8275
 20
9.8586
 30
0.0
 10
13.8275
 20
9.8586
 30
0.0
 10
14.2791
 20
6.8581
 30
0.0
 10
14.2791
 20
6.8581
 30
0.0
 10
14.2791
 20
6.8581
 30
0.0
 10
14.2791
 20
6.8581
 30
0.0
 10
13.31
 20
6.8581
 30
0.0
 10
13.31
 20
6.8581
 30
0.0
  0
SPLINE
  5
45
330
1F
100
AcDbEntity
  8
AXIS
 62
   250
100
AcDbSpline
210
0.0
220
0.0
230
1.0
 70
    11
 71
     3
 72
    20
 73
    16
 74
     0
 42
0.0000000001
 43
0.0000000001
 40
0.0
 40
0.0
 40
0.0
 40
0.0
 40
0.2
 40
0.2
 40
0.2
 40
0.2
 40
0.4
 40
0.4
 40
0.4
 40
0.4
 40
0.6
 40
0.6
 40
0.6
 40
0.6
 40
1.0
 40
1.0
 40
1.0
 40
1.0
 10
7.4124
 20
-16.7064
 30
0.0
 10
7.4124
 20
-16.7064
 30
0.0
 10
10.4139
 20
-17.13
 30
0.0
 10
10.4139
 20
-17.13
 30
0.0
 10
10.4139
 20
-17.13
 30
0.0
 10
10.4139
 20
-17.13
 30
0.0
 10
10.4139
 20
-17.2241
 30
0.0
 10
10.4139
 20
-17.2241
 30
0.0
 10
10.4139
 20
-17.2241
 30
0.0
 10
10.4139
 20
-17.2241
 30
0.0
 10
7.4124
 20
-17.6759
 30
0.0
 10
7.4124
 20
-17.6759
 30
0.0
 10
7.4124
 20
-17.6759
 30
0.0
 10
7.4124
 20
-17.6759
 30
0.0
 10
7.4124
 20
-16.7064
 30
0.0
 10
7.4124
 20
-16.7064
 30
0.0
  0
SPLINE
  5
46
330
1F
100
AcDbEntity
  8
AXIS
 62
   250
100
AcDbSpline
210
0.0
220
0.0
230
1.0
 70
    11
 71
     3
 72
    20
 73
    16
 74
     0
 42
0.0000000001
 43
0.0000000001
 40
0.0
 40
0.0
 40
0.0
 40
0.0
 40
0.2
 40
0.2
 40
0.2
 40
0.2
 40
0.4
 40
0.4
 40
0.4
 40
0.4
 40
0.6
 40
0.6
 40
0.6
 40
0.6
 40
1.0
 40
1.0
 40
1.0
 40
1.0
 10
-16.8369
 20
-17.6544
 30
0.0
 10
-16.8369
 20
-17.6544
 30
0.0
 10
-19.8375
 20
-17.2309
 30
0.0
 10
-19.8375
 20
-17.2309
 30
0.0
 10
-19.8375
 20
-17.2309
 30
0.0
 10
-19.8375
 20
-17.2309
 30
0.0
 10
-19.8375
 20
-17.1369
 30
0.0
 10
-19.8375
 20
-17.1369
 30
0.0
 10
-19.8375
 20
-17.1369
 30
0.0
 10
-19.8375
 20
-17.1369
 30
0.0
 10
-16.8369
 20
-16.6852
 30
0.0
 10
-16.8369
 20
-16.6852
 30
0.0
 10
-16.8369
 20
-16.6852
 30
0.0
 10
-16.8369
 20
-16.6852
 30
0.0
 10
-16.8369
 20
-17.6544
 30
0.0
 10
-16.8369
 20
-17.6544
 30
0.0
  0
SPLINE
  5
47
330
1F
100
AcDbEntity
  8
AXIS
 62
   250
100
AcDbSpline
210
0.0
220
0.0
230
1.0
 70
    11
 71
     3
 72
    20
 73
    16
 74
     0
 42
0.0000000001
 43
0.0000000001
 40
0.0
 40
0.0
 40
0.0
 40
0.0
 40
0.2
 40
0.2
 40
0.2
 40
0.2
 40
0.4
 40
0.4
 40
0.4
 40
0.4
 40
0.6
 40
0.6
 40
0.6
 40
0.6
 40
1.0
 40
1.0
 40
1.0
 40
1.0
 10
12.7725
 20
16.4064
 30
0.0
 10
12.7725
 20
16.4064
 30
0.0
 10
15.7755
 20
15.9826
 30
0.0
 10
15.7755
 20
15.9826
 30
0.0
 10
15.7755
 20
15.9826
 30
0.0
 10
15.7755
 20
15.9826
 30
0.0
 10
15.7755
 20
15.8885
 30
0.0
 10
15.7755
 20
15.8885
 30
0.0
 10
15.7755
 20
15.8885
 30
0.0
 10
15.7755
 20
15.8885
 30
0.0
 10
12.7725
 20
15.4365
 30
0.0
 10
12.7725
 20
15.4365
 30
0.0
 10
12.7725
 20
15.4365
 30
0.0
 10
12.7725
 20
15.4365
 30
0.0
 10
12.7725
 20
16.4064
 30
0.0
 10
12.7725
 20
16.4064
 30
0.0
  0
SPLINE
  5
48
330
1F
100
AcDbEntity
  8
AXIS
 62
   250
100
AcDbSpline
210
0.0
220
0.0
230
1.0
 70
    11
 71
     3
 72
    20
 73
    16
 74
     0
 42
0.0000000001
 43
0.0000000001
 40
0.0
 40
0.0
 40
0.0
 40
0.0
 40
0.2
 40
0.2
 40
0.2
 40
0.2
 40
0.4
 40
0.4
 40
0.4
 40
0.4
 40
0.6
 40
0.6
 40
0.6
 40
0.6
 40
1.0
 40
1.0
 40
1.0
 40
1.0
 10
-22.1954
 20
15.4585
 30
0.0
 10
-22.1954
 20
15.4585
 30
0.0
 10
-25.1954
 20
15.8818
 30
0.0
 10
-25.1954
 20
15.8818
 30
0.0
 10
-25.1954
 20
15.8818
 30
0.0
 10
-25.1954
 20
15.8818
 30
0.0
 10
-25.1954
 20
15.9759
 30
0.0
 10
-25.1954
 20
15.9759
 30
0.0
 10
-25.1954
 20
15.9759
 30
0.0
 10
-25.1954
 20
15.9759
 30
0.0
 10
-22.1954
 20
16.4274
 30
0.0
 10
-22.1954
 20
16.4274
 30
0.0
 10
-22.1954
 20
16.4274
 30
0.0
 10
-22.1954
 20
16.4274
 30
0.0
 10
-22.1954
 20
15.4585
 30
0.0
 10
-22.1954
 20
15.4585
 30
0.0
  0
SPLINE
  5
49
330
1F
100
AcDbEntity
  8
AXIS
 62
   250
100
AcDbSpline
210
0.0
220
0.0
230
1.0
 70
    11
 71
     3
 72
    20
 73
    16
 74
     0
 42
0.0000000001
 43
0.0000000001
 40
0.0
 40
0.0
 40
0.0
 40
0.0
 40
0.2
 40
0.2
 40
0.2
 40
0.2
 40
0.4
 40
0.4
 40
0.4
 40
0.4
 40
0.6
 40
0.6
 40
0.6
 40
0.6
 40
1.0
 40
1.0
 40
1.0
 40
1.0
 10
20.1978
 20
-17.3949
 30
0.0
 10
20.1978
 20
-17.3949
 30
0.0
 10
23.1995
 20
-17.8185
 30
0.0
 10
23.1995
 20
-17.8185
 30
0.0
 10
23.1995
 20
-17.8185
 30
0.0
 10
23.1995
 20
-17.8185
 30
0.0
 10
23.1995
 20
-17.9126
 30
0.0
 10
23.1995
 20
-17.9126
 30
0.0
 10
23.1995
 20
-17.9126
 30
0.0
 10
23.1995
 20
-17.9126
 30
0.0
 10
20.1978
 20
-18.3644
 30
0.0
 10
20.1978
 20
-18.3644
 30
0.0
 10
20.1978
 20
-18.3644
 30
0.0
 10
20.1978
 20
-18.3644
 30
0.0
 10
20.1978
 20
-17.3949
 30
0.0
 10
20.1978
 20
-17.3949
 30
0.0
  0
SPLINE
  5
4A
330
1F
100
AcDbEntity
  8
AXIS
 62
   250
100
AcDbSpline
210
0.0
220
0.0
230
1.0
 70
    11
 71
     3
 72
    20
 73
    16
 74
     0
 42
0.0000000001
 43
0.0000000001
 40
0.0
 40
0.0
 40
0.0
 40
0.0
 40
0.2
 40
0.2
 40
0.2
 40
0.2
 40
0.4
 40
0.4
 40
0.4
 40
0.4
 40
0.6
 40
0.6
 40
0.6
 40
0.6
 40
1.0
 40
1.0
 40
1.0
 40
1.0
 10
29.2296
 20
-18.3404
 30
0.0
 10
29.2296
 20
-18.3404
 30
0.0
 10
26.2274
 20
-17.9168
 30
0.0
 10
26.2274
 20
-17.9168
 30
0.0
 10
26.2274
 20
-17.9168
 30
0.0
 10
26.2274
 20
-17.9168
 30
0.0
 10
26.2274
 20
-17.8227
 30
0.0
 10
26.2274
 20
-17.8227
 30
0.0
 10
26.2274
 20
-17.8227
 30
0.0
 10
26.2274
 20
-17.8227
 30
0.0
 10
29.2296
 20
-17.3708
 30
0.0
 10
29.2296
 20
-17.3708
 30
0.0
 10
29.2296
 20
-17.3708
 30
0.0
 10
29.2296
 20
-17.3708
 30
0.0
 10
29.2296
 20
-18.3404
 30
0.0
 10
29.2296
 20
-18.3404
 30
0.0
  0
SPLINE
  5
4B
330
1F
100
AcDbEntity
  8
AXIS
 62
   250
100
AcDbSpline
210
0.0
220
0.0
230
1.0
 70
    24
 71
     3
 72
     8
 73
     4
 74
     0
 42
0.0000000001
 43
0.0000000001
 40
0.0
 40
0.0
 40
0.0
 40
0.0
 40
1.0
 40
1.0
 40
1.0
 40
1.0
 10
-25.0308
 20
-13.8911
 30
0.0
 10
-25.0308
 20
-13.8911
 30
0.0
 10
-27.6168
 20
-13.8911
 30
0.0
 10
-27.6168
 20
-13.8911
 30
0.0
  0
SPLINE
  5
4C
330
1F
100
AcDbEntity
  8
AXIS
 62
   250
100
AcDbSpline
210
0.0
220
0.0
230
1.0
 70
    24
 71
     3
 72
     8
 73
     4
 74
     0
 42
0.0000000001
 43
0.0000000001
 40
0.0
 40
0.0
 40
0.0
 40
0.0
 40
1.0
 40
1.0
 40
1.0
 40
1.0
 10
-24.9736
 20
13.5801
 30
0.0
 10
-24.9736
 20
13.5801
 30
0.0
 10
-27.6168
 20
13.5801
 30
0.0
 10
-27.6168
 20
13.5801
 30
0.0
  0
SPLINE
  5
4D
330
1F
100
AcDbEntity
  8
AXIS
 62
   250
100
AcDbSpline
210
0.0
220
0.0
230
1.0
 70
    24
 71
     3
 72
     8
 73
     4
 74
     0
 42
0.0000000001
 43
0.0000000001
 40
0.0
 40
0.0
 40
0.0
 40
0.0
 40
1.0
 40
1.0
 40
1.0
 40
1.0
 10
-27.379
 20
13.5801
 30
0.0
 10
-27.379
 20
13.5801
 30
0.0
 10
-27.379
 20
-13.4644
 30
0.0
 10
-27.379
 20
-13.4644
 30
0.0
  0
SPLINE
  5
4E
330
1F
100
AcDbEntity
  8
AXIS
 62
   250
100
AcDbSpline
210
0.0
220
0.0
230
1.0
 70
    24
 71
     3
 72
     8
 73
     4
 74
     0
 42
0.0000000001
 43
0.0000000001
 40
0.0
 40
0.0
 40
0.0
 40
0.0
 40
1.0
 40
1.0
 40
1.0
 40
1.0
 10
-19.924
 20
-1.9994
 30
0.0
 10
-19.924
 20
-1.9994
 30
0.0
 10
-19.924
 20
-17.5882
 30
0.0
 10
-19.924
 20
-17.5882
 30
0.0
  0
SPLINE
  5
4F
330
1F
100
AcDbEntity
  8
AXIS
 62
   250
100
AcDbSpline
210
0.0
220
0.0
230
1.0
 70
    24
 71
     3
 72
     8
 73
     4
 74
     0
 42
0.0000000001
 43
0.0000000001
 40
0.0
 40
0.0
 40
0.0
 40
0.0
 40
1.0
 40
1.0
 40
1.0
 40
1.0
 10
10.4937
 20
-2.1979
 30
0.0
 10
10.4937
 20
-2.1979
 30
0.0
 10
10.4937
 20
-17.6577
 30
0.0
 10
10.4937
 20
-17.6577
 30
0.0
  0
SPLINE
  5
50
330
1F
100
AcDbEntity
  8
AXIS
 62
   250
100
AcDbSpline
210
0.0
220
0.0
230
1.0
 70
    24
 71
     3
 72
     8
 73
     4
 74
     0
 42
0.0000000001
 43
0.0000000001
 40
0.0
 40
0.0
 40
0.0
 40
0.0
 40
1.0
 40
1.0
 40
1.0
 40
1.0
 10
10.237
 20
-17.1932
 30
0.0
 10
10.237
 20
-17.1932
 30
0.0
 10
-19.2182
 20
-17.1932
 30
0.0
 10
-19.2182
 20
-17.1932
 30
0.0
  0
SPLINE
  5
51
330
1F
100
AcDbEntity
  8
AXIS
 62
   250
100
AcDbSpline
210
0.0
220
0.0
230
1.0
 70
    24
 71
     3
 72
     8
 73
     4
 74
     0
 42
0.0000000001
 43
0.0000000001
 40
0.0
 40
0.0
 40
0.0
 40
0.0
 40
1.0
 40
1.0
 40
1.0
 40
1.0
 10
15.8465
 20
13.367
 30
0.0
 10
15.8465
 20
13.367
 30
0.0
 10
15.8465
 20
16.1791
 30
0.0
 10
15.8465
 20
16.1791
 30
0.0
  0
SPLINE
  5
52
330
1F
100
AcDbEntity
  8
AXIS
 62
   250
100
AcDbSpline
210
0.0
220
0.0
230
1.0
 70
    24
 71
     3
 72
     8
 73
     4
 74
     0
 42
0.0000000001
 43
0.0000000001
 40
0.0
 40
0.0
 40
0.0
 40
0.0
 40
1.0
 40
1.0
 40
1.0
 40
1.0
 10
-25.2769
 20
13.3621
 30
0.0
 10
-25.2769
 20
13.3621
 30
0.0
 10
-25.2769
 20
16.1791
 30
0.0
 10
-25.2769
 20
16.1791
 30
0.0
  0
SPLINE
  5
53
330
1F
100
AcDbEntity
  8
AXIS
 62
   250
100
AcDbSpline
210
0.0
220
0.0
230
1.0
 70
    24
 71
     3
 72
     8
 73
     4
 74
     0
 42
0.0000000001
 43
0.0000000001
 40
0.0
 40
0.0
 40
0.0
 40
0.0
 40
1.0
 40
1.0
 40
1.0
 40
1.0
 10
15.8465
 20
15.9412
 30
0.0
 10
15.8465
 20
15.9412
 30
0.0
 10
-24.8836
 20
15.9412
 30
0.0
 10
-24.8836
 20
15.9412
 30
0.0
  0
SPLINE
  5
54
330
1F
100
AcDbEntity
  8
AXIS
 62
   250
100
AcDbSpline
210
0.0
220
0.0
230
1.0
 70
    24
 71
     3
 72
     8
 73
     4
 74
     0
 42
0.0000000001
 43
0.0000000001
 40
0.0
 40
0.0
 40
0.0
 40
0.0
 40
1.0
 40
1.0
 40
1.0
 40
1.0
 10
-1.4833
 20
10.0081
 30
0.0
 10
-1.4833
 20
10.0081
 30
0.0
 10
14.4843
 20
10.0081
 30
0.0
 10
14.4843
 20
10.0081
 30
0.0
  0
SPLINE
  5
55
330
1F
100
AcDbEntity
  8
AXIS
 62
   250
100
AcDbSpline
210
0.0
220
0.0
230
1.0
 70
    24
 71
     3
 72
     8
 73
     4
 74
     0
 42
0.0000000001
 43
0.0000000001
 40
0.0
 40
0.0
 40
0.0
 40
0.0
 40
1.0
 40
1.0
 40
1.0
 40
1.0
 10
-0.7474
 20
-9.98
 30
0.0
 10
-0.7474
 20
-9.98
 30
0.0
 10
14.2167
 20
-9.98
 30
0.0
 10
14.2167
 20
-9.98
 30
0.0
  0
SPLINE
  5
56
330
1F
100
AcDbEntity
  8
AXIS
 62
   250
100
AcDbSpline
210
0.0
220
0.0
230
1.0
 70
    24
 71
     3
 72
     8
 73
     4
 74
     0
 42
0.0000000001
 43
0.0000000001
 40
0.0
 40
0.0
 40
0.0
 40
0.0
 40
1.0
 40
1.0
 40
1.0
 40
1.0
 10
13.7639
 20
9.6176
 30
0.0
 10
13.7639
 20
9.6176
 30
0.0
 10
13.7639
 20
-9.8484
 30
0.0
 10
13.7639
 20
-9.8484
 30
0.0
  0
SPLINE
  5
57
330
1F
100
AcDbEntity
  8
AXIS
 62
   250
100
AcDbSpline
210
0.0
220
0.0
230
1.0
 70
    24
 71
     3
 72
     8
 73
     4
 74
     0
 42
0.0000000001
 43
0.0000000001
 40
0.0
 40
0.0
 40
0.0
 40
0.0
 40
1.0
 40
1.0
 40
1.0
 40
1.0
 10
23.2716
 20
-14.1912
 30
0.0
 10
23.2716
 20
-14.1912
 30
0.0
 10
23.2716
 20
-18.1285
 30
0.0
 10
23.2716
 20
-18.1285
 30
0.0
  0
SPLINE
  5
58
330
1F
100
AcDbEntity
  8
AXIS
 62
   250
100
AcDbSpline
210
0.0
220
0.0
230
1.0
 70
    24
 71
     3
 72
     8
 73
     4
 74
     0
 42
0.0000000001
 43
0.0000000001
 40
0.0
 40
0.0
 40
0.0
 40
0.0
 40
1.0
 40
1.0
 40
1.0
 40
1.0
 10
26.1522
 20
-7.3525
 30
0.0
 10
26.1522
 20
-7.3525
 30
0.0
 10
26.1522
 20
-18.1286
 30
0.0
 10
26.1522
 20
-18.1286
 30
0.0
  0
SPLINE
  5
59
330
1F
100
AcDbEntity
  8
AXIS
 62
   250
100
AcDbSpline
210
0.0
220
0.0
230
1.0
 70
    24
 71
     3
 72
     8
 73
     4
 74
     0
 42
0.0000000001
 43
0.0000000001
 40
0.0
 40
0.0
 40
0.0
 40
0.0
 40
1.0
 40
1.0
 40
1.0
 40
1.0
 10
29.7729
 20
-17.8906
 30
0.0
 10
29.7729
 20
-17.8906
 30
0.0
 10
16.4455
 20
-17.8906
 30
0.0
 10
16.4455
 20
-17.8906
 30
0.0
  0
SPLINE
  5
5A
330
1F
100
AcDbEntity
  8
AXIS
 62
   250
100
AcDbSpline
210
0.0
220
0.0
230
1.0
 70
    24
 71
     3
 72
     8
 73
     4
 74
     0
 42
0.0000000001
 43
0.0000000001
 40
0.0
 40
0.0
 40
0.0
 40
0.0
 40
1.0
 40
1.0
 40
1.0
 40
1.0
 10
23.2716
 20
-13.891
 30
0.0
 10
23.2716
 20
-13.891
 30
0.0
 10
23.2716
 20
13.5801
 30
0.0
 10
23.2716
 20
13.5801
 30
0.0
  0
SPLINE
  5
5B
330
1F
100
AcDbEntity
  8
AXIS
 62
   250
100
AcDbSpline
210
0.0
220
0.0
230
1.0
 70
     8
 71
     3
 72
     8
 73
     4
 74
     0
 42
0.0000000001
 43
0.0000000001
 40
0.0
 40
0.0
 40
0.0
 40
0.0
 40
1.0
 40
1.0
 40
1.0
 40
1.0
 10
25.2423
 20
-12.222
 30
0.0
 10
26.605
 20
-4.0584
 30
0.0
 10
26.4341
 20
4.2877
 30
0.0
 10
24.7383
 20
12.3887
 30
0.0
  0
SPLINE
  5
5C
330
1F
100
AcDbEntity
  8
AXIS
 62
   250
100
AcDbSpline
210
0.0
220
0.0
230
1.0
 70
     8
 71
     3
 72
     8
 73
     4
 74
     0
 42
0.0000000001
 43
0.0000000001
 40
0.0
 40
0.0
 40
0.0
 40
0.0
 40
1.0
 40
1.0
 40
1.0
 40
1.0
 10
23.2716
 20
-13.891
 30
0.0
 10
24.2481
 20
-13.891
 30
0.0
 10
25.0815
 20
-13.1852
 30
0.0
 10
25.2423
 20
-12.222
 30
0.0
  0
SPLINE
  5
5D
330
1F
100
AcDbEntity
  8
AXIS
 62
   250
100
AcDbSpline
210
0.0
220
0.0
230
1.0
 70
     8
 71
     3
 72
     8
 73
     4
 74
     0
 42
0.0000000001
 43
0.0000000001
 40
0.0
 40
0.0
 40
0.0
 40
0.0
 40
1.0
 40
1.0
 40
1.0
 40
1.0
 10
24.7383
 20
12.3887
 30
0.0
 10
24.5929
 20
13.0828
 30
0.0
 10
23.9809
 20
13.5801
 30
0.0
 10
23.2716
 20
13.5801
 30
0.0
  0
SPLINE
  5
5E
330
1F
100
AcDbEntity
  8
AXIS
 62
   250
100
AcDbSpline
210
0.0
220
0.0
230
1.0
 70
     8
 71
     3
 72
     8
 73
     4
 74
     0
 42
0.0000000001
 43
0.0000000001
 40
0.0
 40
0.0
 40
0.0
 40
0.0
 40
1.0
 40
1.0
 40
1.0
 40
1.0
 10
26.1413
 20
-2.4071
 30
0.0
 10
26.1417
 20
-2.3818
 30
0.0
 10
26.1422
 20
-2.3565
 30
0.0
 10
26.1426
 20
-2.3312
 30
0.0
  0
SPLINE
  5
5F
330
1F
100
AcDbEntity
  8
AXIS
 62
   250
100
AcDbSpline
210
0.0
220
0.0
230
1.0
 70
    11
 71
     3
 72
    40
 73
    36
 74
     0
 42
0.0000000001
 43
0.0000000001
 40
0.0
 40
0.0
 40
0.0
 40
0.0
 40
0.1
 40
0.1
 40
0.1
 40
0.1
 40
0.2
 40
0.2
 40
0.2
 40
0.2
 40
0.3
 40
0.3
 40
0.3
 40
0.3
 40
0.4
 40
0.4
 40
0.4
 40
0.4
 40
0.5
 40
0.5
 40
0.5
 40
0.5
 40
0.6
 40
0.6
 40
0.6
 40
0.6
 40
0.7
 40
0.7
 40
0.7
 40
0.7
 40
0.8
 40
0.8
 40
0.8
 40
0.8
 40
1.0
 40
1.0
 40
1.0
 40
1.0
 10
17.2582
 20
-16.9601
 30
0.0
 10
17.2582
 20
-16.9601
 30
0.0
 10
17.0103
 20
-16.9601
 30
0.0
 10
17.0103
 20
-16.9601
 30
0.0
 10
17.0103
 20
-16.9601
 30
0.0
 10
17.0103
 20
-16.9601
 30
0.0
 10
17.0103
 20
-15.3797
 30
0.0
 10
17.0103
 20
-15.3797
 30
0.0
 10
17.0103
 20
-15.3797
 30
0.0
 10
16.9505
 20
-15.4366
 30
0.0
 10
16.8725
 20
-15.4935
 30
0.0
 10
16.7756
 20
-15.5504
 30
0.0
 10
16.7756
 20
-15.5504
 30
0.0
 10
16.6782
 20
-15.6073
 30
0.0
 10
16.5912
 20
-15.6501
 30
0.0
 10
16.514
 20
-15.6784
 30
0.0
 10
16.514
 20
-15.6784
 30
0.0
 10
16.514
 20
-15.6784
 30
0.0
 10
16.514
 20
-15.4389
 30
0.0
 10
16.514
 20
-15.4389
 30
0.0
 10
16.514
 20
-15.4389
 30
0.0
 10
16.6528
 20
-15.3736
 30
0.0
 10
16.7742
 20
-15.2945
 30
0.0
 10
16.8781
 20
-15.2019
 30
0.0
 10
16.8781
 20
-15.2019
 30
0.0
 10
16.9816
 20
-15.1087
 30
0.0
 10
17.0554
 20
-15.0189
 30
0.0
 10
17.0987
 20
-14.9314
 30
0.0
 10
17.0987
 20
-14.9314
 30
0.0
 10
17.0987
 20
-14.9314
 30
0.0
 10
17.2582
 20
-14.9314
 30
0.0
 10
17.2582
 20
-14.9314
 30
0.0
 10
17.2582
 20
-14.9314
 30
0.0
 10
17.2582
 20
-14.9314
 30
0.0
 10
17.2582
 20
-16.9601
 30
0.0
 10
17.2582
 20
-16.9601
 30
0.0
  0
SPLINE
  5
60
330
1F
100
AcDbEntity
  8
AXIS
 62
   250
100
AcDbSpline
210
0.0
220
0.0
230
1.0
 70
    11
 71
     3
 72
    48
 73
    44
 74
     0
 42
0.0000000001
 43
0.0000000001
 40
0.0
 40
0.0
 40
0.0
 40
0.0
 40
0.0833333333333333
 40
0.0833333333333333
 40
0.0833333333333333
 40
0.0833333333333333
 40
0.1666666666666667
 40
0.1666666666666667
 40
0.1666666666666667
 40
0.1666666666666667
 40
0.25
 40
0.25
 40
0.25
 40
0.25
 40
0.3333333333333333
 40
0.3333333333333333
 40
0.3333333333333333
 40
0.3333333333333333
 40
0.4166666666666667
 40
0.4166666666666667
 40
0.4166666666666667
 40
0.4166666666666667
 40
0.5
 40
0.5
 40
0.5
 40
0.5
 40
0.5833333333333334
 40
0.5833333333333334
 40
0.5833333333333334
 40
0.5833333333333334
 40
0.6666666666666666
 40
0.6666666666666666
 40
0.6666666666666666
 40
0.6666666666666666
 40
0.75
 40
0.75
 40
0.75
 40
0.75
 40
0.8333333333333334
 40
0.8333333333333334
 40
0.8333333333333334
 40
0.8333333333333334
 40
1.0
 40
1.0
 40
1.0
 40
1.0
 10
17.9101
 20
-15.2047
 30
0.0
 10
17.9101
 20
-15.2047
 30
0.0
 10
17.9101
 20
-14.9662
 30
0.0
 10
17.9101
 20
-14.9662
 30
0.0
 10
17.9101
 20
-14.9662
 30
0.0
 10
17.9101
 20
-14.9662
 30
0.0
 10
19.2177
 20
-14.9662
 30
0.0
 10
19.2177
 20
-14.9662
 30
0.0
 10
19.2177
 20
-14.9662
 30
0.0
 10
19.2177
 20
-14.9662
 30
0.0
 10
19.2177
 20
-15.1591
 30
0.0
 10
19.2177
 20
-15.1591
 30
0.0
 10
19.2177
 20
-15.1591
 30
0.0
 10
19.0893
 20
-15.2959
 30
0.0
 10
18.9618
 20
-15.478
 30
0.0
 10
18.8353
 20
-15.7047
 30
0.0
 10
18.8353
 20
-15.7047
 30
0.0
 10
18.7092
 20
-15.9314
 30
0.0
 10
18.6114
 20
-16.1652
 30
0.0
 10
18.5427
 20
-16.4046
 30
0.0
 10
18.5427
 20
-16.4046
 30
0.0
 10
18.4929
 20
-16.5739
 30
0.0
 10
18.4614
 20
-16.7588
 30
0.0
 10
18.4477
 20
-16.9601
 30
0.0
 10
18.4477
 20
-16.9601
 30
0.0
 10
18.4477
 20
-16.9601
 30
0.0
 10
18.1928
 20
-16.9601
 30
0.0
 10
18.1928
 20
-16.9601
 30
0.0
 10
18.1928
 20
-16.9601
 30
0.0
 10
18.1956
 20
-16.8011
 30
0.0
 10
18.2266
 20
-16.6092
 30
0.0
 10
18.2864
 20
-16.3839
 30
0.0
 10
18.2864
 20
-16.3839
 30
0.0
 10
18.3461
 20
-16.1591
 30
0.0
 10
18.4317
 20
-15.9418
 30
0.0
 10
18.5432
 20
-15.7329
 30
0.0
 10
18.5432
 20
-15.7329
 30
0.0
 10
18.6551
 20
-15.5241
 30
0.0
 10
18.7737
 20
-15.3477
 30
0.0
 10
18.8997
 20
-15.2047
 30
0.0
 10
18.8997
 20
-15.2047
 30
0.0
 10
18.8997
 20
-15.2047
 30
0.0
 10
17.9101
 20
-15.2047
 30
0.0
 10
17.9101
 20
-15.2047
 30
0.0
  0
SPLINE
  5
61
330
1F
100
AcDbEntity
  8
AXIS
 62
   250
100
AcDbSpline
210
0.0
220
0.0
230
1.0
 70
    11
 71
     3
 72
    40
 73
    36
 74
     0
 42
0.0000000001
 43
0.0000000001
 40
0.0
 40
0.0
 40
0.0
 40
0.0
 40
0.1
 40
0.1
 40
0.1
 40
0.1
 40
0.2
 40
0.2
 40
0.2
 40
0.2
 40
0.3
 40
0.3
 40
0.3
 40
0.3
 40
0.4
 40
0.4
 40
0.4
 40
0.4
 40
0.5
 40
0.5
 40
0.5
 40
0.5
 40
0.6
 40
0.6
 40
0.6
 40
0.6
 40
0.7
 40
0.7
 40
0.7
 40
0.7
 40
0.8
 40
0.8
 40
0.8
 40
0.8
 40
1.0
 40
1.0
 40
1.0
 40
1.0
 10
19.5968
 20
-16.9601
 30
0.0
 10
19.5968
 20
-16.9601
 30
0.0
 10
19.5968
 20
-16.6774
 30
0.0
 10
19.5968
 20
-16.6774
 30
0.0
 10
19.5968
 20
-16.6774
 30
0.0
 10
19.5968
 20
-16.6774
 30
0.0
 10
19.8795
 20
-16.6774
 30
0.0
 10
19.8795
 20
-16.6774
 30
0.0
 10
19.8795
 20
-16.6774
 30
0.0
 10
19.8795
 20
-16.6774
 30
0.0
 10
19.8795
 20
-16.9601
 30
0.0
 10
19.8795
 20
-16.9601
 30
0.0
 10
19.8795
 20
-16.9601
 30
0.0
 10
19.8795
 20
-17.0641
 30
0.0
 10
19.8612
 20
-17.1478
 30
0.0
 10
19.8245
 20
-17.2117
 30
0.0
 10
19.8245
 20
-17.2117
 30
0.0
 10
19.7873
 20
-17.2752
 30
0.0
 10
19.729
 20
-17.3246
 30
0.0
 10
19.6495
 20
-17.3599
 30
0.0
 10
19.6495
 20
-17.3599
 30
0.0
 10
19.6495
 20
-17.3599
 30
0.0
 10
19.5803
 20
-17.2536
 30
0.0
 10
19.5803
 20
-17.2536
 30
0.0
 10
19.5803
 20
-17.2536
 30
0.0
 10
19.6326
 20
-17.2306
 30
0.0
 10
19.6711
 20
-17.1967
 30
0.0
 10
19.6961
 20
-17.1525
 30
0.0
 10
19.6961
 20
-17.1525
 30
0.0
 10
19.721
 20
-17.1078
 30
0.0
 10
19.7346
 20
-17.0438
 30
0.0
 10
19.7374
 20
-16.9601
 30
0.0
 10
19.7374
 20
-16.9601
 30
0.0
 10
19.7374
 20
-16.9601
 30
0.0
 10
19.5968
 20
-16.9601
 30
0.0
 10
19.5968
 20
-16.9601
 30
0.0
  0
SPLINE
  5
62
330
1F
100
AcDbEntity
  8
AXIS
 62
   250
100
AcDbSpline
210
0.0
220
0.0
230
1.0
 70
    11
 71
     3
 72
    92
 73
    88
 74
     0
 42
0.0000000001
 43
0.0000000001
 40
0.0
 40
0.0
 40
0.0
 40
0.0
 40
0.0434782608695652
 40
0.0434782608695652
 40
0.0434782608695652
 40
0.0434782608695652
 40
0.0869565217391304
 40
0.0869565217391304
 40
0.0869565217391304
 40
0.0869565217391304
 40
0.1304347826086956
 40
0.1304347826086956
 40
0.1304347826086956
 40
0.1304347826086956
 40
0.1739130434782609
 40
0.1739130434782609
 40
0.1739130434782609
 40
0.1739130434782609
 40
0.2173913043478261
 40
0.2173913043478261
 40
0.2173913043478261
 40
0.2173913043478261
 40
0.2608695652173913
 40
0.2608695652173913
 40
0.2608695652173913
 40
0.2608695652173913
 40
0.3043478260869565
 40
0.3043478260869565
 40
0.3043478260869565
 40
0.3043478260869565
 40
0.3478260869565217
 40
0.3478260869565217
 40
0.3478260869565217
 40
0.3478260869565217
 40
0.391304347826087
 40
0.391304347826087
 40
0.391304347826087
 40
0.391304347826087
 40
0.4347826086956522
 40
0.4347826086956522
 40
0.4347826086956522
 40
0.4347826086956522
 40
0.4782608695652174
 40
0.4782608695652174
 40
0.4782608695652174
 40
0.4782608695652174
 40
0.5217391304347826
 40
0.5217391304347826
 40
0.5217391304347826
 40
0.5217391304347826
 40
0.5652173913043478
 40
0.5652173913043478
 40
0.5652173913043478
 40
0.5652173913043478
 40
0.6086956521739131
 40
0.6086956521739131
 40
0.6086956521739131
 40
0.6086956521739131
 40
0.6521739130434783
 40
0.6521739130434783
 40
0.6521739130434783
 40
0.6521739130434783
 40
0.6956521739130435
 40
0.6956521739130435
 40
0.6956521739130435
 40
0.6956521739130435
 40
0.7391304347826086
 40
0.7391304347826086
 40
0.7391304347826086
 40
0.7391304347826086
 40
0.782608695652174
 40
0.782608695652174
 40
0.782608695652174
 40
0.782608695652174
 40
0.8260869565217391
 40
0.8260869565217391
 40
0.8260869565217391
 40
0.8260869565217391
 40
0.8695652173913043
 40
0.8695652173913043
 40
0.8695652173913043
 40
0.8695652173913043
 40
0.9130434782608695
 40
0.9130434782608695
 40
0.9130434782608695
 40
0.9130434782608695
 40
1.0
 40
1.0
 40
1.0
 40
1.0
 10
20.2473
 20
-16.4309
 30
0.0
 10
20.2473
 20
-16.4309
 30
0.0
 10
20.5079
 20
-16.4088
 30
0.0
 10
20.5079
 20
-16.4088
 30
0.0
 10
20.5079
 20
-16.4088
 30
0.0
 10
20.5272
 20
-16.5358
 30
0.0
 10
20.5719
 20
-16.6308
 30
0.0
 10
20.642
 20
-16.6948
 30
0.0
 10
20.642
 20
-16.6948
 30
0.0
 10
20.7125
 20
-16.7588
 30
0.0
 10
20.7972
 20
-16.7908
 30
0.0
 10
20.8964
 20
-16.7908
 30
0.0
 10
20.8964
 20
-16.7908
 30
0.0
 10
21.0159
 20
-16.7908
 30
0.0
 10
21.117
 20
-16.7456
 30
0.0
 10
21.1993
 20
-16.6558
 30
0.0
 10
21.1993
 20
-16.6558
 30
0.0
 10
21.2821
 20
-16.5655
 30
0.0
 10
21.3235
 20
-16.446
 30
0.0
 10
21.3235
 20
-16.2974
 30
0.0
 10
21.3235
 20
-16.2974
 30
0.0
 10
21.3235
 20
-16.1558
 30
0.0
 10
21.284
 20
-16.0443
 30
0.0
 10
21.2045
 20
-15.9625
 30
0.0
 10
21.2045
 20
-15.9625
 30
0.0
 10
21.125
 20
-15.8806
 30
0.0
 10
21.0211
 20
-15.8397
 30
0.0
 10
20.8922
 20
-15.8397
 30
0.0
 10
20.8922
 20
-15.8397
 30
0.0
 10
20.8122
 20
-15.8397
 30
0.0
 10
20.7403
 20
-15.858
 30
0.0
 10
20.6758
 20
-15.8942
 30
0.0
 10
20.6758
 20
-15.8942
 30
0.0
 10
20.6114
 20
-15.9305
 30
0.0
 10
20.5611
 20
-15.9775
 30
0.0
 10
20.5244
 20
-16.0354
 30
0.0
 10
20.5244
 20
-16.0354
 30
0.0
 10
20.5244
 20
-16.0354
 30
0.0
 10
20.2915
 20
-16.0053
 30
0.0
 10
20.2915
 20
-16.0053
 30
0.0
 10
20.2915
 20
-16.0053
 30
0.0
 10
20.2915
 20
-16.0053
 30
0.0
 10
20.4872
 20
-14.9676
 30
0.0
 10
20.4872
 20
-14.9676
 30
0.0
 10
20.4872
 20
-14.9676
 30
0.0
 10
20.4872
 20
-14.9676
 30
0.0
 10
21.4919
 20
-14.9676
 30
0.0
 10
21.4919
 20
-14.9676
 30
0.0
 10
21.4919
 20
-14.9676
 30
0.0
 10
21.4919
 20
-14.9676
 30
0.0
 10
21.4919
 20
-15.2047
 30
0.0
 10
21.4919
 20
-15.2047
 30
0.0
 10
21.4919
 20
-15.2047
 30
0.0
 10
21.4919
 20
-15.2047
 30
0.0
 10
20.6857
 20
-15.2047
 30
0.0
 10
20.6857
 20
-15.2047
 30
0.0
 10
20.6857
 20
-15.2047
 30
0.0
 10
20.6857
 20
-15.2047
 30
0.0
 10
20.5766
 20
-15.7475
 30
0.0
 10
20.5766
 20
-15.7475
 30
0.0
 10
20.5766
 20
-15.7475
 30
0.0
 10
20.6979
 20
-15.6628
 30
0.0
 10
20.8254
 20
-15.6205
 30
0.0
 10
20.9585
 20
-15.6205
 30
0.0
 10
20.9585
 20
-15.6205
 30
0.0
 10
21.1349
 20
-15.6205
 30
0.0
 10
21.2835
 20
-15.6816
 30
0.0
 10
21.4049
 20
-15.8039
 30
0.0
 10
21.4049
 20
-15.8039
 30
0.0
 10
21.5262
 20
-15.9262
 30
0.0
 10
21.5869
 20
-16.0833
 30
0.0
 10
21.5869
 20
-16.2752
 30
0.0
 10
21.5869
 20
-16.2752
 30
0.0
 10
21.5869
 20
-16.4582
 30
0.0
 10
21.5333
 20
-16.6163
 30
0.0
 10
21.427
 20
-16.7494
 30
0.0
 10
21.427
 20
-16.7494
 30
0.0
 10
21.2972
 20
-16.9126
 30
0.0
 10
21.1203
 20
-16.9944
 30
0.0
 10
20.8964
 20
-16.9944
 30
0.0
 10
20.8964
 20
-16.9944
 30
0.0
 10
20.7125
 20
-16.9944
 30
0.0
 10
20.5625
 20
-16.9432
 30
0.0
 10
20.4463
 20
-16.8402
 30
0.0
 10
20.4463
 20
-16.8402
 30
0.0
 10
20.3301
 20
-16.7371
 30
0.0
 10
20.2638
 20
-16.6007
 30
0.0
 10
20.2473
 20
-16.4309
 30
0.0
  0
SPLINE
  5
63
330
1F
100
AcDbEntity
  8
AXIS
 62
   250
100
AcDbSpline
210
0.0
220
0.0
230
1.0
 70
    11
 71
     3
 72
    92
 73
    88
 74
     0
 42
0.0000000001
 43
0.0000000001
 40
0.0
 40
0.0
 40
0.0
 40
0.0
 40
0.0434782608695652
 40
0.0434782608695652
 40
0.0434782608695652
 40
0.0434782608695652
 40
0.0869565217391304
 40
0.0869565217391304
 40
0.0869565217391304
 40
0.0869565217391304
 40
0.1304347826086956
 40
0.1304347826086956
 40
0.1304347826086956
 40
0.1304347826086956
 40
0.1739130434782609
 40
0.1739130434782609
 40
0.1739130434782609
 40
0.1739130434782609
 40
0.2173913043478261
 40
0.2173913043478261
 40
0.2173913043478261
 40
0.2173913043478261
 40
0.2608695652173913
 40
0.2608695652173913
 40
0.2608695652173913
 40
0.2608695652173913
 40
0.3043478260869565
 40
0.3043478260869565
 40
0.3043478260869565
 40
0.3043478260869565
 40
0.3478260869565217
 40
0.3478260869565217
 40
0.3478260869565217
 40
0.3478260869565217
 40
0.391304347826087
 40
0.391304347826087
 40
0.391304347826087
 40
0.391304347826087
 40
0.4347826086956522
 40
0.4347826086956522
 40
0.4347826086956522
 40
0.4347826086956522
 40
0.4782608695652174
 40
0.4782608695652174
 40
0.4782608695652174
 40
0.4782608695652174
 40
0.5217391304347826
 40
0.5217391304347826
 40
0.5217391304347826
 40
0.5217391304347826
 40
0.5652173913043478
 40
0.5652173913043478
 40
0.5652173913043478
 40
0.5652173913043478
 40
0.6086956521739131
 40
0.6086956521739131
 40
0.6086956521739131
 40
0.6086956521739131
 40
0.6521739130434783
 40
0.6521739130434783
 40
0.6521739130434783
 40
0.6521739130434783
 40
0.6956521739130435
 40
0.6956521739130435
 40
0.6956521739130435
 40
0.6956521739130435
 40
0.7391304347826086
 40
0.7391304347826086
 40
0.7391304347826086
 40
0.7391304347826086
 40
0.782608695652174
 40
0.782608695652174
 40
0.782608695652174
 40
0.782608695652174
 40
0.8260869565217391
 40
0.8260869565217391
 40
0.8260869565217391
 40
0.8260869565217391
 40
0.8695652173913043
 40
0.8695652173913043
 40
0.8695652173913043
 40
0.8695652173913043
 40
0.9130434782608695
 40
0.9130434782608695
 40
0.9130434782608695
 40
0.9130434782608695
 40
1.0
 40
1.0
 40
1.0
 40
1.0
 10
-5.5164
 20
16.5745
 30
0.0
 10
-5.5164
 20
16.5745
 30
0.0
 10
-5.5164
 20
16.336
 30
0.0
 10
-5.5164
 20
16.336
 30
0.0
 10
-5.5164
 20
16.336
 30
0.0
 10
-5.5164
 20
16.336
 30
0.0
 10
-6.8518
 20
16.336
 30
0.0
 10
-6.8518
 20
16.336
 30
0.0
 10
-6.8518
 20
16.336
 30
0.0
 10
-6.8537
 20
16.3957
 30
0.0
 10
-6.8443
 20
16.4531
 30
0.0
 10
-6.8231
 20
16.5082
 30
0.0
 10
-6.8231
 20
16.5082
 30
0.0
 10
-6.7892
 20
16.5994
 30
0.0
 10
-6.7347
 20
16.6888
 30
0.0
 10
-6.6599
 20
16.7772
 30
0.0
 10
-6.6599
 20
16.7772
 30
0.0
 10
-6.5846
 20
16.8652
 30
0.0
 10
-6.4764
 20
16.9672
 30
0.0
 10
-6.3353
 20
17.0829
 30
0.0
 10
-6.3353
 20
17.0829
 30
0.0
 10
-6.1157
 20
17.2631
 30
0.0
 10
-5.967
 20
17.4056
 30
0.0
 10
-5.8899
 20
17.511
 30
0.0
 10
-5.8899
 20
17.511
 30
0.0
 10
-5.8128
 20
17.6159
 30
0.0
 10
-5.7742
 20
17.7156
 30
0.0
 10
-5.7742
 20
17.8092
 30
0.0
 10
-5.7742
 20
17.8092
 30
0.0
 10
-5.7742
 20
17.9075
 30
0.0
 10
-5.8095
 20
17.9903
 30
0.0
 10
-5.8795
 20
18.058
 30
0.0
 10
-5.8795
 20
18.058
 30
0.0
 10
-5.9501
 20
18.1253
 30
0.0
 10
-6.0418
 20
18.1591
 30
0.0
 10
-6.1547
 20
18.1591
 30
0.0
 10
-6.1547
 20
18.1591
 30
0.0
 10
-6.2742
 20
18.1591
 30
0.0
 10
-6.3697
 20
18.1234
 30
0.0
 10
-6.4412
 20
18.0514
 30
0.0
 10
-6.4412
 20
18.0514
 30
0.0
 10
-6.5131
 20
17.9799
 30
0.0
 10
-6.5493
 20
17.8807
 30
0.0
 10
-6.5503
 20
17.7542
 30
0.0
 10
-6.5503
 20
17.7542
 30
0.0
 10
-6.5503
 20
17.7542
 30
0.0
 10
-6.8052
 20
17.78
 30
0.0
 10
-6.8052
 20
17.78
 30
0.0
 10
-6.8052
 20
17.78
 30
0.0
 10
-6.7878
 20
17.9705
 30
0.0
 10
-6.722
 20
18.1154
 30
0.0
 10
-6.6081
 20
18.2151
 30
0.0
 10
-6.6081
 20
18.2151
 30
0.0
 10
-6.4943
 20
18.3148
 30
0.0
 10
-6.341
 20
18.3647
 30
0.0
 10
-6.1491
 20
18.3647
 30
0.0
 10
-6.1491
 20
18.3647
 30
0.0
 10
-5.9553
 20
18.3647
 30
0.0
 10
-5.8019
 20
18.3106
 30
0.0
 10
-5.689
 20
18.2034
 30
0.0
 10
-5.689
 20
18.2034
 30
0.0
 10
-5.5757
 20
18.0956
 30
0.0
 10
-5.5192
 20
17.9625
 30
0.0
 10
-5.5192
 20
17.8035
 30
0.0
 10
-5.5192
 20
17.8035
 30
0.0
 10
-5.5192
 20
17.7226
 30
0.0
 10
-5.5357
 20
17.6431
 30
0.0
 10
-5.5691
 20
17.5651
 30
0.0
 10
-5.5691
 20
17.5651
 30
0.0
 10
-5.602
 20
17.487
 30
0.0
 10
-5.6571
 20
17.4047
 30
0.0
 10
-5.7337
 20
17.3186
 30
0.0
 10
-5.7337
 20
17.3186
 30
0.0
 10
-5.8104
 20
17.232
 30
0.0
 10
-5.9379
 20
17.1135
 30
0.0
 10
-6.1161
 20
16.963
 30
0.0
 10
-6.1161
 20
16.963
 30
0.0
 10
-6.2648
 20
16.8379
 30
0.0
 10
-6.3603
 20
16.7532
 30
0.0
 10
-6.4026
 20
16.7085
 30
0.0
 10
-6.4026
 20
16.7085
 30
0.0
 10
-6.4449
 20
16.6643
 30
0.0
 10
-6.4797
 20
16.6196
 30
0.0
 10
-6.5075
 20
16.5745
 30
0.0
 10
-6.5075
 20
16.5745
 30
0.0
 10
-6.5075
 20
16.5745
 30
0.0
 10
-5.5164
 20
16.5745
 30
0.0
 10
-5.5164
 20
16.5745
 30
0.0
  0
SPLINE
  5
64
330
1F
100
AcDbEntity
  8
AXIS
 62
   250
100
AcDbSpline
210
0.0
220
0.0
230
1.0
 70
    11
 71
     3
 72
    48
 73
    44
 74
     0
 42
0.0000000001
 43
0.0000000001
 40
0.0
 40
0.0
 40
0.0
 40
0.0
 40
0.0833333333333333
 40
0.0833333333333333
 40
0.0833333333333333
 40
0.0833333333333333
 40
0.1666666666666667
 40
0.1666666666666667
 40
0.1666666666666667
 40
0.1666666666666667
 40
0.25
 40
0.25
 40
0.25
 40
0.25
 40
0.3333333333333333
 40
0.3333333333333333
 40
0.3333333333333333
 40
0.3333333333333333
 40
0.4166666666666667
 40
0.4166666666666667
 40
0.4166666666666667
 40
0.4166666666666667
 40
0.5
 40
0.5
 40
0.5
 40
0.5
 40
0.5833333333333334
 40
0.5833333333333334
 40
0.5833333333333334
 40
0.5833333333333334
 40
0.6666666666666666
 40
0.6666666666666666
 40
0.6666666666666666
 40
0.6666666666666666
 40
0.75
 40
0.75
 40
0.75
 40
0.75
 40
0.8333333333333334
 40
0.8333333333333334
 40
0.8333333333333334
 40
0.8333333333333334
 40
1.0
 40
1.0
 40
1.0
 40
1.0
 10
-4.4558
 20
16.336
 30
0.0
 10
-4.4558
 20
16.336
 30
0.0
 10
-4.4558
 20
16.8195
 30
0.0
 10
-4.4558
 20
16.8195
 30
0.0
 10
-4.4558
 20
16.8195
 30
0.0
 10
-4.4558
 20
16.8195
 30
0.0
 10
-5.3321
 20
16.8195
 30
0.0
 10
-5.3321
 20
16.8195
 30
0.0
 10
-5.3321
 20
16.8195
 30
0.0
 10
-5.3321
 20
16.8195
 30
0.0
 10
-5.3321
 20
17.0472
 30
0.0
 10
-5.3321
 20
17.0472
 30
0.0
 10
-5.3321
 20
17.0472
 30
0.0
 10
-5.3321
 20
17.0472
 30
0.0
 10
-4.4101
 20
18.3562
 30
0.0
 10
-4.4101
 20
18.3562
 30
0.0
 10
-4.4101
 20
18.3562
 30
0.0
 10
-4.4101
 20
18.3562
 30
0.0
 10
-4.2074
 20
18.3562
 30
0.0
 10
-4.2074
 20
18.3562
 30
0.0
 10
-4.2074
 20
18.3562
 30
0.0
 10
-4.2074
 20
18.3562
 30
0.0
 10
-4.2074
 20
17.0472
 30
0.0
 10
-4.2074
 20
17.0472
 30
0.0
 10
-4.2074
 20
17.0472
 30
0.0
 10
-4.2074
 20
17.0472
 30
0.0
 10
-3.9346
 20
17.0472
 30
0.0
 10
-3.9346
 20
17.0472
 30
0.0
 10
-3.9346
 20
17.0472
 30
0.0
 10
-3.9346
 20
17.0472
 30
0.0
 10
-3.9346
 20
16.8195
 30
0.0
 10
-3.9346
 20
16.8195
 30
0.0
 10
-3.9346
 20
16.8195
 30
0.0
 10
-3.9346
 20
16.8195
 30
0.0
 10
-4.2074
 20
16.8195
 30
0.0
 10
-4.2074
 20
16.8195
 30
0.0
 10
-4.2074
 20
16.8195
 30
0.0
 10
-4.2074
 20
16.8195
 30
0.0
 10
-4.2074
 20
16.336
 30
0.0
 10
-4.2074
 20
16.336
 30
0.0
 10
-4.2074
 20
16.336
 30
0.0
 10
-4.2074
 20
16.336
 30
0.0
 10
-4.4558
 20
16.336
 30
0.0
 10
-4.4558
 20
16.336
 30
0.0
  0
SPLINE
  5
65
330
1F
100
AcDbEntity
  8
AXIS
 62
   250
100
AcDbSpline
210
0.0
220
0.0
230
1.0
 70
    11
 71
     3
 72
    16
 73
    12
 74
     0
 42
0.0000000001
 43
0.0000000001
 40
0.0
 40
0.0
 40
0.0
 40
0.0
 40
0.25
 40
0.25
 40
0.25
 40
0.25
 40
0.5
 40
0.5
 40
0.5
 40
0.5
 40
1.0
 40
1.0
 40
1.0
 40
1.0
 10
-4.4558
 20
17.0472
 30
0.0
 10
-4.4558
 20
17.0472
 30
0.0
 10
-4.4558
 20
17.9578
 30
0.0
 10
-4.4558
 20
17.9578
 30
0.0
 10
-4.4558
 20
17.9578
 30
0.0
 10
-4.4558
 20
17.9578
 30
0.0
 10
-5.0879
 20
17.0472
 30
0.0
 10
-5.0879
 20
17.0472
 30
0.0
 10
-5.0879
 20
17.0472
 30
0.0
 10
-5.0879
 20
17.0472
 30
0.0
 10
-4.4558
 20
17.0472
 30
0.0
 10
-4.4558
 20
17.0472
 30
0.0
  0
SPLINE
  5
66
330
1F
100
AcDbEntity
  8
AXIS
 62
   250
100
AcDbSpline
210
0.0
220
0.0
230
1.0
 70
    11
 71
     3
 72
    48
 73
    44
 74
     0
 42
0.0000000001
 43
0.0000000001
 40
0.0
 40
0.0
 40
0.0
 40
0.0
 40
0.0833333333333333
 40
0.0833333333333333
 40
0.0833333333333333
 40
0.0833333333333333
 40
0.1666666666666667
 40
0.1666666666666667
 40
0.1666666666666667
 40
0.1666666666666667
 40
0.25
 40
0.25
 40
0.25
 40
0.25
 40
0.3333333333333333
 40
0.3333333333333333
 40
0.3333333333333333
 40
0.3333333333333333
 40
0.4166666666666667
 40
0.4166666666666667
 40
0.4166666666666667
 40
0.4166666666666667
 40
0.5
 40
0.5
 40
0.5
 40
0.5
 40
0.5833333333333334
 40
0.5833333333333334
 40
0.5833333333333334
 40
0.5833333333333334
 40
0.6666666666666666
 40
0.6666666666666666
 40
0.6666666666666666
 40
0.6666666666666666
 40
0.75
 40
0.75
 40
0.75
 40
0.75
 40
0.8333333333333334
 40
0.8333333333333334
 40
0.8333333333333334
 40
0.8333333333333334
 40
1.0
 40
1.0
 40
1.0
 40
1.0
 10
-3.6646
 20
18.0914
 30
0.0
 10
-3.6646
 20
18.0914
 30
0.0
 10
-3.6646
 20
18.3299
 30
0.0
 10
-3.6646
 20
18.3299
 30
0.0
 10
-3.6646
 20
18.3299
 30
0.0
 10
-3.6646
 20
18.3299
 30
0.0
 10
-2.357
 20
18.3299
 30
0.0
 10
-2.357
 20
18.3299
 30
0.0
 10
-2.357
 20
18.3299
 30
0.0
 10
-2.357
 20
18.3299
 30
0.0
 10
-2.357
 20
18.137
 30
0.0
 10
-2.357
 20
18.137
 30
0.0
 10
-2.357
 20
18.137
 30
0.0
 10
-2.4854
 20
18.0002
 30
0.0
 10
-2.6129
 20
17.8181
 30
0.0
 10
-2.7394
 20
17.5914
 30
0.0
 10
-2.7394
 20
17.5914
 30
0.0
 10
-2.8655
 20
17.3647
 30
0.0
 10
-2.9633
 20
17.1309
 30
0.0
 10
-3.032
 20
16.8915
 30
0.0
 10
-3.032
 20
16.8915
 30
0.0
 10
-3.0818
 20
16.7222
 30
0.0
 10
-3.1133
 20
16.5373
 30
0.0
 10
-3.127
 20
16.336
 30
0.0
 10
-3.127
 20
16.336
 30
0.0
 10
-3.127
 20
16.336
 30
0.0
 10
-3.3819
 20
16.336
 30
0.0
 10
-3.3819
 20
16.336
 30
0.0
 10
-3.3819
 20
16.336
 30
0.0
 10
-3.3791
 20
16.495
 30
0.0
 10
-3.3481
 20
16.6869
 30
0.0
 10
-3.2883
 20
16.9122
 30
0.0
 10
-3.2883
 20
16.9122
 30
0.0
 10
-3.2286
 20
17.137
 30
0.0
 10
-3.143
 20
17.3543
 30
0.0
 10
-3.0315
 20
17.5632
 30
0.0
 10
-3.0315
 20
17.5632
 30
0.0
 10
-2.9196
 20
17.772
 30
0.0
 10
-2.801
 20
17.9484
 30
0.0
 10
-2.675
 20
18.0914
 30
0.0
 10
-2.675
 20
18.0914
 30
0.0
 10
-2.675
 20
18.0914
 30
0.0
 10
-3.6646
 20
18.0914
 30
0.0
 10
-3.6646
 20
18.0914
 30
0.0
  0
SPLINE
  5
67
330
1F
100
AcDbEntity
  8
AXIS
 62
   250
100
AcDbSpline
210
0.0
220
0.0
230
1.0
 70
    11
 71
     3
 72
    40
 73
    36
 74
     0
 42
0.0000000001
 43
0.0000000001
 40
0.0
 40
0.0
 40
0.0
 40
0.0
 40
0.1
 40
0.1
 40
0.1
 40
0.1
 40
0.2
 40
0.2
 40
0.2
 40
0.2
 40
0.3
 40
0.3
 40
0.3
 40
0.3
 40
0.4
 40
0.4
 40
0.4
 40
0.4
 40
0.5
 40
0.5
 40
0.5
 40
0.5
 40
0.6
 40
0.6
 40
0.6
 40
0.6
 40
0.7
 40
0.7
 40
0.7
 40
0.7
 40
0.8
 40
0.8
 40
0.8
 40
0.8
 40
1.0
 40
1.0
 40
1.0
 40
1.0
 10
-5.1102
 20
-16.8851
 30
0.0
 10
-5.1102
 20
-16.8851
 30
0.0
 10
-5.3581
 20
-16.8851
 30
0.0
 10
-5.3581
 20
-16.8851
 30
0.0
 10
-5.3581
 20
-16.8851
 30
0.0
 10
-5.3581
 20
-16.8851
 30
0.0
 10
-5.3581
 20
-15.3047
 30
0.0
 10
-5.3581
 20
-15.3047
 30
0.0
 10
-5.3581
 20
-15.3047
 30
0.0
 10
-5.4179
 20
-15.3616
 30
0.0
 10
-5.4959
 20
-15.4185
 30
0.0
 10
-5.5928
 20
-15.4754
 30
0.0
 10
-5.5928
 20
-15.4754
 30
0.0
 10
-5.6902
 20
-15.5323
 30
0.0
 10
-5.7772
 20
-15.5751
 30
0.0
 10
-5.8544
 20
-15.6034
 30
0.0
 10
-5.8544
 20
-15.6034
 30
0.0
 10
-5.8544
 20
-15.6034
 30
0.0
 10
-5.8544
 20
-15.3639
 30
0.0
 10
-5.8544
 20
-15.3639
 30
0.0
 10
-5.8544
 20
-15.3639
 30
0.0
 10
-5.7156
 20
-15.2986
 30
0.0
 10
-5.5942
 20
-15.2195
 30
0.0
 10
-5.4903
 20
-15.1269
 30
0.0
 10
-5.4903
 20
-15.1269
 30
0.0
 10
-5.3868
 20
-15.0337
 30
0.0
 10
-5.313
 20
-14.9439
 30
0.0
 10
-5.2697
 20
-14.8564
 30
0.0
 10
-5.2697
 20
-14.8564
 30
0.0
 10
-5.2697
 20
-14.8564
 30
0.0
 10
-5.1102
 20
-14.8564
 30
0.0
 10
-5.1102
 20
-14.8564
 30
0.0
 10
-5.1102
 20
-14.8564
 30
0.0
 10
-5.1102
 20
-14.8564
 30
0.0
 10
-5.1102
 20
-16.8851
 30
0.0
 10
-5.1102
 20
-16.8851
 30
0.0
  0
SPLINE
  5
68
330
1F
100
AcDbEntity
  8
AXIS
 62
   250
100
AcDbSpline
210
0.0
220
0.0
230
1.0
 70
    11
 71
     3
 72
    68
 73
    64
 74
     0
 42
0.0000000001
 43
0.0000000001
 40
0.0
 40
0.0
 40
0.0
 40
0.0
 40
0.0588235294117647
 40
0.0588235294117647
 40
0.0588235294117647
 40
0.0588235294117647
 40
0.1176470588235294
 40
0.1176470588235294
 40
0.1176470588235294
 40
0.1176470588235294
 40
0.1764705882352941
 40
0.1764705882352941
 40
0.1764705882352941
 40
0.1764705882352941
 40
0.2352941176470588
 40
0.2352941176470588
 40
0.2352941176470588
 40
0.2352941176470588
 40
0.2941176470588235
 40
0.2941176470588235
 40
0.2941176470588235
 40
0.2941176470588235
 40
0.3529411764705883
 40
0.3529411764705883
 40
0.3529411764705883
 40
0.3529411764705883
 40
0.4117647058823529
 40
0.4117647058823529
 40
0.4117647058823529
 40
0.4117647058823529
 40
0.4705882352941176
 40
0.4705882352941176
 40
0.4705882352941176
 40
0.4705882352941176
 40
0.5294117647058824
 40
0.5294117647058824
 40
0.5294117647058824
 40
0.5294117647058824
 40
0.5882352941176471
 40
0.5882352941176471
 40
0.5882352941176471
 40
0.5882352941176471
 40
0.6470588235294118
 40
0.6470588235294118
 40
0.6470588235294118
 40
0.6470588235294118
 40
0.7058823529411765
 40
0.7058823529411765
 40
0.7058823529411765
 40
0.7058823529411765
 40
0.7647058823529411
 40
0.7647058823529411
 40
0.7647058823529411
 40
0.7647058823529411
 40
0.8235294117647058
 40
0.8235294117647058
 40
0.8235294117647058
 40
0.8235294117647058
 40
0.8823529411764706
 40
0.8823529411764706
 40
0.8823529411764706
 40
0.8823529411764706
 40
1.0
 40
1.0
 40
1.0
 40
1.0
 10
-4.0928
 20
-15.7896
 30
0.0
 10
-4.1959
 20
-15.752
 30
0.0
 10
-4.2721
 20
-15.6984
 30
0.0
 10
-4.3219
 20
-15.6283
 30
0.0
 10
-4.3219
 20
-15.6283
 30
0.0
 10
-4.3713
 20
-15.5587
 30
0.0
 10
-4.3962
 20
-15.4749
 30
0.0
 10
-4.3962
 20
-15.3776
 30
0.0
 10
-4.3962
 20
-15.3776
 30
0.0
 10
-4.3962
 20
-15.2304
 30
0.0
 10
-4.3435
 20
-15.1071
 30
0.0
 10
-4.2377
 20
-15.0069
 30
0.0
 10
-4.2377
 20
-15.0069
 30
0.0
 10
-4.1319
 20
-14.9067
 30
0.0
 10
-3.9917
 20
-14.8564
 30
0.0
 10
-3.8163
 20
-14.8564
 30
0.0
 10
-3.8163
 20
-14.8564
 30
0.0
 10
-3.6399
 20
-14.8564
 30
0.0
 10
-3.4978
 20
-14.9077
 30
0.0
 10
-3.3901
 20
-15.0102
 30
0.0
 10
-3.3901
 20
-15.0102
 30
0.0
 10
-3.2829
 20
-15.1128
 30
0.0
 10
-3.2292
 20
-15.2374
 30
0.0
 10
-3.2292
 20
-15.3846
 30
0.0
 10
-3.2292
 20
-15.3846
 30
0.0
 10
-3.2292
 20
-15.4782
 30
0.0
 10
-3.2537
 20
-15.5596
 30
0.0
 10
-3.3026
 20
-15.6292
 30
0.0
 10
-3.3026
 20
-15.6292
 30
0.0
 10
-3.352
 20
-15.6984
 30
0.0
 10
-3.4263
 20
-15.752
 30
0.0
 10
-3.5265
 20
-15.7896
 30
0.0
 10
-3.5265
 20
-15.7896
 30
0.0
 10
-3.4028
 20
-15.8301
 30
0.0
 10
-3.3083
 20
-15.895
 30
0.0
 10
-3.2434
 20
-15.9853
 30
0.0
 10
-3.2434
 20
-15.9853
 30
0.0
 10
-3.1789
 20
-16.0751
 30
0.0
 10
-3.1465
 20
-16.1828
 30
0.0
 10
-3.1465
 20
-16.3075
 30
0.0
 10
-3.1465
 20
-16.3075
 30
0.0
 10
-3.1465
 20
-16.4806
 30
0.0
 10
-3.2076
 20
-16.6255
 30
0.0
 10
-3.3294
 20
-16.743
 30
0.0
 10
-3.3294
 20
-16.743
 30
0.0
 10
-3.4517
 20
-16.8606
 30
0.0
 10
-3.6126
 20
-16.9194
 30
0.0
 10
-3.812
 20
-16.9194
 30
0.0
 10
-3.812
 20
-16.9194
 30
0.0
 10
-4.0115
 20
-16.9194
 30
0.0
 10
-4.1719
 20
-16.8606
 30
0.0
 10
-4.2942
 20
-16.7426
 30
0.0
 10
-4.2942
 20
-16.7426
 30
0.0
 10
-4.4165
 20
-16.6245
 30
0.0
 10
-4.4776
 20
-16.4773
 30
0.0
 10
-4.4776
 20
-16.3009
 30
0.0
 10
-4.4776
 20
-16.3009
 30
0.0
 10
-4.4776
 20
-16.1697
 30
0.0
 10
-4.4442
 20
-16.0596
 30
0.0
 10
-4.3774
 20
-15.9707
 30
0.0
 10
-4.3774
 20
-15.9707
 30
0.0
 10
-4.3111
 20
-15.8823
 30
0.0
 10
-4.2161
 20
-15.8216
 30
0.0
 10
-4.0928
 20
-15.7896
 30
0.0
  0
SPLINE
  5
69
330
1F
100
AcDbEntity
  8
AXIS
 62
   250
100
AcDbSpline
210
0.0
220
0.0
230
1.0
 70
    11
 71
     3
 72
    36
 73
    32
 74
     0
 42
0.0000000001
 43
0.0000000001
 40
0.0
 40
0.0
 40
0.0
 40
0.0
 40
0.1111111111111111
 40
0.1111111111111111
 40
0.1111111111111111
 40
0.1111111111111111
 40
0.2222222222222222
 40
0.2222222222222222
 40
0.2222222222222222
 40
0.2222222222222222
 40
0.3333333333333333
 40
0.3333333333333333
 40
0.3333333333333333
 40
0.3333333333333333
 40
0.4444444444444444
 40
0.4444444444444444
 40
0.4444444444444444
 40
0.4444444444444444
 40
0.5555555555555556
 40
0.5555555555555556
 40
0.5555555555555556
 40
0.5555555555555556
 40
0.6666666666666666
 40
0.6666666666666666
 40
0.6666666666666666
 40
0.6666666666666666
 40
0.7777777777777778
 40
0.7777777777777778
 40
0.7777777777777778
 40
0.7777777777777778
 40
1.0
 40
1.0
 40
1.0
 40
1.0
 10
-4.1427
 20
-15.3691
 30
0.0
 10
-4.1427
 20
-15.4646
 30
0.0
 10
-4.1117
 20
-15.5427
 30
0.0
 10
-4.0505
 20
-15.6034
 30
0.0
 10
-4.0505
 20
-15.6034
 30
0.0
 10
-3.9889
 20
-15.664
 30
0.0
 10
-3.9089
 20
-15.6946
 30
0.0
 10
-3.8106
 20
-15.6946
 30
0.0
 10
-3.8106
 20
-15.6946
 30
0.0
 10
-3.7151
 20
-15.6946
 30
0.0
 10
-3.6366
 20
-15.6645
 30
0.0
 10
-3.5754
 20
-15.6043
 30
0.0
 10
-3.5754
 20
-15.6043
 30
0.0
 10
-3.5143
 20
-15.5441
 30
0.0
 10
-3.4842
 20
-15.4702
 30
0.0
 10
-3.4842
 20
-15.3832
 30
0.0
 10
-3.4842
 20
-15.3832
 30
0.0
 10
-3.4842
 20
-15.292
 30
0.0
 10
-3.5152
 20
-15.2158
 30
0.0
 10
-3.5783
 20
-15.1537
 30
0.0
 10
-3.5783
 20
-15.1537
 30
0.0
 10
-3.6413
 20
-15.0916
 30
0.0
 10
-3.7194
 20
-15.0605
 30
0.0
 10
-3.8134
 20
-15.0605
 30
0.0
 10
-3.8134
 20
-15.0605
 30
0.0
 10
-3.908
 20
-15.0605
 30
0.0
 10
-3.9865
 20
-15.0911
 30
0.0
 10
-4.0491
 20
-15.1513
 30
0.0
 10
-4.0491
 20
-15.1513
 30
0.0
 10
-4.1117
 20
-15.212
 30
0.0
 10
-4.1427
 20
-15.2849
 30
0.0
 10
-4.1427
 20
-15.3691
 30
0.0
  0
SPLINE
  5
6A
330
1F
100
AcDbEntity
  8
AXIS
 62
   250
100
AcDbSpline
210
0.0
220
0.0
230
1.0
 70
    11
 71
     3
 72
    40
 73
    36
 74
     0
 42
0.0000000001
 43
0.0000000001
 40
0.0
 40
0.0
 40
0.0
 40
0.0
 40
0.1
 40
0.1
 40
0.1
 40
0.1
 40
0.2
 40
0.2
 40
0.2
 40
0.2
 40
0.3
 40
0.3
 40
0.3
 40
0.3
 40
0.4
 40
0.4
 40
0.4
 40
0.4
 40
0.5
 40
0.5
 40
0.5
 40
0.5
 40
0.6
 40
0.6
 40
0.6
 40
0.6
 40
0.7
 40
0.7
 40
0.7
 40
0.7
 40
0.8
 40
0.8
 40
0.8
 40
0.8
 40
1.0
 40
1.0
 40
1.0
 40
1.0
 10
-4.2227
 20
-16.3023
 30
0.0
 10
-4.2227
 20
-16.3729
 30
0.0
 10
-4.2057
 20
-16.4415
 30
0.0
 10
-4.1723
 20
-16.5074
 30
0.0
 10
-4.1723
 20
-16.5074
 30
0.0
 10
-4.1389
 20
-16.5737
 30
0.0
 10
-4.0891
 20
-16.625
 30
0.0
 10
-4.0228
 20
-16.6612
 30
0.0
 10
-4.0228
 20
-16.6612
 30
0.0
 10
-3.9564
 20
-16.6974
 30
0.0
 10
-3.8854
 20
-16.7158
 30
0.0
 10
-3.8092
 20
-16.7158
 30
0.0
 10
-3.8092
 20
-16.7158
 30
0.0
 10
-3.6907
 20
-16.7158
 30
0.0
 10
-3.5928
 20
-16.6777
 30
0.0
 10
-3.5157
 20
-16.601
 30
0.0
 10
-3.5157
 20
-16.601
 30
0.0
 10
-3.4386
 20
-16.5248
 30
0.0
 10
-3.4
 20
-16.4279
 30
0.0
 10
-3.4
 20
-16.3103
 30
0.0
 10
-3.4
 20
-16.3103
 30
0.0
 10
-3.4
 20
-16.1908
 30
0.0
 10
-3.4395
 20
-16.0921
 30
0.0
 10
-3.519
 20
-16.014
 30
0.0
 10
-3.519
 20
-16.014
 30
0.0
 10
-3.5985
 20
-15.9359
 30
0.0
 10
-3.6982
 20
-15.8969
 30
0.0
 10
-3.8177
 20
-15.8969
 30
0.0
 10
-3.8177
 20
-15.8969
 30
0.0
 10
-3.9343
 20
-15.8969
 30
0.0
 10
-4.0308
 20
-15.9354
 30
0.0
 10
-4.1074
 20
-16.0126
 30
0.0
 10
-4.1074
 20
-16.0126
 30
0.0
 10
-4.1841
 20
-16.0902
 30
0.0
 10
-4.2227
 20
-16.1866
 30
0.0
 10
-4.2227
 20
-16.3023
 30
0.0
  0
SPLINE
  5
6B
330
1F
100
AcDbEntity
  8
AXIS
 62
   250
100
AcDbSpline
210
0.0
220
0.0
230
1.0
 70
    11
 71
     3
 72
    52
 73
    48
 74
     0
 42
0.0000000001
 43
0.0000000001
 40
0.0
 40
0.0
 40
0.0
 40
0.0
 40
0.0769230769230769
 40
0.0769230769230769
 40
0.0769230769230769
 40
0.0769230769230769
 40
0.1538461538461539
 40
0.1538461538461539
 40
0.1538461538461539
 40
0.1538461538461539
 40
0.2307692307692308
 40
0.2307692307692308
 40
0.2307692307692308
 40
0.2307692307692308
 40
0.3076923076923077
 40
0.3076923076923077
 40
0.3076923076923077
 40
0.3076923076923077
 40
0.3846153846153846
 40
0.3846153846153846
 40
0.3846153846153846
 40
0.3846153846153846
 40
0.4615384615384616
 40
0.4615384615384616
 40
0.4615384615384616
 40
0.4615384615384616
 40
0.5384615384615384
 40
0.5384615384615384
 40
0.5384615384615384
 40
0.5384615384615384
 40
0.6153846153846154
 40
0.6153846153846154
 40
0.6153846153846154
 40
0.6153846153846154
 40
0.6923076923076923
 40
0.6923076923076923
 40
0.6923076923076923
 40
0.6923076923076923
 40
0.7692307692307693
 40
0.7692307692307693
 40
0.7692307692307693
 40
0.7692307692307693
 40
0.8461538461538461
 40
0.8461538461538461
 40
0.8461538461538461
 40
0.8461538461538461
 40
1.0
 40
1.0
 40
1.0
 40
1.0
 10
-2.9052
 20
-15.8889
 30
0.0
 10
-2.9052
 20
-15.6499
 30
0.0
 10
-2.8807
 20
-15.4575
 30
0.0
 10
-2.8313
 20
-15.3122
 30
0.0
 10
-2.8313
 20
-15.3122
 30
0.0
 10
-2.7824
 20
-15.1664
 30
0.0
 10
-2.709
 20
-15.054
 30
0.0
 10
-2.6121
 20
-14.9749
 30
0.0
 10
-2.6121
 20
-14.9749
 30
0.0
 10
-2.5152
 20
-14.8959
 30
0.0
 10
-2.3934
 20
-14.8564
 30
0.0
 10
-2.2467
 20
-14.8564
 30
0.0
 10
-2.2467
 20
-14.8564
 30
0.0
 10
-2.138
 20
-14.8564
 30
0.0
 10
-2.043
 20
-14.8785
 30
0.0
 10
-1.9612
 20
-14.9223
 30
0.0
 10
-1.9612
 20
-14.9223
 30
0.0
 10
-1.8793
 20
-14.9655
 30
0.0
 10
-1.812
 20
-15.0286
 30
0.0
 10
-1.7584
 20
-15.1109
 30
0.0
 10
-1.7584
 20
-15.1109
 30
0.0
 10
-1.7053
 20
-15.1932
 30
0.0
 10
-1.6634
 20
-15.2934
 30
0.0
 10
-1.6333
 20
-15.4114
 30
0.0
 10
-1.6333
 20
-15.4114
 30
0.0
 10
-1.6027
 20
-15.5295
 30
0.0
 10
-1.5877
 20
-15.6885
 30
0.0
 10
-1.5877
 20
-15.8889
 30
0.0
 10
-1.5877
 20
-15.8889
 30
0.0
 10
-1.5877
 20
-16.1259
 30
0.0
 10
-1.6121
 20
-16.3169
 30
0.0
 10
-1.6606
 20
-16.4627
 30
0.0
 10
-1.6606
 20
-16.4627
 30
0.0
 10
-1.7095
 20
-16.6085
 30
0.0
 10
-1.7824
 20
-16.7209
 30
0.0
 10
-1.8793
 20
-16.8004
 30
0.0
 10
-1.8793
 20
-16.8004
 30
0.0
 10
-1.9762
 20
-16.8799
 30
0.0
 10
-2.0985
 20
-16.9194
 30
0.0
 10
-2.2467
 20
-16.9194
 30
0.0
 10
-2.2467
 20
-16.9194
 30
0.0
 10
-2.4414
 20
-16.9194
 30
0.0
 10
-2.5943
 20
-16.8498
 30
0.0
 10
-2.7053
 20
-16.7101
 30
0.0
 10
-2.7053
 20
-16.7101
 30
0.0
 10
-2.8384
 20
-16.5422
 30
0.0
 10
-2.9052
 20
-16.268
 30
0.0
 10
-2.9052
 20
-15.8889
 30
0.0
  0
SPLINE
  5
6C
330
1F
100
AcDbEntity
  8
AXIS
 62
   250
100
AcDbSpline
210
0.0
220
0.0
230
1.0
 70
    11
 71
     3
 72
    36
 73
    32
 74
     0
 42
0.0000000001
 43
0.0000000001
 40
0.0
 40
0.0
 40
0.0
 40
0.0
 40
0.1111111111111111
 40
0.1111111111111111
 40
0.1111111111111111
 40
0.1111111111111111
 40
0.2222222222222222
 40
0.2222222222222222
 40
0.2222222222222222
 40
0.2222222222222222
 40
0.3333333333333333
 40
0.3333333333333333
 40
0.3333333333333333
 40
0.3333333333333333
 40
0.4444444444444444
 40
0.4444444444444444
 40
0.4444444444444444
 40
0.4444444444444444
 40
0.5555555555555556
 40
0.5555555555555556
 40
0.5555555555555556
 40
0.5555555555555556
 40
0.6666666666666666
 40
0.6666666666666666
 40
0.6666666666666666
 40
0.6666666666666666
 40
0.7777777777777778
 40
0.7777777777777778
 40
0.7777777777777778
 40
0.7777777777777778
 40
1.0
 40
1.0
 40
1.0
 40
1.0
 10
-2.6502
 20
-15.8889
 30
0.0
 10
-2.6502
 20
-16.2205
 30
0.0
 10
-2.6112
 20
-16.4411
 30
0.0
 10
-2.5336
 20
-16.5511
 30
0.0
 10
-2.5336
 20
-16.5511
 30
0.0
 10
-2.456
 20
-16.6607
 30
0.0
 10
-2.3605
 20
-16.7158
 30
0.0
 10
-2.2467
 20
-16.7158
 30
0.0
 10
-2.2467
 20
-16.7158
 30
0.0
 10
-2.1324
 20
-16.7158
 30
0.0
 10
-2.0369
 20
-16.6603
 30
0.0
 10
-1.9593
 20
-16.5502
 30
0.0
 10
-1.9593
 20
-16.5502
 30
0.0
 10
-1.8817
 20
-16.4401
 30
0.0
 10
-1.8426
 20
-16.2195
 30
0.0
 10
-1.8426
 20
-15.8889
 30
0.0
 10
-1.8426
 20
-15.8889
 30
0.0
 10
-1.8426
 20
-15.5563
 30
0.0
 10
-1.8817
 20
-15.3352
 30
0.0
 10
-1.9593
 20
-15.2261
 30
0.0
 10
-1.9593
 20
-15.2261
 30
0.0
 10
-2.0369
 20
-15.1165
 30
0.0
 10
-2.1333
 20
-15.062
 30
0.0
 10
-2.249
 20
-15.062
 30
0.0
 10
-2.249
 20
-15.062
 30
0.0
 10
-2.3633
 20
-15.062
 30
0.0
 10
-2.4541
 20
-15.1104
 30
0.0
 10
-2.5223
 20
-15.2068
 30
0.0
 10
-2.5223
 20
-15.2068
 30
0.0
 10
-2.6074
 20
-15.3296
 30
0.0
 10
-2.6502
 20
-15.5573
 30
0.0
 10
-2.6502
 20
-15.8889
 30
0.0
  0
SPLINE
  5
6D
330
1F
100
AcDbEntity
  8
AXIS
 62
   250
100
AcDbSpline
210
0.0
220
0.0
230
1.0
 70
    11
 71
     3
 72
    40
 73
    36
 74
     0
 42
0.0000000001
 43
0.0000000001
 40
0.0
 40
0.0
 40
0.0
 40
0.0
 40
0.1
 40
0.1
 40
0.1
 40
0.1
 40
0.2
 40
0.2
 40
0.2
 40
0.2
 40
0.3
 40
0.3
 40
0.3
 40
0.3
 40
0.4
 40
0.4
 40
0.4
 40
0.4
 40
0.5
 40
0.5
 40
0.5
 40
0.5
 40
0.6
 40
0.6
 40
0.6
 40
0.6
 40
0.7
 40
0.7
 40
0.7
 40
0.7
 40
0.8
 40
0.8
 40
0.8
 40
0.8
 40
1.0
 40
1.0
 40
1.0
 40
1.0
 10
-27.7436
 20
-1.3538
 30
0.0
 10
-27.7436
 20
-1.3538
 30
0.0
 10
-27.7436
 20
-1.6017
 30
0.0
 10
-27.7436
 20
-1.6017
 30
0.0
 10
-27.7436
 20
-1.6017
 30
0.0
 10
-27.7436
 20
-1.6017
 30
0.0
 10
-29.324
 20
-1.6017
 30
0.0
 10
-29.324
 20
-1.6017
 30
0.0
 10
-29.324
 20
-1.6017
 30
0.0
 10
-29.2671
 20
-1.6615
 30
0.0
 10
-29.2102
 20
-1.7395
 30
0.0
 10
-29.1533
 20
-1.8364
 30
0.0
 10
-29.1533
 20
-1.8364
 30
0.0
 10
-29.0964
 20
-1.9338
 30
0.0
 10
-29.0536
 20
-2.0208
 30
0.0
 10
-29.0253
 20
-2.098
 30
0.0
 10
-29.0253
 20
-2.098
 30
0.0
 10
-29.0253
 20
-2.098
 30
0.0
 10
-29.2648
 20
-2.098
 30
0.0
 10
-29.2648
 20
-2.098
 30
0.0
 10
-29.2648
 20
-2.098
 30
0.0
 10
-29.3301
 20
-1.9592
 30
0.0
 10
-29.4092
 20
-1.8378
 30
0.0
 10
-29.5018
 20
-1.7339
 30
0.0
 10
-29.5018
 20
-1.7339
 30
0.0
 10
-29.595
 20
-1.6304
 30
0.0
 10
-29.6848
 20
-1.5566
 30
0.0
 10
-29.7723
 20
-1.5133
 30
0.0
 10
-29.7723
 20
-1.5133
 30
0.0
 10
-29.7723
 20
-1.5133
 30
0.0
 10
-29.7723
 20
-1.3538
 30
0.0
 10
-29.7723
 20
-1.3538
 30
0.0
 10
-29.7723
 20
-1.3538
 30
0.0
 10
-29.7723
 20
-1.3538
 30
0.0
 10
-27.7436
 20
-1.3538
 30
0.0
 10
-27.7436
 20
-1.3538
 30
0.0
  0
SPLINE
  5
6E
330
1F
100
AcDbEntity
  8
AXIS
 62
   250
100
AcDbSpline
210
0.0
220
0.0
230
1.0
 70
    11
 71
     3
 72
    80
 73
    76
 74
     0
 42
0.0000000001
 43
0.0000000001
 40
0.0
 40
0.0
 40
0.0
 40
0.0
 40
0.05
 40
0.05
 40
0.05
 40
0.05
 40
0.1
 40
0.1
 40
0.1
 40
0.1
 40
0.15
 40
0.15
 40
0.15
 40
0.15
 40
0.2
 40
0.2
 40
0.2
 40
0.2
 40
0.25
 40
0.25
 40
0.25
 40
0.25
 40
0.3
 40
0.3
 40
0.3
 40
0.3
 40
0.35
 40
0.35
 40
0.35
 40
0.35
 40
0.4
 40
0.4
 40
0.4
 40
0.4
 40
0.45
 40
0.45
 40
0.45
 40
0.45
 40
0.5
 40
0.5
 40
0.5
 40
0.5
 40
0.55
 40
0.55
 40
0.55
 40
0.55
 40
0.6
 40
0.6
 40
0.6
 40
0.6
 40
0.65
 40
0.65
 40
0.65
 40
0.65
 40
0.7
 40
0.7
 40
0.7
 40
0.7
 40
0.75
 40
0.75
 40
0.75
 40
0.75
 40
0.8
 40
0.8
 40
0.8
 40
0.8
 40
0.85
 40
0.85
 40
0.85
 40
0.85
 40
0.9
 40
0.9
 40
0.9
 40
0.9
 40
1.0
 40
1.0
 40
1.0
 40
1.0
 10
-29.269
 20
0.5685
 30
0.0
 10
-29.269
 20
0.5685
 30
0.0
 10
-29.2497
 20
0.3221
 30
0.0
 10
-29.2497
 20
0.3221
 30
0.0
 10
-29.2497
 20
0.3221
 30
0.0
 10
-29.3471
 20
0.3
 30
0.0
 10
-29.4181
 20
0.2689
 30
0.0
 10
-29.4618
 20
0.2285
 30
0.0
 10
-29.4618
 20
0.2285
 30
0.0
 10
-29.5329
 20
0.1612
 30
0.0
 10
-29.5682
 20
0.0784
 30
0.0
 10
-29.5682
 20
-0.0199
 30
0.0
 10
-29.5682
 20
-0.0199
 30
0.0
 10
-29.5682
 20
-0.0989
 30
0.0
 10
-29.546
 20
-0.168
 30
0.0
 10
-29.5018
 20
-0.2278
 30
0.0
 10
-29.5018
 20
-0.2278
 30
0.0
 10
-29.4449
 20
-0.3059
 30
0.0
 10
-29.3617
 20
-0.3675
 30
0.0
 10
-29.2525
 20
-0.4126
 30
0.0
 10
-29.2525
 20
-0.4126
 30
0.0
 10
-29.1434
 20
-0.4573
 30
0.0
 10
-28.9877
 20
-0.4808
 30
0.0
 10
-28.7855
 20
-0.4827
 30
0.0
 10
-28.7855
 20
-0.4827
 30
0.0
 10
-28.8762
 20
-0.423
 30
0.0
 10
-28.944
 20
-0.3501
 30
0.0
 10
-28.9882
 20
-0.2635
 30
0.0
 10
-28.9882
 20
-0.2635
 30
0.0
 10
-29.0319
 20
-0.1775
 30
0.0
 10
-29.054
 20
-0.0867
 30
0.0
 10
-29.054
 20
0.0079
 30
0.0
 10
-29.054
 20
0.0079
 30
0.0
 10
-29.054
 20
0.1734
 30
0.0
 10
-28.9934
 20
0.3141
 30
0.0
 10
-28.8715
 20
0.4303
 30
0.0
 10
-28.8715
 20
0.4303
 30
0.0
 10
-28.7497
 20
0.5464
 30
0.0
 10
-28.5926
 20
0.6048
 30
0.0
 10
-28.3998
 20
0.6048
 30
0.0
 10
-28.3998
 20
0.6048
 30
0.0
 10
-28.2728
 20
0.6048
 30
0.0
 10
-28.1552
 20
0.577
 30
0.0
 10
-28.046
 20
0.5224
 30
0.0
 10
-28.046
 20
0.5224
 30
0.0
 10
-27.9374
 20
0.4679
 30
0.0
 10
-27.8537
 20
0.3926
 30
0.0
 10
-27.7958
 20
0.2971
 30
0.0
 10
-27.7958
 20
0.2971
 30
0.0
 10
-27.738
 20
0.2017
 30
0.0
 10
-27.7093
 20
0.0935
 30
0.0
 10
-27.7093
 20
-0.0279
 30
0.0
 10
-27.7093
 20
-0.0279
 30
0.0
 10
-27.7093
 20
-0.2348
 30
0.0
 10
-27.785
 20
-0.4032
 30
0.0
 10
-27.9374
 20
-0.5335
 30
0.0
 10
-27.9374
 20
-0.5335
 30
0.0
 10
-28.0893
 20
-0.6643
 30
0.0
 10
-28.34
 20
-0.7292
 30
0.0
 10
-28.689
 20
-0.7292
 30
0.0
 10
-28.689
 20
-0.7292
 30
0.0
 10
-29.0794
 20
-0.7292
 30
0.0
 10
-29.3631
 20
-0.6572
 30
0.0
 10
-29.5404
 20
-0.5128
 30
0.0
 10
-29.5404
 20
-0.5128
 30
0.0
 10
-29.6947
 20
-0.3872
 30
0.0
 10
-29.7723
 20
-0.2179
 30
0.0
 10
-29.7723
 20
-0.0044
 30
0.0
 10
-29.7723
 20
-0.0044
 30
0.0
 10
-29.7723
 20
0.1542
 30
0.0
 10
-29.7276
 20
0.2844
 30
0.0
 10
-29.6382
 20
0.386
 30
0.0
 10
-29.6382
 20
0.386
 30
0.0
 10
-29.5493
 20
0.4876
 30
0.0
 10
-29.4261
 20
0.5483
 30
0.0
 10
-29.269
 20
0.5685
 30
0.0
  0
SPLINE
  5
6F
330
1F
100
AcDbEntity
  8
AXIS
 62
   250
100
AcDbSpline
210
0.0
220
0.0
230
1.0
 70
    11
 71
     3
 72
    40
 73
    36
 74
     0
 42
0.0000000001
 43
0.0000000001
 40
0.0
 40
0.0
 40
0.0
 40
0.0
 40
0.1
 40
0.1
 40
0.1
 40
0.1
 40
0.2
 40
0.2
 40
0.2
 40
0.2
 40
0.3
 40
0.3
 40
0.3
 40
0.3
 40
0.4
 40
0.4
 40
0.4
 40
0.4
 40
0.5
 40
0.5
 40
0.5
 40
0.5
 40
0.6
 40
0.6
 40
0.6
 40
0.6
 40
0.7
 40
0.7
 40
0.7
 40
0.7
 40
0.8
 40
0.8
 40
0.8
 40
0.8
 40
1.0
 40
1.0
 40
1.0
 40
1.0
 10
-28.3984
 20
-0.4442
 30
0.0
 10
-28.3127
 20
-0.4442
 30
0.0
 10
-28.2309
 20
-0.4258
 30
0.0
 10
-28.1528
 20
-0.3896
 30
0.0
 10
-28.1528
 20
-0.3896
 30
0.0
 10
-28.0747
 20
-0.3534
 30
0.0
 10
-28.0155
 20
-0.3026
 30
0.0
 10
-27.9746
 20
-0.2377
 30
0.0
 10
-27.9746
 20
-0.2377
 30
0.0
 10
-27.9336
 20
-0.1723
 30
0.0
 10
-27.9129
 20
-0.1036
 30
0.0
 10
-27.9129
 20
-0.0321
 30
0.0
 10
-27.9129
 20
-0.0321
 30
0.0
 10
-27.9129
 20
0.0728
 30
0.0
 10
-27.9553
 20
0.1626
 30
0.0
 10
-28.0399
 20
0.2379
 30
0.0
 10
-28.0399
 20
0.2379
 30
0.0
 10
-28.1246
 20
0.3131
 30
0.0
 10
-28.2394
 20
0.3508
 30
0.0
 10
-28.3842
 20
0.3508
 30
0.0
 10
-28.3842
 20
0.3508
 30
0.0
 10
-28.5239
 20
0.3508
 30
0.0
 10
-28.634
 20
0.3136
 30
0.0
 10
-28.7144
 20
0.2393
 30
0.0
 10
-28.7144
 20
0.2393
 30
0.0
 10
-28.7949
 20
0.165
 30
0.0
 10
-28.8349
 20
0.0714
 30
0.0
 10
-28.8349
 20
-0.0415
 30
0.0
 10
-28.8349
 20
-0.0415
 30
0.0
 10
-28.8349
 20
-0.1539
 30
0.0
 10
-28.7949
 20
-0.249
 30
0.0
 10
-28.7144
 20
-0.327
 30
0.0
 10
-28.7144
 20
-0.327
 30
0.0
 10
-28.634
 20
-0.4051
 30
0.0
 10
-28.5286
 20
-0.4442
 30
0.0
 10
-28.3984
 20
-0.4442
 30
0.0
  0
SPLINE
  5
70
330
1F
100
AcDbEntity
  8
AXIS
 62
   250
100
AcDbSpline
210
0.0
220
0.0
230
1.0
 70
    11
 71
     3
 72
    92
 73
    88
 74
     0
 42
0.0000000001
 43
0.0000000001
 40
0.0
 40
0.0
 40
0.0
 40
0.0
 40
0.0434782608695652
 40
0.0434782608695652
 40
0.0434782608695652
 40
0.0434782608695652
 40
0.0869565217391304
 40
0.0869565217391304
 40
0.0869565217391304
 40
0.0869565217391304
 40
0.1304347826086956
 40
0.1304347826086956
 40
0.1304347826086956
 40
0.1304347826086956
 40
0.1739130434782609
 40
0.1739130434782609
 40
0.1739130434782609
 40
0.1739130434782609
 40
0.2173913043478261
 40
0.2173913043478261
 40
0.2173913043478261
 40
0.2173913043478261
 40
0.2608695652173913
 40
0.2608695652173913
 40
0.2608695652173913
 40
0.2608695652173913
 40
0.3043478260869565
 40
0.3043478260869565
 40
0.3043478260869565
 40
0.3043478260869565
 40
0.3478260869565217
 40
0.3478260869565217
 40
0.3478260869565217
 40
0.3478260869565217
 40
0.391304347826087
 40
0.391304347826087
 40
0.391304347826087
 40
0.391304347826087
 40
0.4347826086956522
 40
0.4347826086956522
 40
0.4347826086956522
 40
0.4347826086956522
 40
0.4782608695652174
 40
0.4782608695652174
 40
0.4782608695652174
 40
0.4782608695652174
 40
0.5217391304347826
 40
0.5217391304347826
 40
0.5217391304347826
 40
0.5217391304347826
 40
0.5652173913043478
 40
0.5652173913043478
 40
0.5652173913043478
 40
0.5652173913043478
 40
0.6086956521739131
 40
0.6086956521739131
 40
0.6086956521739131
 40
0.6086956521739131
 40
0.6521739130434783
 40
0.6521739130434783
 40
0.6521739130434783
 40
0.6521739130434783
 40
0.6956521739130435
 40
0.6956521739130435
 40
0.6956521739130435
 40
0.6956521739130435
 40
0.7391304347826086
 40
0.7391304347826086
 40
0.7391304347826086
 40
0.7391304347826086
 40
0.782608695652174
 40
0.782608695652174
 40
0.782608695652174
 40
0.782608695652174
 40
0.8260869565217391
 40
0.8260869565217391
 40
0.8260869565217391
 40
0.8260869565217391
 40
0.8695652173913043
 40
0.8695652173913043
 40
0.8695652173913043
 40
0.8695652173913043
 40
0.9130434782608695
 40
0.9130434782608695
 40
0.9130434782608695
 40
0.9130434782608695
 40
1.0
 40
1.0
 40
1.0
 40
1.0
 10
-28.2728
 20
0.8512
 30
0.0
 10
-28.2728
 20
0.8512
 30
0.0
 10
-28.2949
 20
1.1118
 30
0.0
 10
-28.2949
 20
1.1118
 30
0.0
 10
-28.2949
 20
1.1118
 30
0.0
 10
-28.1679
 20
1.1311
 30
0.0
 10
-28.0729
 20
1.1758
 30
0.0
 10
-28.0089
 20
1.2459
 30
0.0
 10
-28.0089
 20
1.2459
 30
0.0
 10
-27.9449
 20
1.3164
 30
0.0
 10
-27.9129
 20
1.4011
 30
0.0
 10
-27.9129
 20
1.5003
 30
0.0
 10
-27.9129
 20
1.5003
 30
0.0
 10
-27.9129
 20
1.6198
 30
0.0
 10
-27.9581
 20
1.7209
 30
0.0
 10
-28.0479
 20
1.8032
 30
0.0
 10
-28.0479
 20
1.8032
 30
0.0
 10
-28.1382
 20
1.886
 30
0.0
 10
-28.2577
 20
1.9274
 30
0.0
 10
-28.4063
 20
1.9274
 30
0.0
 10
-28.4063
 20
1.9274
 30
0.0
 10
-28.5479
 20
1.9274
 30
0.0
 10
-28.6594
 20
1.8879
 30
0.0
 10
-28.7412
 20
1.8084
 30
0.0
 10
-28.7412
 20
1.8084
 30
0.0
 10
-28.8231
 20
1.7289
 30
0.0
 10
-28.864
 20
1.625
 30
0.0
 10
-28.864
 20
1.4961
 30
0.0
 10
-28.864
 20
1.4961
 30
0.0
 10
-28.864
 20
1.4161
 30
0.0
 10
-28.8457
 20
1.3442
 30
0.0
 10
-28.8095
 20
1.2797
 30
0.0
 10
-28.8095
 20
1.2797
 30
0.0
 10
-28.7732
 20
1.2153
 30
0.0
 10
-28.7262
 20
1.165
 30
0.0
 10
-28.6683
 20
1.1283
 30
0.0
 10
-28.6683
 20
1.1283
 30
0.0
 10
-28.6683
 20
1.1283
 30
0.0
 10
-28.6984
 20
0.8954
 30
0.0
 10
-28.6984
 20
0.8954
 30
0.0
 10
-28.6984
 20
0.8954
 30
0.0
 10
-28.6984
 20
0.8954
 30
0.0
 10
-29.7361
 20
1.0911
 30
0.0
 10
-29.7361
 20
1.0911
 30
0.0
 10
-29.7361
 20
1.0911
 30
0.0
 10
-29.7361
 20
1.0911
 30
0.0
 10
-29.7361
 20
2.0958
 30
0.0
 10
-29.7361
 20
2.0958
 30
0.0
 10
-29.7361
 20
2.0958
 30
0.0
 10
-29.7361
 20
2.0958
 30
0.0
 10
-29.499
 20
2.0958
 30
0.0
 10
-29.499
 20
2.0958
 30
0.0
 10
-29.499
 20
2.0958
 30
0.0
 10
-29.499
 20
2.0958
 30
0.0
 10
-29.499
 20
1.2896
 30
0.0
 10
-29.499
 20
1.2896
 30
0.0
 10
-29.499
 20
1.2896
 30
0.0
 10
-29.499
 20
1.2896
 30
0.0
 10
-28.9562
 20
1.1805
 30
0.0
 10
-28.9562
 20
1.1805
 30
0.0
 10
-28.9562
 20
1.1805
 30
0.0
 10
-29.0409
 20
1.3018
 30
0.0
 10
-29.0832
 20
1.4293
 30
0.0
 10
-29.0832
 20
1.5624
 30
0.0
 10
-29.0832
 20
1.5624
 30
0.0
 10
-29.0832
 20
1.7388
 30
0.0
 10
-29.0221
 20
1.8874
 30
0.0
 10
-28.8998
 20
2.0088
 30
0.0
 10
-28.8998
 20
2.0088
 30
0.0
 10
-28.7775
 20
2.1301
 30
0.0
 10
-28.6204
 20
2.1908
 30
0.0
 10
-28.4285
 20
2.1908
 30
0.0
 10
-28.4285
 20
2.1908
 30
0.0
 10
-28.2455
 20
2.1908
 30
0.0
 10
-28.0874
 20
2.1372
 30
0.0
 10
-27.9543
 20
2.0309
 30
0.0
 10
-27.9543
 20
2.0309
 30
0.0
 10
-27.7911
 20
1.9011
 30
0.0
 10
-27.7093
 20
1.7242
 30
0.0
 10
-27.7093
 20
1.5003
 30
0.0
 10
-27.7093
 20
1.5003
 30
0.0
 10
-27.7093
 20
1.3164
 30
0.0
 10
-27.7605
 20
1.1664
 30
0.0
 10
-27.8635
 20
1.0502
 30
0.0
 10
-27.8635
 20
1.0502
 30
0.0
 10
-27.9666
 20
0.934
 30
0.0
 10
-28.103
 20
0.8677
 30
0.0
 10
-28.2728
 20
0.8512
 30
0.0
  0
SPLINE
  5
71
330
1F
100
AcDbEntity
  8
AXIS
 62
   250
100
AcDbSpline
210
0.0
220
0.0
230
1.0
 70
    11
 71
     3
 72
    40
 73
    36
 74
     0
 42
0.0000000001
 43
0.0000000001
 40
0.0
 40
0.0
 40
0.0
 40
0.0
 40
0.1
 40
0.1
 40
0.1
 40
0.1
 40
0.2
 40
0.2
 40
0.2
 40
0.2
 40
0.3
 40
0.3
 40
0.3
 40
0.3
 40
0.4
 40
0.4
 40
0.4
 40
0.4
 40
0.5
 40
0.5
 40
0.5
 40
0.5
 40
0.6
 40
0.6
 40
0.6
 40
0.6
 40
0.7
 40
0.7
 40
0.7
 40
0.7
 40
0.8
 40
0.8
 40
0.8
 40
0.8
 40
1.0
 40
1.0
 40
1.0
 40
1.0
 10
13.5009
 20
-1.8445
 30
0.0
 10
13.5009
 20
-1.8445
 30
0.0
 10
13.5009
 20
-2.0924
 30
0.0
 10
13.5009
 20
-2.0924
 30
0.0
 10
13.5009
 20
-2.0924
 30
0.0
 10
13.5009
 20
-2.0924
 30
0.0
 10
11.9205
 20
-2.0924
 30
0.0
 10
11.9205
 20
-2.0924
 30
0.0
 10
11.9205
 20
-2.0924
 30
0.0
 10
11.9774
 20
-2.1522
 30
0.0
 10
12.0343
 20
-2.2302
 30
0.0
 10
12.0912
 20
-2.3271
 30
0.0
 10
12.0912
 20
-2.3271
 30
0.0
 10
12.1481
 20
-2.4245
 30
0.0
 10
12.1909
 20
-2.5115
 30
0.0
 10
12.2192
 20
-2.5887
 30
0.0
 10
12.2192
 20
-2.5887
 30
0.0
 10
12.2192
 20
-2.5887
 30
0.0
 10
11.9797
 20
-2.5887
 30
0.0
 10
11.9797
 20
-2.5887
 30
0.0
 10
11.9797
 20
-2.5887
 30
0.0
 10
11.9144
 20
-2.4499
 30
0.0
 10
11.8353
 20
-2.3285
 30
0.0
 10
11.7427
 20
-2.2246
 30
0.0
 10
11.7427
 20
-2.2246
 30
0.0
 10
11.6495
 20
-2.1211
 30
0.0
 10
11.5597
 20
-2.0473
 30
0.0
 10
11.4722
 20
-2.004
 30
0.0
 10
11.4722
 20
-2.004
 30
0.0
 10
11.4722
 20
-2.004
 30
0.0
 10
11.4722
 20
-1.8445
 30
0.0
 10
11.4722
 20
-1.8445
 30
0.0
 10
11.4722
 20
-1.8445
 30
0.0
 10
11.4722
 20
-1.8445
 30
0.0
 10
13.5009
 20
-1.8445
 30
0.0
 10
13.5009
 20
-1.8445
 30
0.0
  0
SPLINE
  5
72
330
1F
100
AcDbEntity
  8
AXIS
 62
   250
100
AcDbSpline
210
0.0
220
0.0
230
1.0
 70
    11
 71
     3
 72
    40
 73
    36
 74
     0
 42
0.0000000001
 43
0.0000000001
 40
0.0
 40
0.0
 40
0.0
 40
0.0
 40
0.1
 40
0.1
 40
0.1
 40
0.1
 40
0.2
 40
0.2
 40
0.2
 40
0.2
 40
0.3
 40
0.3
 40
0.3
 40
0.3
 40
0.4
 40
0.4
 40
0.4
 40
0.4
 40
0.5
 40
0.5
 40
0.5
 40
0.5
 40
0.6
 40
0.6
 40
0.6
 40
0.6
 40
0.7
 40
0.7
 40
0.7
 40
0.7
 40
0.8
 40
0.8
 40
0.8
 40
0.8
 40
1.0
 40
1.0
 40
1.0
 40
1.0
 10
13.5009
 20
-0.4842
 30
0.0
 10
13.5009
 20
-0.4842
 30
0.0
 10
13.5009
 20
-0.7321
 30
0.0
 10
13.5009
 20
-0.7321
 30
0.0
 10
13.5009
 20
-0.7321
 30
0.0
 10
13.5009
 20
-0.7321
 30
0.0
 10
11.9205
 20
-0.7321
 30
0.0
 10
11.9205
 20
-0.7321
 30
0.0
 10
11.9205
 20
-0.7321
 30
0.0
 10
11.9774
 20
-0.7919
 30
0.0
 10
12.0343
 20
-0.8699
 30
0.0
 10
12.0912
 20
-0.9668
 30
0.0
 10
12.0912
 20
-0.9668
 30
0.0
 10
12.1481
 20
-1.0642
 30
0.0
 10
12.1909
 20
-1.1512
 30
0.0
 10
12.2192
 20
-1.2284
 30
0.0
 10
12.2192
 20
-1.2284
 30
0.0
 10
12.2192
 20
-1.2284
 30
0.0
 10
11.9797
 20
-1.2284
 30
0.0
 10
11.9797
 20
-1.2284
 30
0.0
 10
11.9797
 20
-1.2284
 30
0.0
 10
11.9144
 20
-1.0896
 30
0.0
 10
11.8353
 20
-0.9682
 30
0.0
 10
11.7427
 20
-0.8643
 30
0.0
 10
11.7427
 20
-0.8643
 30
0.0
 10
11.6495
 20
-0.7608
 30
0.0
 10
11.5597
 20
-0.687
 30
0.0
 10
11.4722
 20
-0.6437
 30
0.0
 10
11.4722
 20
-0.6437
 30
0.0
 10
11.4722
 20
-0.6437
 30
0.0
 10
11.4722
 20
-0.4842
 30
0.0
 10
11.4722
 20
-0.4842
 30
0.0
 10
11.4722
 20
-0.4842
 30
0.0
 10
11.4722
 20
-0.4842
 30
0.0
 10
13.5009
 20
-0.4842
 30
0.0
 10
13.5009
 20
-0.4842
 30
0.0
  0
SPLINE
  5
73
330
1F
100
AcDbEntity
  8
AXIS
 62
   250
100
AcDbSpline
210
0.0
220
0.0
230
1.0
 70
    11
 71
     3
 72
    52
 73
    48
 74
     0
 42
0.0000000001
 43
0.0000000001
 40
0.0
 40
0.0
 40
0.0
 40
0.0
 40
0.0769230769230769
 40
0.0769230769230769
 40
0.0769230769230769
 40
0.0769230769230769
 40
0.1538461538461539
 40
0.1538461538461539
 40
0.1538461538461539
 40
0.1538461538461539
 40
0.2307692307692308
 40
0.2307692307692308
 40
0.2307692307692308
 40
0.2307692307692308
 40
0.3076923076923077
 40
0.3076923076923077
 40
0.3076923076923077
 40
0.3076923076923077
 40
0.3846153846153846
 40
0.3846153846153846
 40
0.3846153846153846
 40
0.3846153846153846
 40
0.4615384615384616
 40
0.4615384615384616
 40
0.4615384615384616
 40
0.4615384615384616
 40
0.5384615384615384
 40
0.5384615384615384
 40
0.5384615384615384
 40
0.5384615384615384
 40
0.6153846153846154
 40
0.6153846153846154
 40
0.6153846153846154
 40
0.6153846153846154
 40
0.6923076923076923
 40
0.6923076923076923
 40
0.6923076923076923
 40
0.6923076923076923
 40
0.7692307692307693
 40
0.7692307692307693
 40
0.7692307692307693
 40
0.7692307692307693
 40
0.8461538461538461
 40
0.8461538461538461
 40
0.8461538461538461
 40
0.8461538461538461
 40
1.0
 40
1.0
 40
1.0
 40
1.0
 10
12.5047
 20
0.1512
 30
0.0
 10
12.2657
 20
0.1512
 30
0.0
 10
12.0733
 20
0.1757
 30
0.0
 10
11.928
 20
0.2251
 30
0.0
 10
11.928
 20
0.2251
 30
0.0
 10
11.7822
 20
0.274
 30
0.0
 10
11.6698
 20
0.3474
 30
0.0
 10
11.5907
 20
0.4443
 30
0.0
 10
11.5907
 20
0.4443
 30
0.0
 10
11.5117
 20
0.5412
 30
0.0
 10
11.4722
 20
0.663
 30
0.0
 10
11.4722
 20
0.8097
 30
0.0
 10
11.4722
 20
0.8097
 30
0.0
 10
11.4722
 20
0.9184
 30
0.0
 10
11.4943
 20
1.0134
 30
0.0
 10
11.5381
 20
1.0952
 30
0.0
 10
11.5381
 20
1.0952
 30
0.0
 10
11.5813
 20
1.1771
 30
0.0
 10
11.6444
 20
1.2444
 30
0.0
 10
11.7267
 20
1.298
 30
0.0
 10
11.7267
 20
1.298
 30
0.0
 10
11.809
 20
1.3511
 30
0.0
 10
11.9092
 20
1.393
 30
0.0
 10
12.0272
 20
1.4231
 30
0.0
 10
12.0272
 20
1.4231
 30
0.0
 10
12.1453
 20
1.4537
 30
0.0
 10
12.3043
 20
1.4687
 30
0.0
 10
12.5047
 20
1.4687
 30
0.0
 10
12.5047
 20
1.4687
 30
0.0
 10
12.7417
 20
1.4687
 30
0.0
 10
12.9327
 20
1.4443
 30
0.0
 10
13.0785
 20
1.3958
 30
0.0
 10
13.0785
 20
1.3958
 30
0.0
 10
13.2243
 20
1.3469
 30
0.0
 10
13.3367
 20
1.274
 30
0.0
 10
13.4162
 20
1.1771
 30
0.0
 10
13.4162
 20
1.1771
 30
0.0
 10
13.4957
 20
1.0802
 30
0.0
 10
13.5352
 20
0.9579
 30
0.0
 10
13.5352
 20
0.8097
 30
0.0
 10
13.5352
 20
0.8097
 30
0.0
 10
13.5352
 20
0.615
 30
0.0
 10
13.4656
 20
0.4621
 30
0.0
 10
13.3259
 20
0.3511
 30
0.0
 10
13.3259
 20
0.3511
 30
0.0
 10
13.158
 20
0.218
 30
0.0
 10
12.8838
 20
0.1512
 30
0.0
 10
12.5047
 20
0.1512
 30
0.0
  0
SPLINE
  5
74
330
1F
100
AcDbEntity
  8
AXIS
 62
   250
100
AcDbSpline
210
0.0
220
0.0
230
1.0
 70
    11
 71
     3
 72
    36
 73
    32
 74
     0
 42
0.0000000001
 43
0.0000000001
 40
0.0
 40
0.0
 40
0.0
 40
0.0
 40
0.1111111111111111
 40
0.1111111111111111
 40
0.1111111111111111
 40
0.1111111111111111
 40
0.2222222222222222
 40
0.2222222222222222
 40
0.2222222222222222
 40
0.2222222222222222
 40
0.3333333333333333
 40
0.3333333333333333
 40
0.3333333333333333
 40
0.3333333333333333
 40
0.4444444444444444
 40
0.4444444444444444
 40
0.4444444444444444
 40
0.4444444444444444
 40
0.5555555555555556
 40
0.5555555555555556
 40
0.5555555555555556
 40
0.5555555555555556
 40
0.6666666666666666
 40
0.6666666666666666
 40
0.6666666666666666
 40
0.6666666666666666
 40
0.7777777777777778
 40
0.7777777777777778
 40
0.7777777777777778
 40
0.7777777777777778
 40
1.0
 40
1.0
 40
1.0
 40
1.0
 10
12.5047
 20
0.4062
 30
0.0
 10
12.8363
 20
0.4062
 30
0.0
 10
13.0569
 20
0.4452
 30
0.0
 10
13.1669
 20
0.5228
 30
0.0
 10
13.1669
 20
0.5228
 30
0.0
 10
13.2765
 20
0.6004
 30
0.0
 10
13.3316
 20
0.6959
 30
0.0
 10
13.3316
 20
0.8097
 30
0.0
 10
13.3316
 20
0.8097
 30
0.0
 10
13.3316
 20
0.924
 30
0.0
 10
13.2761
 20
1.0195
 30
0.0
 10
13.166
 20
1.0971
 30
0.0
 10
13.166
 20
1.0971
 30
0.0
 10
13.0559
 20
1.1747
 30
0.0
 10
12.8353
 20
1.2138
 30
0.0
 10
12.5047
 20
1.2138
 30
0.0
 10
12.5047
 20
1.2138
 30
0.0
 10
12.1721
 20
1.2138
 30
0.0
 10
11.951
 20
1.1747
 30
0.0
 10
11.8419
 20
1.0971
 30
0.0
 10
11.8419
 20
1.0971
 30
0.0
 10
11.7323
 20
1.0195
 30
0.0
 10
11.6778
 20
0.9231
 30
0.0
 10
11.6778
 20
0.8074
 30
0.0
 10
11.6778
 20
0.8074
 30
0.0
 10
11.6778
 20
0.6931
 30
0.0
 10
11.7262
 20
0.6023
 30
0.0
 10
11.8226
 20
0.5341
 30
0.0
 10
11.8226
 20
0.5341
 30
0.0
 10
11.9454
 20
0.449
 30
0.0
 10
12.1731
 20
0.4062
 30
0.0
 10
12.5047
 20
0.4062
 30
0.0
  0
SPLINE
  5
75
330
1F
100
AcDbEntity
  8
AXIS
 62
   250
100
AcDbSpline
210
0.0
220
0.0
230
1.0
 70
     8
 71
     3
 72
     8
 73
     4
 74
     0
 42
0.0000000001
 43
0.0000000001
 40
0.0
 40
0.0
 40
0.0
 40
0.0
 40
1.0
 40
1.0
 40
1.0
 40
1.0
 10
3.8945
 20
7.7198
 30
0.0
 10
3.8122
 20
7.7561
 30
0.0
 10
3.7156
 20
7.7198
 30
0.0
 10
3.6774
 20
7.638
 30
0.0
  0
SPLINE
  5
76
330
1F
100
AcDbEntity
  8
AXIS
 62
   250
100
AcDbSpline
210
0.0
220
0.0
230
1.0
 70
     8
 71
     3
 72
    20
 73
    16
 74
     0
 42
0.0000000001
 43
0.0000000001
 40
0.0
 40
0.0
 40
0.0
 40
0.0
 40
0.2
 40
0.2
 40
0.2
 40
0.2
 40
0.4
 40
0.4
 40
0.4
 40
0.4
 40
0.6
 40
0.6
 40
0.6
 40
0.6
 40
1.0
 40
1.0
 40
1.0
 40
1.0
 10
-24.3746
 20
-13.396
 30
0.0
 10
-24.3746
 20
-13.396
 30
0.0
 10
-24.3682
 20
-13.2798
 30
0.0
 10
-24.3682
 20
-13.2798
 30
0.0
 10
-24.3682
 20
-13.2798
 30
0.0
 10
-24.3682
 20
-13.2798
 30
0.0
 10
-24.3548
 20
-12.9655
 30
0.0
 10
-24.3548
 20
-12.9655
 30
0.0
 10
-24.3548
 20
-12.9655
 30
0.0
 10
-24.3548
 20
-12.9655
 30
0.0
 10
-24.3462
 20
-12.6079
 30
0.0
 10
-24.3462
 20
-12.6079
 30
0.0
 10
-24.3462
 20
-12.6079
 30
0.0
 10
-24.3462
 20
-12.6079
 30
0.0
 10
-24.3407
 20
-12.2223
 30
0.0
 10
-24.3407
 20
-12.2223
 30
0.0
  0
SPLINE
  5
77
330
1F
100
AcDbEntity
  8
AXIS
 62
   250
100
AcDbSpline
210
0.0
220
0.0
230
1.0
 70
     8
 71
     3
 72
    20
 73
    16
 74
     0
 42
0.0000000001
 43
0.0000000001
 40
0.0
 40
0.0
 40
0.0
 40
0.0
 40
0.2
 40
0.2
 40
0.2
 40
0.2
 40
0.4
 40
0.4
 40
0.4
 40
0.4
 40
0.6
 40
0.6
 40
0.6
 40
0.6
 40
1.0
 40
1.0
 40
1.0
 40
1.0
 10
-24.4413
 20
-13.8912
 30
0.0
 10
-24.4413
 20
-13.8912
 30
0.0
 10
-24.4209
 20
-13.8509
 30
0.0
 10
-24.4209
 20
-13.8509
 30
0.0
 10
-24.4209
 20
-13.8509
 30
0.0
 10
-24.4209
 20
-13.8509
 30
0.0
 10
-24.4017
 20
-13.731
 30
0.0
 10
-24.4017
 20
-13.731
 30
0.0
 10
-24.4017
 20
-13.731
 30
0.0
 10
-24.4017
 20
-13.731
 30
0.0
 10
-24.3835
 20
-13.538
 30
0.0
 10
-24.3835
 20
-13.538
 30
0.0
 10
-24.3835
 20
-13.538
 30
0.0
 10
-24.3835
 20
-13.538
 30
0.0
 10
-24.3746
 20
-13.396
 30
0.0
 10
-24.3746
 20
-13.396
 30
0.0
  0
SPLINE
  5
78
330
1F
100
AcDbEntity
  8
AXIS
 62
   250
100
AcDbSpline
210
0.0
220
0.0
230
1.0
 70
     8
 71
     3
 72
    24
 73
    20
 74
     0
 42
0.0000000001
 43
0.0000000001
 40
0.0
 40
0.0
 40
0.0
 40
0.0
 40
0.1666666666666667
 40
0.1666666666666667
 40
0.1666666666666667
 40
0.1666666666666667
 40
0.3333333333333333
 40
0.3333333333333333
 40
0.3333333333333333
 40
0.3333333333333333
 40
0.5
 40
0.5
 40
0.5
 40
0.5
 40
0.6666666666666666
 40
0.6666666666666666
 40
0.6666666666666666
 40
0.6666666666666666
 40
1.0
 40
1.0
 40
1.0
 40
1.0
 10
-24.3407
 20
-12.2223
 30
0.0
 10
-24.3407
 20
-12.2223
 30
0.0
 10
-24.2863
 20
-7.3137
 30
0.0
 10
-24.2863
 20
-7.3137
 30
0.0
 10
-24.2863
 20
-7.3137
 30
0.0
 10
-24.2863
 20
-7.3137
 30
0.0
 10
-24.2633
 20
-2.3701
 30
0.0
 10
-24.2633
 20
-2.3701
 30
0.0
 10
-24.2633
 20
-2.3701
 30
0.0
 10
-24.2633
 20
-2.3701
 30
0.0
 10
-24.2714
 20
2.5814
 30
0.0
 10
-24.2714
 20
2.5814
 30
0.0
 10
-24.2714
 20
2.5814
 30
0.0
 10
-24.2714
 20
2.5814
 30
0.0
 10
-24.3125
 20
7.5106
 30
0.0
 10
-24.3125
 20
7.5106
 30
0.0
 10
-24.3125
 20
7.5106
 30
0.0
 10
-24.3125
 20
7.5106
 30
0.0
 10
-24.3841
 20
12.3886
 30
0.0
 10
-24.3841
 20
12.3886
 30
0.0
  0
SPLINE
  5
79
330
1F
100
AcDbEntity
  8
AXIS
 62
   250
100
AcDbSpline
210
0.0
220
0.0
230
1.0
 70
     8
 71
     3
 72
    12
 73
     8
 74
     0
 42
0.0000000001
 43
0.0000000001
 40
0.0
 40
0.0
 40
0.0
 40
0.0
 40
0.3333333333333333
 40
0.3333333333333333
 40
0.3333333333333333
 40
0.3333333333333333
 40
1.0
 40
1.0
 40
1.0
 40
1.0
 10
-24.4192
 20
13.4674
 30
0.0
 10
-24.4192
 20
13.4674
 30
0.0
 10
-24.4301
 20
13.5514
 30
0.0
 10
-24.4301
 20
13.5514
 30
0.0
 10
-24.4301
 20
13.5514
 30
0.0
 10
-24.4301
 20
13.5514
 30
0.0
 10
-24.4413
 20
13.5798
 30
0.0
 10
-24.4413
 20
13.5798
 30
0.0
  0
SPLINE
  5
7A
330
1F
100
AcDbEntity
  8
AXIS
 62
   250
100
AcDbSpline
210
0.0
220
0.0
230
1.0
 70
     8
 71
     3
 72
    16
 73
    12
 74
     0
 42
0.0000000001
 43
0.0000000001
 40
0.0
 40
0.0
 40
0.0
 40
0.0
 40
0.25
 40
0.25
 40
0.25
 40
0.25
 40
0.5
 40
0.5
 40
0.5
 40
0.5
 40
1.0
 40
1.0
 40
1.0
 40
1.0
 10
-24.398
 20
13.0823
 30
0.0
 10
-24.398
 20
13.0823
 30
0.0
 10
-24.3998
 20
13.147
 30
0.0
 10
-24.3998
 20
13.147
 30
0.0
 10
-24.3998
 20
13.147
 30
0.0
 10
-24.3998
 20
13.147
 30
0.0
 10
-24.4091
 20
13.3313
 30
0.0
 10
-24.4091
 20
13.3313
 30
0.0
 10
-24.4091
 20
13.3313
 30
0.0
 10
-24.4091
 20
13.3313
 30
0.0
 10
-24.4192
 20
13.4674
 30
0.0
 10
-24.4192
 20
13.4674
 30
0.0
  0
SPLINE
  5
7B
330
1F
100
AcDbEntity
  8
AXIS
 62
   250
100
AcDbSpline
210
0.0
220
0.0
230
1.0
 70
     8
 71
     3
 72
    16
 73
    12
 74
     0
 42
0.0000000001
 43
0.0000000001
 40
0.0
 40
0.0
 40
0.0
 40
0.0
 40
0.25
 40
0.25
 40
0.25
 40
0.25
 40
0.5
 40
0.5
 40
0.5
 40
0.5
 40
1.0
 40
1.0
 40
1.0
 40
1.0
 10
-24.3841
 20
12.3886
 30
0.0
 10
-24.3841
 20
12.3886
 30
0.0
 10
-24.3876
 20
12.6666
 30
0.0
 10
-24.3876
 20
12.6666
 30
0.0
 10
-24.3876
 20
12.6666
 30
0.0
 10
-24.3876
 20
12.6666
 30
0.0
 10
-24.3929
 20
12.9224
 30
0.0
 10
-24.3929
 20
12.9224
 30
0.0
 10
-24.3929
 20
12.9224
 30
0.0
 10
-24.3929
 20
12.9224
 30
0.0
 10
-24.398
 20
13.0823
 30
0.0
 10
-24.398
 20
13.0823
 30
0.0
  0
SPLINE
  5
7C
330
1F
100
AcDbEntity
  8
AXIS
 62
   250
100
AcDbSpline
210
0.0
220
0.0
230
1.0
 70
     8
 71
     3
 72
    20
 73
    16
 74
     0
 42
0.0000000001
 43
0.0000000001
 40
0.0
 40
0.0
 40
0.0
 40
0.0
 40
0.2
 40
0.2
 40
0.2
 40
0.2
 40
0.4
 40
0.4
 40
0.4
 40
0.4
 40
0.6
 40
0.6
 40
0.6
 40
0.6
 40
1.0
 40
1.0
 40
1.0
 40
1.0
 10
14.944
 20
-13.396
 30
0.0
 10
14.944
 20
-13.396
 30
0.0
 10
14.9532
 20
-13.538
 30
0.0
 10
14.9532
 20
-13.538
 30
0.0
 10
14.9532
 20
-13.538
 30
0.0
 10
14.9532
 20
-13.538
 30
0.0
 10
14.9708
 20
-13.7314
 30
0.0
 10
14.9708
 20
-13.7314
 30
0.0
 10
14.9708
 20
-13.7314
 30
0.0
 10
14.9708
 20
-13.7314
 30
0.0
 10
14.9899
 20
-13.8509
 30
0.0
 10
14.9899
 20
-13.8509
 30
0.0
 10
14.9899
 20
-13.8509
 30
0.0
 10
14.9899
 20
-13.8509
 30
0.0
 10
15.011
 20
-13.8912
 30
0.0
 10
15.011
 20
-13.8912
 30
0.0
  0
SPLINE
  5
7D
330
1F
100
AcDbEntity
  8
AXIS
 62
   250
100
AcDbSpline
210
0.0
220
0.0
230
1.0
 70
     8
 71
     3
 72
    20
 73
    16
 74
     0
 42
0.0000000001
 43
0.0000000001
 40
0.0
 40
0.0
 40
0.0
 40
0.0
 40
0.2
 40
0.2
 40
0.2
 40
0.2
 40
0.4
 40
0.4
 40
0.4
 40
0.4
 40
0.6
 40
0.6
 40
0.6
 40
0.6
 40
1.0
 40
1.0
 40
1.0
 40
1.0
 10
14.9107
 20
-12.2223
 30
0.0
 10
14.9107
 20
-12.2223
 30
0.0
 10
14.9154
 20
-12.6079
 30
0.0
 10
14.9154
 20
-12.6079
 30
0.0
 10
14.9154
 20
-12.6079
 30
0.0
 10
14.9154
 20
-12.6079
 30
0.0
 10
14.9255
 20
-12.9655
 30
0.0
 10
14.9255
 20
-12.9655
 30
0.0
 10
14.9255
 20
-12.9655
 30
0.0
 10
14.9255
 20
-12.9655
 30
0.0
 10
14.9373
 20
-13.2798
 30
0.0
 10
14.9373
 20
-13.2798
 30
0.0
 10
14.9373
 20
-13.2798
 30
0.0
 10
14.9373
 20
-13.2798
 30
0.0
 10
14.944
 20
-13.396
 30
0.0
 10
14.944
 20
-13.396
 30
0.0
  0
SPLINE
  5
7E
330
1F
100
AcDbEntity
  8
AXIS
 62
   250
100
AcDbSpline
210
0.0
220
0.0
230
1.0
 70
     8
 71
     3
 72
    24
 73
    20
 74
     0
 42
0.0000000001
 43
0.0000000001
 40
0.0
 40
0.0
 40
0.0
 40
0.0
 40
0.1666666666666667
 40
0.1666666666666667
 40
0.1666666666666667
 40
0.1666666666666667
 40
0.3333333333333333
 40
0.3333333333333333
 40
0.3333333333333333
 40
0.3333333333333333
 40
0.5
 40
0.5
 40
0.5
 40
0.5
 40
0.6666666666666666
 40
0.6666666666666666
 40
0.6666666666666666
 40
0.6666666666666666
 40
1.0
 40
1.0
 40
1.0
 40
1.0
 10
14.9542
 20
12.3886
 30
0.0
 10
14.9542
 20
12.3886
 30
0.0
 10
14.8818
 20
7.5106
 30
0.0
 10
14.8818
 20
7.5106
 30
0.0
 10
14.8818
 20
7.5106
 30
0.0
 10
14.8818
 20
7.5106
 30
0.0
 10
14.8412
 20
2.5814
 30
0.0
 10
14.8412
 20
2.5814
 30
0.0
 10
14.8412
 20
2.5814
 30
0.0
 10
14.8412
 20
2.5814
 30
0.0
 10
14.8327
 20
-2.3701
 30
0.0
 10
14.8327
 20
-2.3701
 30
0.0
 10
14.8327
 20
-2.3701
 30
0.0
 10
14.8327
 20
-2.3701
 30
0.0
 10
14.8556
 20
-7.3137
 30
0.0
 10
14.8556
 20
-7.3137
 30
0.0
 10
14.8556
 20
-7.3137
 30
0.0
 10
14.8556
 20
-7.3137
 30
0.0
 10
14.9107
 20
-12.2223
 30
0.0
 10
14.9107
 20
-12.2223
 30
0.0
  0
SPLINE
  5
7F
330
1F
100
AcDbEntity
  8
AXIS
 62
   250
100
AcDbSpline
210
0.0
220
0.0
230
1.0
 70
     8
 71
     3
 72
    16
 73
    12
 74
     0
 42
0.0000000001
 43
0.0000000001
 40
0.0
 40
0.0
 40
0.0
 40
0.0
 40
0.25
 40
0.25
 40
0.25
 40
0.25
 40
0.5
 40
0.5
 40
0.5
 40
0.5
 40
1.0
 40
1.0
 40
1.0
 40
1.0
 10
14.9676
 20
13.0823
 30
0.0
 10
14.9676
 20
13.0823
 30
0.0
 10
14.9649
 20
13.0014
 30
0.0
 10
14.9649
 20
13.0014
 30
0.0
 10
14.9649
 20
13.0014
 30
0.0
 10
14.9649
 20
13.0014
 30
0.0
 10
14.9582
 20
12.711
 30
0.0
 10
14.9582
 20
12.711
 30
0.0
 10
14.9582
 20
12.711
 30
0.0
 10
14.9582
 20
12.711
 30
0.0
 10
14.9542
 20
12.3886
 30
0.0
 10
14.9542
 20
12.3886
 30
0.0
  0
SPLINE
  5
80
330
1F
100
AcDbEntity
  8
AXIS
 62
   250
100
AcDbSpline
210
0.0
220
0.0
230
1.0
 70
     8
 71
     3
 72
    16
 73
    12
 74
     0
 42
0.0000000001
 43
0.0000000001
 40
0.0
 40
0.0
 40
0.0
 40
0.0
 40
0.25
 40
0.25
 40
0.25
 40
0.25
 40
0.5
 40
0.5
 40
0.5
 40
0.5
 40
1.0
 40
1.0
 40
1.0
 40
1.0
 10
14.9981
 20
13.5415
 30
0.0
 10
14.9981
 20
13.5415
 30
0.0
 10
14.9853
 20
13.4278
 30
0.0
 10
14.9853
 20
13.4278
 30
0.0
 10
14.9853
 20
13.4278
 30
0.0
 10
14.9853
 20
13.4278
 30
0.0
 10
14.974
 20
13.2441
 30
0.0
 10
14.974
 20
13.2441
 30
0.0
 10
14.974
 20
13.2441
 30
0.0
 10
14.974
 20
13.2441
 30
0.0
 10
14.9676
 20
13.0823
 30
0.0
 10
14.9676
 20
13.0823
 30
0.0
  0
SPLINE
  5
81
330
1F
100
AcDbEntity
  8
AXIS
 62
   250
100
AcDbSpline
210
0.0
220
0.0
230
1.0
 70
    24
 71
     3
 72
     8
 73
     4
 74
     0
 42
0.0000000001
 43
0.0000000001
 40
0.0
 40
0.0
 40
0.0
 40
0.0
 40
1.0
 40
1.0
 40
1.0
 40
1.0
 10
15.0113
 20
13.5798
 30
0.0
 10
15.0113
 20
13.5798
 30
0.0
 10
14.9981
 20
13.5415
 30
0.0
 10
14.9981
 20
13.5415
 30
0.0
  0
SPLINE
  5
82
330
1F
100
AcDbEntity
  8
AXIS
 62
   250
100
AcDbSpline
210
0.0
220
0.0
230
1.0
 70
     8
 71
     3
 72
    28
 73
    24
 74
     0
 42
0.0000000001
 43
0.0000000001
 40
0.0
 40
0.0
 40
0.0
 40
0.0
 40
0.1428571428571428
 40
0.1428571428571428
 40
0.1428571428571428
 40
0.1428571428571428
 40
0.2857142857142857
 40
0.2857142857142857
 40
0.2857142857142857
 40
0.2857142857142857
 40
0.4285714285714285
 40
0.4285714285714285
 40
0.4285714285714285
 40
0.4285714285714285
 40
0.5714285714285714
 40
0.5714285714285714
 40
0.5714285714285714
 40
0.5714285714285714
 40
0.7142857142857143
 40
0.7142857142857143
 40
0.7142857142857143
 40
0.7142857142857143
 40
1.0
 40
1.0
 40
1.0
 40
1.0
 10
15.0183
 20
13.5798
 30
0.0
 10
15.0183
 20
13.5798
 30
0.0
 10
15.2243
 20
13.5518
 30
0.0
 10
15.2243
 20
13.5518
 30
0.0
 10
15.2243
 20
13.5518
 30
0.0
 10
15.2243
 20
13.5518
 30
0.0
 10
15.4286
 20
13.4677
 30
0.0
 10
15.4286
 20
13.4677
 30
0.0
 10
15.4286
 20
13.4677
 30
0.0
 10
15.4286
 20
13.4677
 30
0.0
 10
15.601
 20
13.335
 30
0.0
 10
15.601
 20
13.335
 30
0.0
 10
15.601
 20
13.335
 30
0.0
 10
15.601
 20
13.335
 30
0.0
 10
15.7344
 20
13.1616
 30
0.0
 10
15.7344
 20
13.1616
 30
0.0
 10
15.7344
 20
13.1616
 30
0.0
 10
15.7344
 20
13.1616
 30
0.0
 10
15.8187
 20
12.9578
 30
0.0
 10
15.8187
 20
12.9578
 30
0.0
 10
15.8187
 20
12.9578
 30
0.0
 10
15.8187
 20
12.9578
 30
0.0
 10
15.8458
 20
12.7435
 30
0.0
 10
15.8458
 20
12.7435
 30
0.0
  0
SPLINE
  5
83
330
1F
100
AcDbEntity
  8
AXIS
 62
   250
100
AcDbSpline
210
0.0
220
0.0
230
1.0
 70
     8
 71
     3
 72
    28
 73
    24
 74
     0
 42
0.0000000001
 43
0.0000000001
 40
0.0
 40
0.0
 40
0.0
 40
0.0
 40
0.1428571428571428
 40
0.1428571428571428
 40
0.1428571428571428
 40
0.1428571428571428
 40
0.2857142857142857
 40
0.2857142857142857
 40
0.2857142857142857
 40
0.2857142857142857
 40
0.4285714285714285
 40
0.4285714285714285
 40
0.4285714285714285
 40
0.4285714285714285
 40
0.5714285714285714
 40
0.5714285714285714
 40
0.5714285714285714
 40
0.5714285714285714
 40
0.7142857142857143
 40
0.7142857142857143
 40
0.7142857142857143
 40
0.7142857142857143
 40
1.0
 40
1.0
 40
1.0
 40
1.0
 10
-24.4469
 20
-13.8912
 30
0.0
 10
-24.4469
 20
-13.8912
 30
0.0
 10
-24.6547
 20
-13.8635
 30
0.0
 10
-24.6547
 20
-13.8635
 30
0.0
 10
-24.6547
 20
-13.8635
 30
0.0
 10
-24.6547
 20
-13.8635
 30
0.0
 10
-24.8596
 20
-13.779
 30
0.0
 10
-24.8596
 20
-13.779
 30
0.0
 10
-24.8596
 20
-13.779
 30
0.0
 10
-24.8596
 20
-13.779
 30
0.0
 10
-25.0327
 20
-13.6463
 30
0.0
 10
-25.0327
 20
-13.6463
 30
0.0
 10
-25.0327
 20
-13.6463
 30
0.0
 10
-25.0327
 20
-13.6463
 30
0.0
 10
-25.165
 20
-13.4738
 30
0.0
 10
-25.165
 20
-13.4738
 30
0.0
 10
-25.165
 20
-13.4738
 30
0.0
 10
-25.165
 20
-13.4738
 30
0.0
 10
-25.249
 20
-13.2694
 30
0.0
 10
-25.249
 20
-13.2694
 30
0.0
 10
-25.249
 20
-13.2694
 30
0.0
 10
-25.249
 20
-13.2694
 30
0.0
 10
-25.277
 20
-13.0564
 30
0.0
 10
-25.277
 20
-13.0564
 30
0.0
  0
SPLINE
  5
84
330
1F
100
AcDbEntity
  8
AXIS
 62
   250
100
AcDbSpline
210
0.0
220
0.0
230
1.0
 70
     8
 71
     3
 72
    28
 73
    24
 74
     0
 42
0.0000000001
 43
0.0000000001
 40
0.0
 40
0.0
 40
0.0
 40
0.0
 40
0.1428571428571428
 40
0.1428571428571428
 40
0.1428571428571428
 40
0.1428571428571428
 40
0.2857142857142857
 40
0.2857142857142857
 40
0.2857142857142857
 40
0.2857142857142857
 40
0.4285714285714285
 40
0.4285714285714285
 40
0.4285714285714285
 40
0.4285714285714285
 40
0.5714285714285714
 40
0.5714285714285714
 40
0.5714285714285714
 40
0.5714285714285714
 40
0.7142857142857143
 40
0.7142857142857143
 40
0.7142857142857143
 40
0.7142857142857143
 40
1.0
 40
1.0
 40
1.0
 40
1.0
 10
-25.277
 20
12.7435
 30
0.0
 10
-25.277
 20
12.7435
 30
0.0
 10
-25.249
 20
12.9578
 30
0.0
 10
-25.249
 20
12.9578
 30
0.0
 10
-25.249
 20
12.9578
 30
0.0
 10
-25.249
 20
12.9578
 30
0.0
 10
-25.1649
 20
13.1616
 30
0.0
 10
-25.1649
 20
13.1616
 30
0.0
 10
-25.1649
 20
13.1616
 30
0.0
 10
-25.1649
 20
13.1616
 30
0.0
 10
-25.0324
 20
13.335
 30
0.0
 10
-25.0324
 20
13.335
 30
0.0
 10
-25.0324
 20
13.335
 30
0.0
 10
-25.0324
 20
13.335
 30
0.0
 10
-24.859
 20
13.4677
 30
0.0
 10
-24.859
 20
13.4677
 30
0.0
 10
-24.859
 20
13.4677
 30
0.0
 10
-24.859
 20
13.4677
 30
0.0
 10
-24.6547
 20
13.5518
 30
0.0
 10
-24.6547
 20
13.5518
 30
0.0
 10
-24.6547
 20
13.5518
 30
0.0
 10
-24.6547
 20
13.5518
 30
0.0
 10
-24.4491
 20
13.5798
 30
0.0
 10
-24.4491
 20
13.5798
 30
0.0
  0
SPLINE
  5
85
330
1F
100
AcDbEntity
  8
AXIS
 62
   250
100
AcDbSpline
210
0.0
220
0.0
230
1.0
 70
     8
 71
     3
 72
    28
 73
    24
 74
     0
 42
0.0000000001
 43
0.0000000001
 40
0.0
 40
0.0
 40
0.0
 40
0.0
 40
0.1428571428571428
 40
0.1428571428571428
 40
0.1428571428571428
 40
0.1428571428571428
 40
0.2857142857142857
 40
0.2857142857142857
 40
0.2857142857142857
 40
0.2857142857142857
 40
0.4285714285714285
 40
0.4285714285714285
 40
0.4285714285714285
 40
0.4285714285714285
 40
0.5714285714285714
 40
0.5714285714285714
 40
0.5714285714285714
 40
0.5714285714285714
 40
0.7142857142857143
 40
0.7142857142857143
 40
0.7142857142857143
 40
0.7142857142857143
 40
1.0
 40
1.0
 40
1.0
 40
1.0
 10
15.8458
 20
-13.0564
 30
0.0
 10
15.8458
 20
-13.0564
 30
0.0
 10
15.8187
 20
-13.2694
 30
0.0
 10
15.8187
 20
-13.2694
 30
0.0
 10
15.8187
 20
-13.2694
 30
0.0
 10
15.8187
 20
-13.2694
 30
0.0
 10
15.7344
 20
-13.4738
 30
0.0
 10
15.7344
 20
-13.4738
 30
0.0
 10
15.7344
 20
-13.4738
 30
0.0
 10
15.7344
 20
-13.4738
 30
0.0
 10
15.6017
 20
-13.6463
 30
0.0
 10
15.6017
 20
-13.6463
 30
0.0
 10
15.6017
 20
-13.6463
 30
0.0
 10
15.6017
 20
-13.6463
 30
0.0
 10
15.429
 20
-13.779
 30
0.0
 10
15.429
 20
-13.779
 30
0.0
 10
15.429
 20
-13.779
 30
0.0
 10
15.429
 20
-13.779
 30
0.0
 10
15.2247
 20
-13.8635
 30
0.0
 10
15.2247
 20
-13.8635
 30
0.0
 10
15.2247
 20
-13.8635
 30
0.0
 10
15.2247
 20
-13.8635
 30
0.0
 10
15.016
 20
-13.8912
 30
0.0
 10
15.016
 20
-13.8912
 30
0.0
  0
SPLINE
  5
86
330
1F
100
AcDbEntity
  8
AXIS
 62
   250
100
AcDbSpline
210
0.0
220
0.0
230
1.0
 70
     8
 71
     3
 72
    48
 73
    44
 74
     0
 42
0.0000000001
 43
0.0000000001
 40
0.0
 40
0.0
 40
0.0
 40
0.0
 40
0.0833333333333333
 40
0.0833333333333333
 40
0.0833333333333333
 40
0.0833333333333333
 40
0.1666666666666667
 40
0.1666666666666667
 40
0.1666666666666667
 40
0.1666666666666667
 40
0.25
 40
0.25
 40
0.25
 40
0.25
 40
0.3333333333333333
 40
0.3333333333333333
 40
0.3333333333333333
 40
0.3333333333333333
 40
0.4166666666666667
 40
0.4166666666666667
 40
0.4166666666666667
 40
0.4166666666666667
 40
0.5
 40
0.5
 40
0.5
 40
0.5
 40
0.5833333333333334
 40
0.5833333333333334
 40
0.5833333333333334
 40
0.5833333333333334
 40
0.6666666666666666
 40
0.6666666666666666
 40
0.6666666666666666
 40
0.6666666666666666
 40
0.75
 40
0.75
 40
0.75
 40
0.75
 40
0.8333333333333334
 40
0.8333333333333334
 40
0.8333333333333334
 40
0.8333333333333334
 40
1.0
 40
1.0
 40
1.0
 40
1.0
 10
-19.8008
 20
1.4343
 30
0.0
 10
-19.8008
 20
1.4343
 30
0.0
 10
-19.6093
 20
2.3172
 30
0.0
 10
-19.6093
 20
2.3172
 30
0.0
 10
-19.6093
 20
2.3172
 30
0.0
 10
-19.6093
 20
2.3172
 30
0.0
 10
-19.2531
 20
3.2441
 30
0.0
 10
-19.2531
 20
3.2441
 30
0.0
 10
-19.2531
 20
3.2441
 30
0.0
 10
-19.2531
 20
3.2441
 30
0.0
 10
-18.6989
 20
4.2092
 30
0.0
 10
-18.6989
 20
4.2092
 30
0.0
 10
-18.6989
 20
4.2092
 30
0.0
 10
-18.6989
 20
4.2092
 30
0.0
 10
-17.9191
 20
5.1942
 30
0.0
 10
-17.9191
 20
5.1942
 30
0.0
 10
-17.9191
 20
5.1942
 30
0.0
 10
-17.9191
 20
5.1942
 30
0.0
 10
-16.8926
 20
6.1674
 30
0.0
 10
-16.8926
 20
6.1674
 30
0.0
 10
-16.8926
 20
6.1674
 30
0.0
 10
-16.8926
 20
6.1674
 30
0.0
 10
-15.6044
 20
7.1008
 30
0.0
 10
-15.6044
 20
7.1008
 30
0.0
 10
-15.6044
 20
7.1008
 30
0.0
 10
-15.6044
 20
7.1008
 30
0.0
 10
-14.034
 20
7.9669
 30
0.0
 10
-14.034
 20
7.9669
 30
0.0
 10
-14.034
 20
7.9669
 30
0.0
 10
-14.034
 20
7.9669
 30
0.0
 10
-12.1627
 20
8.7312
 30
0.0
 10
-12.1627
 20
8.7312
 30
0.0
 10
-12.1627
 20
8.7312
 30
0.0
 10
-12.1627
 20
8.7312
 30
0.0
 10
-9.9661
 20
9.3544
 30
0.0
 10
-9.9661
 20
9.3544
 30
0.0
 10
-9.9661
 20
9.3544
 30
0.0
 10
-9.9661
 20
9.3544
 30
0.0
 10
-7.4427
 20
9.7773
 30
0.0
 10
-7.4427
 20
9.7773
 30
0.0
 10
-7.4427
 20
9.7773
 30
0.0
 10
-7.4427
 20
9.7773
 30
0.0
 10
-4.7203
 20
9.9286
 30
0.0
 10
-4.7203
 20
9.9286
 30
0.0
  0
SPLINE
  5
87
330
1F
100
AcDbEntity
  8
AXIS
 62
   250
100
AcDbSpline
210
0.0
220
0.0
230
1.0
 70
     8
 71
     3
 72
    48
 73
    44
 74
     0
 42
0.0000000001
 43
0.0000000001
 40
0.0
 40
0.0
 40
0.0
 40
0.0
 40
0.0833333333333333
 40
0.0833333333333333
 40
0.0833333333333333
 40
0.0833333333333333
 40
0.1666666666666667
 40
0.1666666666666667
 40
0.1666666666666667
 40
0.1666666666666667
 40
0.25
 40
0.25
 40
0.25
 40
0.25
 40
0.3333333333333333
 40
0.3333333333333333
 40
0.3333333333333333
 40
0.3333333333333333
 40
0.4166666666666667
 40
0.4166666666666667
 40
0.4166666666666667
 40
0.4166666666666667
 40
0.5
 40
0.5
 40
0.5
 40
0.5
 40
0.5833333333333334
 40
0.5833333333333334
 40
0.5833333333333334
 40
0.5833333333333334
 40
0.6666666666666666
 40
0.6666666666666666
 40
0.6666666666666666
 40
0.6666666666666666
 40
0.75
 40
0.75
 40
0.75
 40
0.75
 40
0.8333333333333334
 40
0.8333333333333334
 40
0.8333333333333334
 40
0.8333333333333334
 40
1.0
 40
1.0
 40
1.0
 40
1.0
 10
-4.7203
 20
9.9286
 30
0.0
 10
-4.7203
 20
9.9286
 30
0.0
 10
-1.9957
 20
9.7769
 30
0.0
 10
-1.9957
 20
9.7769
 30
0.0
 10
-1.9957
 20
9.7769
 30
0.0
 10
-1.9957
 20
9.7769
 30
0.0
 10
0.5276
 20
9.3537
 30
0.0
 10
0.5276
 20
9.3537
 30
0.0
 10
0.5276
 20
9.3537
 30
0.0
 10
0.5276
 20
9.3537
 30
0.0
 10
2.7235
 20
8.7303
 30
0.0
 10
2.7235
 20
8.7303
 30
0.0
 10
2.7235
 20
8.7303
 30
0.0
 10
2.7235
 20
8.7303
 30
0.0
 10
4.5944
 20
7.9664
 30
0.0
 10
4.5944
 20
7.9664
 30
0.0
 10
4.5944
 20
7.9664
 30
0.0
 10
4.5944
 20
7.9664
 30
0.0
 10
6.1637
 20
7.1005
 30
0.0
 10
6.1637
 20
7.1005
 30
0.0
 10
6.1637
 20
7.1005
 30
0.0
 10
6.1637
 20
7.1005
 30
0.0
 10
7.4528
 20
6.1668
 30
0.0
 10
7.4528
 20
6.1668
 30
0.0
 10
7.4528
 20
6.1668
 30
0.0
 10
7.4528
 20
6.1668
 30
0.0
 10
8.4788
 20
5.1935
 30
0.0
 10
8.4788
 20
5.1935
 30
0.0
 10
8.4788
 20
5.1935
 30
0.0
 10
8.4788
 20
5.1935
 30
0.0
 10
9.2584
 20
4.2089
 30
0.0
 10
9.2584
 20
4.2089
 30
0.0
 10
9.2584
 20
4.2089
 30
0.0
 10
9.2584
 20
4.2089
 30
0.0
 10
9.812
 20
3.2422
 30
0.0
 10
9.812
 20
3.2422
 30
0.0
 10
9.812
 20
3.2422
 30
0.0
 10
9.812
 20
3.2422
 30
0.0
 10
10.1683
 20
2.3162
 30
0.0
 10
10.1683
 20
2.3162
 30
0.0
 10
10.1683
 20
2.3162
 30
0.0
 10
10.1683
 20
2.3162
 30
0.0
 10
10.3604
 20
1.4348
 30
0.0
 10
10.3604
 20
1.4348
 30
0.0
  0
SPLINE
  5
88
330
1F
100
AcDbEntity
  8
AXIS
 62
   250
100
AcDbSpline
210
0.0
220
0.0
230
1.0
 70
     8
 71
     3
 72
    12
 73
     8
 74
     0
 42
0.0000000001
 43
0.0000000001
 40
0.0
 40
0.0
 40
0.0
 40
0.0
 40
0.3333333333333333
 40
0.3333333333333333
 40
0.3333333333333333
 40
0.3333333333333333
 40
1.0
 40
1.0
 40
1.0
 40
1.0
 10
-19.8905
 20
0.6439
 30
0.0
 10
-19.8905
 20
0.6439
 30
0.0
 10
-19.861
 20
1.0392
 30
0.0
 10
-19.861
 20
1.0392
 30
0.0
 10
-19.861
 20
1.0392
 30
0.0
 10
-19.861
 20
1.0392
 30
0.0
 10
-19.8008
 20
1.4343
 30
0.0
 10
-19.8008
 20
1.4343
 30
0.0
  0
SPLINE
  5
89
330
1F
100
AcDbEntity
  8
AXIS
 62
   250
100
AcDbSpline
210
0.0
220
0.0
230
1.0
 70
     8
 71
     3
 72
   128
 73
   124
 74
     0
 42
0.0000000001
 43
0.0000000001
 40
0.0
 40
0.0
 40
0.0
 40
0.0
 40
0.03125
 40
0.03125
 40
0.03125
 40
0.03125
 40
0.0625
 40
0.0625
 40
0.0625
 40
0.0625
 40
0.09375
 40
0.09375
 40
0.09375
 40
0.09375
 40
0.125
 40
0.125
 40
0.125
 40
0.125
 40
0.15625
 40
0.15625
 40
0.15625
 40
0.15625
 40
0.1875
 40
0.1875
 40
0.1875
 40
0.1875
 40
0.21875
 40
0.21875
 40
0.21875
 40
0.21875
 40
0.25
 40
0.25
 40
0.25
 40
0.25
 40
0.28125
 40
0.28125
 40
0.28125
 40
0.28125
 40
0.3125
 40
0.3125
 40
0.3125
 40
0.3125
 40
0.34375
 40
0.34375
 40
0.34375
 40
0.34375
 40
0.375
 40
0.375
 40
0.375
 40
0.375
 40
0.40625
 40
0.40625
 40
0.40625
 40
0.40625
 40
0.4375
 40
0.4375
 40
0.4375
 40
0.4375
 40
0.46875
 40
0.46875
 40
0.46875
 40
0.46875
 40
0.5
 40
0.5
 40
0.5
 40
0.5
 40
0.53125
 40
0.53125
 40
0.53125
 40
0.53125
 40
0.5625
 40
0.5625
 40
0.5625
 40
0.5625
 40
0.59375
 40
0.59375
 40
0.59375
 40
0.59375
 40
0.625
 40
0.625
 40
0.625
 40
0.625
 40
0.65625
 40
0.65625
 40
0.65625
 40
0.65625
 40
0.6875
 40
0.6875
 40
0.6875
 40
0.6875
 40
0.71875
 40
0.71875
 40
0.71875
 40
0.71875
 40
0.75
 40
0.75
 40
0.75
 40
0.75
 40
0.78125
 40
0.78125
 40
0.78125
 40
0.78125
 40
0.8125
 40
0.8125
 40
0.8125
 40
0.8125
 40
0.84375
 40
0.84375
 40
0.84375
 40
0.84375
 40
0.875
 40
0.875
 40
0.875
 40
0.875
 40
0.90625
 40
0.90625
 40
0.90625
 40
0.90625
 40
0.9375
 40
0.9375
 40
0.9375
 40
0.9375
 40
1.0
 40
1.0
 40
1.0
 40
1.0
 10
10.4503
 20
0.6439
 30
0.0
 10
10.4503
 20
0.6439
 30
0.0
 10
10.3958
 20
-0.57
 30
0.0
 10
10.3958
 20
-0.57
 30
0.0
 10
10.3958
 20
-0.57
 30
0.0
 10
10.3958
 20
-0.57
 30
0.0
 10
10.136
 20
-1.7885
 30
0.0
 10
10.136
 20
-1.7885
 30
0.0
 10
10.136
 20
-1.7885
 30
0.0
 10
10.136
 20
-1.7885
 30
0.0
 10
9.696
 20
-2.9259
 30
0.0
 10
9.696
 20
-2.9259
 30
0.0
 10
9.696
 20
-2.9259
 30
0.0
 10
9.696
 20
-2.9259
 30
0.0
 10
9.1029
 20
-3.9767
 30
0.0
 10
9.1029
 20
-3.9767
 30
0.0
 10
9.1029
 20
-3.9767
 30
0.0
 10
9.1029
 20
-3.9767
 30
0.0
 10
8.3533
 20
-4.9659
 30
0.0
 10
8.3533
 20
-4.9659
 30
0.0
 10
8.3533
 20
-4.9659
 30
0.0
 10
8.3533
 20
-4.9659
 30
0.0
 10
7.5261
 20
-5.8201
 30
0.0
 10
7.5261
 20
-5.8201
 30
0.0
 10
7.5261
 20
-5.8201
 30
0.0
 10
7.5261
 20
-5.8201
 30
0.0
 10
6.6646
 20
-6.5455
 30
0.0
 10
6.6646
 20
-6.5455
 30
0.0
 10
6.6646
 20
-6.5455
 30
0.0
 10
6.6646
 20
-6.5455
 30
0.0
 10
5.7833
 20
-7.1626
 30
0.0
 10
5.7833
 20
-7.1626
 30
0.0
 10
5.7833
 20
-7.1626
 30
0.0
 10
5.7833
 20
-7.1626
 30
0.0
 10
4.8765
 20
-7.6981
 30
0.0
 10
4.8765
 20
-7.6981
 30
0.0
 10
4.8765
 20
-7.6981
 30
0.0
 10
4.8765
 20
-7.6981
 30
0.0
 10
3.8965
 20
-8.1861
 30
0.0
 10
3.8965
 20
-8.1861
 30
0.0
 10
3.8965
 20
-8.1861
 30
0.0
 10
3.8965
 20
-8.1861
 30
0.0
 10
2.778
 20
-8.6477
 30
0.0
 10
2.778
 20
-8.6477
 30
0.0
 10
2.778
 20
-8.6477
 30
0.0
 10
2.778
 20
-8.6477
 30
0.0
 10
1.4727
 20
-9.0814
 30
0.0
 10
1.4727
 20
-9.0814
 30
0.0
 10
1.4727
 20
-9.0814
 30
0.0
 10
1.4727
 20
-9.0814
 30
0.0
 10
-0.0321
 20
-9.4581
 30
0.0
 10
-0.0321
 20
-9.4581
 30
0.0
 10
-0.0321
 20
-9.4581
 30
0.0
 10
-0.0321
 20
-9.4581
 30
0.0
 10
-1.738
 20
-9.7474
 30
0.0
 10
-1.738
 20
-9.7474
 30
0.0
 10
-1.738
 20
-9.7474
 30
0.0
 10
-1.738
 20
-9.7474
 30
0.0
 10
-3.6452
 20
-9.913
 30
0.0
 10
-3.6452
 20
-9.913
 30
0.0
 10
-3.6452
 20
-9.913
 30
0.0
 10
-3.6452
 20
-9.913
 30
0.0
 10
-5.6721
 20
-9.9185
 30
0.0
 10
-5.6721
 20
-9.9185
 30
0.0
 10
-5.6721
 20
-9.9185
 30
0.0
 10
-5.6721
 20
-9.9185
 30
0.0
 10
-7.6059
 20
-9.7595
 30
0.0
 10
-7.6059
 20
-9.7595
 30
0.0
 10
-7.6059
 20
-9.7595
 30
0.0
 10
-7.6059
 20
-9.7595
 30
0.0
 10
-9.344
 20
-9.4716
 30
0.0
 10
-9.344
 20
-9.4716
 30
0.0
 10
-9.344
 20
-9.4716
 30
0.0
 10
-9.344
 20
-9.4716
 30
0.0
 10
-10.8683
 20
-9.0938
 30
0.0
 10
-10.8683
 20
-9.0938
 30
0.0
 10
-10.8683
 20
-9.0938
 30
0.0
 10
-10.8683
 20
-9.0938
 30
0.0
 10
-12.1864
 20
-8.6603
 30
0.0
 10
-12.1864
 20
-8.6603
 30
0.0
 10
-12.1864
 20
-8.6603
 30
0.0
 10
-12.1864
 20
-8.6603
 30
0.0
 10
-13.3141
 20
-8.1969
 30
0.0
 10
-13.3141
 20
-8.1969
 30
0.0
 10
-13.3141
 20
-8.1969
 30
0.0
 10
-13.3141
 20
-8.1969
 30
0.0
 10
-14.3037
 20
-7.7056
 30
0.0
 10
-14.3037
 20
-7.7056
 30
0.0
 10
-14.3037
 20
-7.7056
 30
0.0
 10
-14.3037
 20
-7.7056
 30
0.0
 10
-15.2189
 20
-7.1649
 30
0.0
 10
-15.2189
 20
-7.1649
 30
0.0
 10
-15.2189
 20
-7.1649
 30
0.0
 10
-15.2189
 20
-7.1649
 30
0.0
 10
-16.1103
 20
-6.5418
 30
0.0
 10
-16.1103
 20
-6.5418
 30
0.0
 10
-16.1103
 20
-6.5418
 30
0.0
 10
-16.1103
 20
-6.5418
 30
0.0
 10
-16.9786
 20
-5.8106
 30
0.0
 10
-16.9786
 20
-5.8106
 30
0.0
 10
-16.9786
 20
-5.8106
 30
0.0
 10
-16.9786
 20
-5.8106
 30
0.0
 10
-17.8076
 20
-4.9496
 30
0.0
 10
-17.8076
 20
-4.9496
 30
0.0
 10
-17.8076
 20
-4.9496
 30
0.0
 10
-17.8076
 20
-4.9496
 30
0.0
 10
-18.5541
 20
-3.9603
 30
0.0
 10
-18.5541
 20
-3.9603
 30
0.0
 10
-18.5541
 20
-3.9603
 30
0.0
 10
-18.5541
 20
-3.9603
 30
0.0
 10
-19.1421
 20
-2.9164
 30
0.0
 10
-19.1421
 20
-2.9164
 30
0.0
 10
-19.1421
 20
-2.9164
 30
0.0
 10
-19.1421
 20
-2.9164
 30
0.0
 10
-19.5773
 20
-1.7871
 30
0.0
 10
-19.5773
 20
-1.7871
 30
0.0
 10
-19.5773
 20
-1.7871
 30
0.0
 10
-19.5773
 20
-1.7871
 30
0.0
 10
-19.8368
 20
-0.57
 30
0.0
 10
-19.8368
 20
-0.57
 30
0.0
 10
-19.8368
 20
-0.57
 30
0.0
 10
-19.8368
 20
-0.57
 30
0.0
 10
-19.8905
 20
0.6439
 30
0.0
 10
-19.8905
 20
0.6439
 30
0.0
  0
SPLINE
  5
8A
330
1F
100
AcDbEntity
  8
AXIS
 62
   250
100
AcDbSpline
210
0.0
220
0.0
230
1.0
 70
     8
 71
     3
 72
    12
 73
     8
 74
     0
 42
0.0000000001
 43
0.0000000001
 40
0.0
 40
0.0
 40
0.0
 40
0.0
 40
0.3333333333333333
 40
0.3333333333333333
 40
0.3333333333333333
 40
0.3333333333333333
 40
1.0
 40
1.0
 40
1.0
 40
1.0
 10
10.3604
 20
1.4348
 30
0.0
 10
10.3604
 20
1.4348
 30
0.0
 10
10.4198
 20
1.0392
 30
0.0
 10
10.4198
 20
1.0392
 30
0.0
 10
10.4198
 20
1.0392
 30
0.0
 10
10.4198
 20
1.0392
 30
0.0
 10
10.4503
 20
0.6439
 30
0.0
 10
10.4503
 20
0.6439
 30
0.0
  0
SPLINE
  5
8B
330
1F
100
AcDbEntity
  8
AXIS
 62
   250
100
AcDbSpline
210
0.0
220
0.0
230
1.0
 70
    24
 71
     3
 72
     8
 73
     4
 74
     0
 42
0.0000000001
 43
0.0000000001
 40
0.0
 40
0.0
 40
0.0
 40
0.0
 40
1.0
 40
1.0
 40
1.0
 40
1.0
 10
-19.6893
 20
0.6421
 30
0.0
 10
-19.6893
 20
0.6421
 30
0.0
 10
-19.7958
 20
1.4168
 30
0.0
 10
-19.7958
 20
1.4168
 30
0.0
  0
SPLINE
  5
8C
330
1F
100
AcDbEntity
  8
AXIS
 62
   250
100
AcDbSpline
210
0.0
220
0.0
230
1.0
 70
     8
 71
     3
 72
    36
 73
    32
 74
     0
 42
0.0000000001
 43
0.0000000001
 40
0.0
 40
0.0
 40
0.0
 40
0.0
 40
0.1111111111111111
 40
0.1111111111111111
 40
0.1111111111111111
 40
0.1111111111111111
 40
0.2222222222222222
 40
0.2222222222222222
 40
0.2222222222222222
 40
0.2222222222222222
 40
0.3333333333333333
 40
0.3333333333333333
 40
0.3333333333333333
 40
0.3333333333333333
 40
0.4444444444444444
 40
0.4444444444444444
 40
0.4444444444444444
 40
0.4444444444444444
 40
0.5555555555555556
 40
0.5555555555555556
 40
0.5555555555555556
 40
0.5555555555555556
 40
0.6666666666666666
 40
0.6666666666666666
 40
0.6666666666666666
 40
0.6666666666666666
 40
0.7777777777777778
 40
0.7777777777777778
 40
0.7777777777777778
 40
0.7777777777777778
 40
1.0
 40
1.0
 40
1.0
 40
1.0
 10
-4.7203
 20
-8.4544
 30
0.0
 10
-4.7203
 20
-8.4544
 30
0.0
 10
-7.6406
 20
-8.28
 30
0.0
 10
-7.6406
 20
-8.28
 30
0.0
 10
-7.6406
 20
-8.28
 30
0.0
 10
-7.6406
 20
-8.28
 30
0.0
 10
-10.4488
 20
-7.7619
 30
0.0
 10
-10.4488
 20
-7.7619
 30
0.0
 10
-10.4488
 20
-7.7619
 30
0.0
 10
-10.4488
 20
-7.7619
 30
0.0
 10
-13.0366
 20
-6.9208
 30
0.0
 10
-13.0366
 20
-6.9208
 30
0.0
 10
-13.0366
 20
-6.9208
 30
0.0
 10
-13.0366
 20
-6.9208
 30
0.0
 10
-15.3054
 20
-5.79
 30
0.0
 10
-15.3054
 20
-5.79
 30
0.0
 10
-15.3054
 20
-5.79
 30
0.0
 10
-15.3054
 20
-5.79
 30
0.0
 10
-17.1669
 20
-4.4116
 30
0.0
 10
-17.1669
 20
-4.4116
 30
0.0
 10
-17.1669
 20
-4.4116
 30
0.0
 10
-17.1669
 20
-4.4116
 30
0.0
 10
-18.5496
 20
-2.8393
 30
0.0
 10
-18.5496
 20
-2.8393
 30
0.0
 10
-18.5496
 20
-2.8393
 30
0.0
 10
-18.5496
 20
-2.8393
 30
0.0
 10
-19.402
 20
-1.133
 30
0.0
 10
-19.402
 20
-1.133
 30
0.0
 10
-19.402
 20
-1.133
 30
0.0
 10
-19.402
 20
-1.133
 30
0.0
 10
-19.6893
 20
0.6421
 30
0.0
 10
-19.6893
 20
0.6421
 30
0.0
  0
SPLINE
  5
8D
330
1F
100
AcDbEntity
  8
AXIS
 62
   250
100
AcDbSpline
210
0.0
220
0.0
230
1.0
 70
     8
 71
     3
 72
    36
 73
    32
 74
     0
 42
0.0000000001
 43
0.0000000001
 40
0.0
 40
0.0
 40
0.0
 40
0.0
 40
0.1111111111111111
 40
0.1111111111111111
 40
0.1111111111111111
 40
0.1111111111111111
 40
0.2222222222222222
 40
0.2222222222222222
 40
0.2222222222222222
 40
0.2222222222222222
 40
0.3333333333333333
 40
0.3333333333333333
 40
0.3333333333333333
 40
0.3333333333333333
 40
0.4444444444444444
 40
0.4444444444444444
 40
0.4444444444444444
 40
0.4444444444444444
 40
0.5555555555555556
 40
0.5555555555555556
 40
0.5555555555555556
 40
0.5555555555555556
 40
0.6666666666666666
 40
0.6666666666666666
 40
0.6666666666666666
 40
0.6666666666666666
 40
0.7777777777777778
 40
0.7777777777777778
 40
0.7777777777777778
 40
0.7777777777777778
 40
1.0
 40
1.0
 40
1.0
 40
1.0
 10
10.2485
 20
0.6421
 30
0.0
 10
10.2485
 20
0.6421
 30
0.0
 10
9.9612
 20
-1.133
 30
0.0
 10
9.9612
 20
-1.133
 30
0.0
 10
9.9612
 20
-1.133
 30
0.0
 10
9.9612
 20
-1.133
 30
0.0
 10
9.1095
 20
-2.8393
 30
0.0
 10
9.1095
 20
-2.8393
 30
0.0
 10
9.1095
 20
-2.8393
 30
0.0
 10
9.1095
 20
-2.8393
 30
0.0
 10
7.726
 20
-4.4116
 30
0.0
 10
7.726
 20
-4.4116
 30
0.0
 10
7.726
 20
-4.4116
 30
0.0
 10
7.726
 20
-4.4116
 30
0.0
 10
5.8639
 20
-5.79
 30
0.0
 10
5.8639
 20
-5.79
 30
0.0
 10
5.8639
 20
-5.79
 30
0.0
 10
5.8639
 20
-5.79
 30
0.0
 10
3.5957
 20
-6.9208
 30
0.0
 10
3.5957
 20
-6.9208
 30
0.0
 10
3.5957
 20
-6.9208
 30
0.0
 10
3.5957
 20
-6.9208
 30
0.0
 10
1.0083
 20
-7.7619
 30
0.0
 10
1.0083
 20
-7.7619
 30
0.0
 10
1.0083
 20
-7.7619
 30
0.0
 10
1.0083
 20
-7.7619
 30
0.0
 10
-1.8004
 20
-8.28
 30
0.0
 10
-1.8004
 20
-8.28
 30
0.0
 10
-1.8004
 20
-8.28
 30
0.0
 10
-1.8004
 20
-8.28
 30
0.0
 10
-4.7203
 20
-8.4544
 30
0.0
 10
-4.7203
 20
-8.4544
 30
0.0
  0
SPLINE
  5
8E
330
1F
100
AcDbEntity
  8
AXIS
 62
   250
100
AcDbSpline
210
0.0
220
0.0
230
1.0
 70
    24
 71
     3
 72
     8
 73
     4
 74
     0
 42
0.0000000001
 43
0.0000000001
 40
0.0
 40
0.0
 40
0.0
 40
0.0
 40
1.0
 40
1.0
 40
1.0
 40
1.0
 10
10.3299
 20
1.5545
 30
0.0
 10
10.3299
 20
1.5545
 30
0.0
 10
10.2485
 20
0.6421
 30
0.0
 10
10.2485
 20
0.6421
 30
0.0
  0
SPLINE
  5
8F
330
1F
100
AcDbEntity
  8
AXIS
 62
   250
100
AcDbSpline
210
0.0
220
0.0
230
1.0
 70
     8
 71
     3
 72
    40
 73
    36
 74
     0
 42
0.0000000001
 43
0.0000000001
 40
0.0
 40
0.0
 40
0.0
 40
0.0
 40
0.1
 40
0.1
 40
0.1
 40
0.1
 40
0.2
 40
0.2
 40
0.2
 40
0.2
 40
0.3
 40
0.3
 40
0.3
 40
0.3
 40
0.4
 40
0.4
 40
0.4
 40
0.4
 40
0.5
 40
0.5
 40
0.5
 40
0.5
 40
0.6
 40
0.6
 40
0.6
 40
0.6
 40
0.7
 40
0.7
 40
0.7
 40
0.7
 40
0.8
 40
0.8
 40
0.8
 40
0.8
 40
1.0
 40
1.0
 40
1.0
 40
1.0
 10
-4.1953
 20
-8.1179
 30
0.0
 10
-4.1953
 20
-8.1179
 30
0.0
 10
-4.7203
 20
-8.1237
 30
0.0
 10
-4.7203
 20
-8.1237
 30
0.0
 10
-4.7203
 20
-8.1237
 30
0.0
 10
-4.7203
 20
-8.1237
 30
0.0
 10
-7.576
 20
-7.9546
 30
0.0
 10
-7.576
 20
-7.9546
 30
0.0
 10
-7.576
 20
-7.9546
 30
0.0
 10
-7.576
 20
-7.9546
 30
0.0
 10
-10.3222
 20
-7.4565
 30
0.0
 10
-10.3222
 20
-7.4565
 30
0.0
 10
-10.3222
 20
-7.4565
 30
0.0
 10
-10.3222
 20
-7.4565
 30
0.0
 10
-12.852
 20
-6.6462
 30
0.0
 10
-12.852
 20
-6.6462
 30
0.0
 10
-12.852
 20
-6.6462
 30
0.0
 10
-12.852
 20
-6.6462
 30
0.0
 10
-15.0699
 20
-5.5562
 30
0.0
 10
-15.0699
 20
-5.5562
 30
0.0
 10
-15.0699
 20
-5.5562
 30
0.0
 10
-15.0699
 20
-5.5562
 30
0.0
 10
-16.8904
 20
-4.2283
 30
0.0
 10
-16.8904
 20
-4.2283
 30
0.0
 10
-16.8904
 20
-4.2283
 30
0.0
 10
-16.8904
 20
-4.2283
 30
0.0
 10
-18.2427
 20
-2.7129
 30
0.0
 10
-18.2427
 20
-2.7129
 30
0.0
 10
-18.2427
 20
-2.7129
 30
0.0
 10
-18.2427
 20
-2.7129
 30
0.0
 10
-19.0758
 20
-1.0687
 30
0.0
 10
-19.0758
 20
-1.0687
 30
0.0
 10
-19.0758
 20
-1.0687
 30
0.0
 10
-19.0758
 20
-1.0687
 30
0.0
 10
-19.2528
 20
-0.404
 30
0.0
 10
-19.2528
 20
-0.404
 30
0.0
  0
SPLINE
  5
90
330
1F
100
AcDbEntity
  8
AXIS
 62
   250
100
AcDbSpline
210
0.0
220
0.0
230
1.0
 70
     8
 71
     3
 72
    52
 73
    48
 74
     0
 42
0.0000000001
 43
0.0000000001
 40
0.0
 40
0.0
 40
0.0
 40
0.0
 40
0.0769230769230769
 40
0.0769230769230769
 40
0.0769230769230769
 40
0.0769230769230769
 40
0.1538461538461539
 40
0.1538461538461539
 40
0.1538461538461539
 40
0.1538461538461539
 40
0.2307692307692308
 40
0.2307692307692308
 40
0.2307692307692308
 40
0.2307692307692308
 40
0.3076923076923077
 40
0.3076923076923077
 40
0.3076923076923077
 40
0.3076923076923077
 40
0.3846153846153846
 40
0.3846153846153846
 40
0.3846153846153846
 40
0.3846153846153846
 40
0.4615384615384616
 40
0.4615384615384616
 40
0.4615384615384616
 40
0.4615384615384616
 40
0.5384615384615384
 40
0.5384615384615384
 40
0.5384615384615384
 40
0.5384615384615384
 40
0.6153846153846154
 40
0.6153846153846154
 40
0.6153846153846154
 40
0.6153846153846154
 40
0.6923076923076923
 40
0.6923076923076923
 40
0.6923076923076923
 40
0.6923076923076923
 40
0.7692307692307693
 40
0.7692307692307693
 40
0.7692307692307693
 40
0.7692307692307693
 40
0.8461538461538461
 40
0.8461538461538461
 40
0.8461538461538461
 40
0.8461538461538461
 40
1.0
 40
1.0
 40
1.0
 40
1.0
 10
-19.2528
 20
-0.404
 30
0.0
 10
-19.2528
 20
-0.404
 30
0.0
 10
-19.3567
 20
0.6421
 30
0.0
 10
-19.3567
 20
0.6421
 30
0.0
 10
-19.3567
 20
0.6421
 30
0.0
 10
-19.3567
 20
0.6421
 30
0.0
 10
-19.0758
 20
2.3513
 30
0.0
 10
-19.0758
 20
2.3513
 30
0.0
 10
-19.0758
 20
2.3513
 30
0.0
 10
-19.0758
 20
2.3513
 30
0.0
 10
-18.2427
 20
3.9958
 30
0.0
 10
-18.2427
 20
3.9958
 30
0.0
 10
-18.2427
 20
3.9958
 30
0.0
 10
-18.2427
 20
3.9958
 30
0.0
 10
-16.8904
 20
5.5101
 30
0.0
 10
-16.8904
 20
5.5101
 30
0.0
 10
-16.8904
 20
5.5101
 30
0.0
 10
-16.8904
 20
5.5101
 30
0.0
 10
-15.0699
 20
6.8388
 30
0.0
 10
-15.0699
 20
6.8388
 30
0.0
 10
-15.0699
 20
6.8388
 30
0.0
 10
-15.0699
 20
6.8388
 30
0.0
 10
-12.852
 20
7.9288
 30
0.0
 10
-12.852
 20
7.9288
 30
0.0
 10
-12.852
 20
7.9288
 30
0.0
 10
-12.852
 20
7.9288
 30
0.0
 10
-10.3222
 20
8.739
 30
0.0
 10
-10.3222
 20
8.739
 30
0.0
 10
-10.3222
 20
8.739
 30
0.0
 10
-10.3222
 20
8.739
 30
0.0
 10
-7.576
 20
9.2379
 30
0.0
 10
-7.576
 20
9.2379
 30
0.0
 10
-7.576
 20
9.2379
 30
0.0
 10
-7.576
 20
9.2379
 30
0.0
 10
-4.7203
 20
9.406
 30
0.0
 10
-4.7203
 20
9.406
 30
0.0
 10
-4.7203
 20
9.406
 30
0.0
 10
-4.7203
 20
9.406
 30
0.0
 10
-1.8653
 20
9.2379
 30
0.0
 10
-1.8653
 20
9.2379
 30
0.0
 10
-1.8653
 20
9.2379
 30
0.0
 10
-1.8653
 20
9.2379
 30
0.0
 10
0.8803
 20
8.739
 30
0.0
 10
0.8803
 20
8.739
 30
0.0
 10
0.8803
 20
8.739
 30
0.0
 10
0.8803
 20
8.739
 30
0.0
 10
3.265
 20
7.9868
 30
0.0
 10
3.265
 20
7.9868
 30
0.0
  0
SPLINE
  5
91
330
1F
100
AcDbEntity
  8
AXIS
 62
   250
100
AcDbSpline
210
0.0
220
0.0
230
1.0
 70
     8
 71
     3
 72
    28
 73
    24
 74
     0
 42
0.0000000001
 43
0.0000000001
 40
0.0
 40
0.0
 40
0.0
 40
0.0
 40
0.1428571428571428
 40
0.1428571428571428
 40
0.1428571428571428
 40
0.1428571428571428
 40
0.2857142857142857
 40
0.2857142857142857
 40
0.2857142857142857
 40
0.2857142857142857
 40
0.4285714285714285
 40
0.4285714285714285
 40
0.4285714285714285
 40
0.4285714285714285
 40
0.5714285714285714
 40
0.5714285714285714
 40
0.5714285714285714
 40
0.5714285714285714
 40
0.7142857142857143
 40
0.7142857142857143
 40
0.7142857142857143
 40
0.7142857142857143
 40
1.0
 40
1.0
 40
1.0
 40
1.0
 10
3.8948
 20
7.7205
 30
0.0
 10
3.8948
 20
7.7205
 30
0.0
 10
5.6141
 20
6.8388
 30
0.0
 10
5.6141
 20
6.8388
 30
0.0
 10
5.6141
 20
6.8388
 30
0.0
 10
5.6141
 20
6.8388
 30
0.0
 10
7.4348
 20
5.5101
 30
0.0
 10
7.4348
 20
5.5101
 30
0.0
 10
7.4348
 20
5.5101
 30
0.0
 10
7.4348
 20
5.5101
 30
0.0
 10
8.7872
 20
3.9958
 30
0.0
 10
8.7872
 20
3.9958
 30
0.0
 10
8.7872
 20
3.9958
 30
0.0
 10
8.7872
 20
3.9958
 30
0.0
 10
9.6209
 20
2.3513
 30
0.0
 10
9.6209
 20
2.3513
 30
0.0
 10
9.6209
 20
2.3513
 30
0.0
 10
9.6209
 20
2.3513
 30
0.0
 10
9.9012
 20
0.6421
 30
0.0
 10
9.9012
 20
0.6421
 30
0.0
 10
9.9012
 20
0.6421
 30
0.0
 10
9.9012
 20
0.6421
 30
0.0
 10
9.797
 20
-0.402
 30
0.0
 10
9.797
 20
-0.402
 30
0.0
  0
SPLINE
  5
92
330
1F
100
AcDbEntity
  8
AXIS
 62
   250
100
AcDbSpline
210
0.0
220
0.0
230
1.0
 70
     8
 71
     3
 72
    36
 73
    32
 74
     0
 42
0.0000000001
 43
0.0000000001
 40
0.0
 40
0.0
 40
0.0
 40
0.0
 40
0.1111111111111111
 40
0.1111111111111111
 40
0.1111111111111111
 40
0.1111111111111111
 40
0.2222222222222222
 40
0.2222222222222222
 40
0.2222222222222222
 40
0.2222222222222222
 40
0.3333333333333333
 40
0.3333333333333333
 40
0.3333333333333333
 40
0.3333333333333333
 40
0.4444444444444444
 40
0.4444444444444444
 40
0.4444444444444444
 40
0.4444444444444444
 40
0.5555555555555556
 40
0.5555555555555556
 40
0.5555555555555556
 40
0.5555555555555556
 40
0.6666666666666666
 40
0.6666666666666666
 40
0.6666666666666666
 40
0.6666666666666666
 40
0.7777777777777778
 40
0.7777777777777778
 40
0.7777777777777778
 40
0.7777777777777778
 40
1.0
 40
1.0
 40
1.0
 40
1.0
 10
9.797
 20
-0.402
 30
0.0
 10
9.797
 20
-0.402
 30
0.0
 10
9.6209
 20
-1.0687
 30
0.0
 10
9.6209
 20
-1.0687
 30
0.0
 10
9.6209
 20
-1.0687
 30
0.0
 10
9.6209
 20
-1.0687
 30
0.0
 10
8.7872
 20
-2.7129
 30
0.0
 10
8.7872
 20
-2.7129
 30
0.0
 10
8.7872
 20
-2.7129
 30
0.0
 10
8.7872
 20
-2.7129
 30
0.0
 10
7.4348
 20
-4.2283
 30
0.0
 10
7.4348
 20
-4.2283
 30
0.0
 10
7.4348
 20
-4.2283
 30
0.0
 10
7.4348
 20
-4.2283
 30
0.0
 10
5.6141
 20
-5.5562
 30
0.0
 10
5.6141
 20
-5.5562
 30
0.0
 10
5.6141
 20
-5.5562
 30
0.0
 10
5.6141
 20
-5.5562
 30
0.0
 10
3.3963
 20
-6.6462
 30
0.0
 10
3.3963
 20
-6.6462
 30
0.0
 10
3.3963
 20
-6.6462
 30
0.0
 10
3.3963
 20
-6.6462
 30
0.0
 10
0.8656
 20
-7.4565
 30
0.0
 10
0.8656
 20
-7.4565
 30
0.0
 10
0.8656
 20
-7.4565
 30
0.0
 10
0.8656
 20
-7.4565
 30
0.0
 10
-1.8792
 20
-7.9546
 30
0.0
 10
-1.8792
 20
-7.9546
 30
0.0
 10
-1.8792
 20
-7.9546
 30
0.0
 10
-1.8792
 20
-7.9546
 30
0.0
 10
-3.4277
 20
-8.0879
 30
0.0
 10
-3.4277
 20
-8.0879
 30
0.0
  0
SPLINE
  5
93
330
1F
100
AcDbEntity
  8
AXIS
 62
   250
100
AcDbSpline
210
0.0
220
0.0
230
1.0
 70
     8
 71
     3
 72
    12
 73
     8
 74
     0
 42
0.0000000001
 43
0.0000000001
 40
0.0
 40
0.0
 40
0.0
 40
0.0
 40
0.3333333333333333
 40
0.3333333333333333
 40
0.3333333333333333
 40
0.3333333333333333
 40
1.0
 40
1.0
 40
1.0
 40
1.0
 10
3.3549
 20
7.7627
 30
0.0
 10
3.3742
 20
7.8043
 30
0.0
 10
3.3757
 20
7.8516
 30
0.0
 10
3.3589
 20
7.8942
 30
0.0
 10
3.3589
 20
7.8942
 30
0.0
 10
3.3417
 20
7.937
 30
0.0
 10
3.3074
 20
7.9705
 30
0.0
 10
3.265
 20
7.9868
 30
0.0
  0
SPLINE
  5
94
330
1F
100
AcDbEntity
  8
AXIS
 62
   250
100
AcDbSpline
210
0.0
220
0.0
230
1.0
 70
     8
 71
     3
 72
    12
 73
     8
 74
     0
 42
0.0000000001
 43
0.0000000001
 40
0.0
 40
0.0
 40
0.0
 40
0.0
 40
0.3333333333333333
 40
0.3333333333333333
 40
0.3333333333333333
 40
0.3333333333333333
 40
1.0
 40
1.0
 40
1.0
 40
1.0
 10
-3.5877
 20
-7.8534
 30
0.0
 10
-3.6126
 20
-7.9059
 30
0.0
 10
-3.6069
 20
-7.9679
 30
0.0
 10
-3.5744
 20
-8.0157
 30
0.0
 10
-3.5744
 20
-8.0157
 30
0.0
 10
-3.5416
 20
-8.0643
 30
0.0
 10
-3.486
 20
-8.0914
 30
0.0
 10
-3.4277
 20
-8.0879
 30
0.0
  0
SPLINE
  5
95
330
1F
100
AcDbEntity
  8
AXIS
 62
   250
100
AcDbSpline
210
0.0
220
0.0
230
1.0
 70
     8
 71
     3
 72
     8
 73
     4
 74
     0
 42
0.0000000001
 43
0.0000000001
 40
0.0
 40
0.0
 40
0.0
 40
0.0
 40
1.0
 40
1.0
 40
1.0
 40
1.0
 10
-4.1953
 20
-8.1179
 30
0.0
 10
-4.1319
 20
-8.1159
 30
0.0
 10
-4.0748
 20
-8.0799
 30
0.0
 10
-4.0476
 20
-8.022
 30
0.0
  0
SPLINE
  5
96
330
1F
100
AcDbEntity
  8
AXIS
 62
   250
100
AcDbSpline
210
0.0
220
0.0
230
1.0
 70
    27
 71
     3
 72
    12
 73
     8
 74
     0
 42
0.0000000001
 43
0.0000000001
 40
0.0
 40
0.0
 40
0.0
 40
0.0
 40
0.3333333333333333
 40
0.3333333333333333
 40
0.3333333333333333
 40
0.3333333333333333
 40
1.0
 40
1.0
 40
1.0
 40
1.0
 10
-2.7602
 20
-8.0431
 30
0.0
 10
-2.7602
 20
-8.0431
 30
0.0
 10
-2.7597
 20
-8.0431
 30
0.0
 10
-2.7597
 20
-8.0431
 30
0.0
 10
-2.7597
 20
-8.0431
 30
0.0
 10
-2.7597
 20
-8.0431
 30
0.0
 10
-2.7602
 20
-8.0431
 30
0.0
 10
-2.7602
 20
-8.0431
 30
0.0
  0
SPLINE
  5
97
330
1F
100
AcDbEntity
  8
AXIS
 62
   250
100
AcDbSpline
210
0.0
220
0.0
230
1.0
 70
    27
 71
     3
 72
    12
 73
     8
 74
     0
 42
0.0000000001
 43
0.0000000001
 40
0.0
 40
0.0
 40
0.0
 40
0.0
 40
0.3333333333333333
 40
0.3333333333333333
 40
0.3333333333333333
 40
0.3333333333333333
 40
1.0
 40
1.0
 40
1.0
 40
1.0
 10
15.8458
 20
-13.0564
 30
0.0
 10
15.8458
 20
-13.0564
 30
0.0
 10
15.8458
 20
12.7435
 30
0.0
 10
15.8458
 20
12.7435
 30
0.0
 10
15.8458
 20
12.7435
 30
0.0
 10
15.8458
 20
12.7435
 30
0.0
 10
15.8458
 20
-13.0564
 30
0.0
 10
15.8458
 20
-13.0564
 30
0.0
  0
SPLINE
  5
98
330
1F
100
AcDbEntity
  8
AXIS
 62
   250
100
AcDbSpline
210
0.0
220
0.0
230
1.0
 70
    27
 71
     3
 72
    20
 73
    16
 74
     0
 42
0.0000000001
 43
0.0000000001
 40
0.0
 40
0.0
 40
0.0
 40
0.0
 40
0.2
 40
0.2
 40
0.2
 40
0.2
 40
0.4
 40
0.4
 40
0.4
 40
0.4
 40
0.6
 40
0.6
 40
0.6
 40
0.6
 40
1.0
 40
1.0
 40
1.0
 40
1.0
 10
15.0183
 20
13.5798
 30
0.0
 10
15.0183
 20
13.5798
 30
0.0
 10
15.0113
 20
13.5798
 30
0.0
 10
15.0113
 20
13.5798
 30
0.0
 10
15.0113
 20
13.5798
 30
0.0
 10
15.0113
 20
13.5798
 30
0.0
 10
-24.4413
 20
13.5798
 30
0.0
 10
-24.4413
 20
13.5798
 30
0.0
 10
-24.4413
 20
13.5798
 30
0.0
 10
-24.4413
 20
13.5798
 30
0.0
 10
15.0113
 20
13.5798
 30
0.0
 10
15.0113
 20
13.5798
 30
0.0
 10
15.0113
 20
13.5798
 30
0.0
 10
15.0113
 20
13.5798
 30
0.0
 10
15.0183
 20
13.5798
 30
0.0
 10
15.0183
 20
13.5798
 30
0.0
  0
SPLINE
  5
99
330
1F
100
AcDbEntity
  8
AXIS
 62
   250
100
AcDbSpline
210
0.0
220
0.0
230
1.0
 70
    27
 71
     3
 72
    12
 73
     8
 74
     0
 42
0.0000000001
 43
0.0000000001
 40
0.0
 40
0.0
 40
0.0
 40
0.0
 40
0.3333333333333333
 40
0.3333333333333333
 40
0.3333333333333333
 40
0.3333333333333333
 40
1.0
 40
1.0
 40
1.0
 40
1.0
 10
-24.4413
 20
13.5798
 30
0.0
 10
-24.4413
 20
13.5798
 30
0.0
 10
-24.4491
 20
13.5798
 30
0.0
 10
-24.4491
 20
13.5798
 30
0.0
 10
-24.4491
 20
13.5798
 30
0.0
 10
-24.4491
 20
13.5798
 30
0.0
 10
-24.4413
 20
13.5798
 30
0.0
 10
-24.4413
 20
13.5798
 30
0.0
  0
SPLINE
  5
9A
330
1F
100
AcDbEntity
  8
AXIS
 62
   250
100
AcDbSpline
210
0.0
220
0.0
230
1.0
 70
    27
 71
     3
 72
    12
 73
     8
 74
     0
 42
0.0000000001
 43
0.0000000001
 40
0.0
 40
0.0
 40
0.0
 40
0.0
 40
0.3333333333333333
 40
0.3333333333333333
 40
0.3333333333333333
 40
0.3333333333333333
 40
1.0
 40
1.0
 40
1.0
 40
1.0
 10
-24.3841
 20
12.3886
 30
0.0
 10
-24.3841
 20
12.3886
 30
0.0
 10
14.9542
 20
12.3886
 30
0.0
 10
14.9542
 20
12.3886
 30
0.0
 10
14.9542
 20
12.3886
 30
0.0
 10
14.9542
 20
12.3886
 30
0.0
 10
-24.3841
 20
12.3886
 30
0.0
 10
-24.3841
 20
12.3886
 30
0.0
  0
SPLINE
  5
9B
330
1F
100
AcDbEntity
  8
AXIS
 62
   250
100
AcDbSpline
210
0.0
220
0.0
230
1.0
 70
    27
 71
     3
 72
    12
 73
     8
 74
     0
 42
0.0000000001
 43
0.0000000001
 40
0.0
 40
0.0
 40
0.0
 40
0.0
 40
0.3333333333333333
 40
0.3333333333333333
 40
0.3333333333333333
 40
0.3333333333333333
 40
1.0
 40
1.0
 40
1.0
 40
1.0
 10
-24.3407
 20
-12.2223
 30
0.0
 10
-24.3407
 20
-12.2223
 30
0.0
 10
14.9107
 20
-12.2223
 30
0.0
 10
14.9107
 20
-12.2223
 30
0.0
 10
14.9107
 20
-12.2223
 30
0.0
 10
14.9107
 20
-12.2223
 30
0.0
 10
-24.3407
 20
-12.2223
 30
0.0
 10
-24.3407
 20
-12.2223
 30
0.0
  0
SPLINE
  5
9C
330
1F
100
AcDbEntity
  8
AXIS
 62
   250
100
AcDbSpline
210
0.0
220
0.0
230
1.0
 70
    27
 71
     3
 72
    20
 73
    16
 74
     0
 42
0.0000000001
 43
0.0000000001
 40
0.0
 40
0.0
 40
0.0
 40
0.0
 40
0.2
 40
0.2
 40
0.2
 40
0.2
 40
0.4
 40
0.4
 40
0.4
 40
0.4
 40
0.6
 40
0.6
 40
0.6
 40
0.6
 40
1.0
 40
1.0
 40
1.0
 40
1.0
 10
-24.4469
 20
-13.8912
 30
0.0
 10
-24.4469
 20
-13.8912
 30
0.0
 10
-24.4413
 20
-13.8912
 30
0.0
 10
-24.4413
 20
-13.8912
 30
0.0
 10
-24.4413
 20
-13.8912
 30
0.0
 10
-24.4413
 20
-13.8912
 30
0.0
 10
15.011
 20
-13.8912
 30
0.0
 10
15.011
 20
-13.8912
 30
0.0
 10
15.011
 20
-13.8912
 30
0.0
 10
15.011
 20
-13.8912
 30
0.0
 10
-24.4413
 20
-13.8912
 30
0.0
 10
-24.4413
 20
-13.8912
 30
0.0
 10
-24.4413
 20
-13.8912
 30
0.0
 10
-24.4413
 20
-13.8912
 30
0.0
 10
-24.4469
 20
-13.8912
 30
0.0
 10
-24.4469
 20
-13.8912
 30
0.0
  0
SPLINE
  5
9D
330
1F
100
AcDbEntity
  8
AXIS
 62
   250
100
AcDbSpline
210
0.0
220
0.0
230
1.0
 70
    27
 71
     3
 72
    12
 73
     8
 74
     0
 42
0.0000000001
 43
0.0000000001
 40
0.0
 40
0.0
 40
0.0
 40
0.0
 40
0.3333333333333333
 40
0.3333333333333333
 40
0.3333333333333333
 40
0.3333333333333333
 40
1.0
 40
1.0
 40
1.0
 40
1.0
 10
-25.277
 20
-13.0564
 30
0.0
 10
-25.277
 20
-13.0564
 30
0.0
 10
-25.277
 20
12.7435
 30
0.0
 10
-25.277
 20
12.7435
 30
0.0
 10
-25.277
 20
12.7435
 30
0.0
 10
-25.277
 20
12.7435
 30
0.0
 10
-25.277
 20
-13.0564
 30
0.0
 10
-25.277
 20
-13.0564
 30
0.0
  0
SPLINE
  5
9E
330
1F
100
AcDbEntity
  8
AXIS
 62
   250
100
AcDbSpline
210
0.0
220
0.0
230
1.0
 70
    11
 71
     3
 72
    44
 73
    40
 74
     0
 42
0.0000000001
 43
0.0000000001
 40
0.0
 40
0.0
 40
0.0
 40
0.0
 40
0.0909090909090909
 40
0.0909090909090909
 40
0.0909090909090909
 40
0.0909090909090909
 40
0.1818181818181818
 40
0.1818181818181818
 40
0.1818181818181818
 40
0.1818181818181818
 40
0.2727272727272727
 40
0.2727272727272727
 40
0.2727272727272727
 40
0.2727272727272727
 40
0.3636363636363636
 40
0.3636363636363636
 40
0.3636363636363636
 40
0.3636363636363636
 40
0.4545454545454545
 40
0.4545454545454545
 40
0.4545454545454545
 40
0.4545454545454545
 40
0.5454545454545454
 40
0.5454545454545454
 40
0.5454545454545454
 40
0.5454545454545454
 40
0.6363636363636364
 40
0.6363636363636364
 40
0.6363636363636364
 40
0.6363636363636364
 40
0.7272727272727273
 40
0.7272727272727273
 40
0.7272727272727273
 40
0.7272727272727273
 40
0.8181818181818182
 40
0.8181818181818182
 40
0.8181818181818182
 40
0.8181818181818182
 40
1.0
 40
1.0
 40
1.0
 40
1.0
 10
3.6148
 20
7.5043
 30
0.0
 10
3.6148
 20
7.5043
 30
0.0
 10
3.6774
 20
7.638
 30
0.0
 10
3.6774
 20
7.638
 30
0.0
 10
3.6774
 20
7.638
 30
0.0
 10
3.6774
 20
7.638
 30
0.0
 10
3.6148
 20
7.5043
 30
0.0
 10
3.6148
 20
7.5043
 30
0.0
 10
3.6148
 20
7.5043
 30
0.0
 10
3.6148
 20
7.5043
 30
0.0
 10
-0.032
 20
-0.2693
 30
0.0
 10
-0.032
 20
-0.2693
 30
0.0
 10
-0.032
 20
-0.2693
 30
0.0
 10
-0.032
 20
-0.2693
 30
0.0
 10
-3.5555
 20
-7.7844
 30
0.0
 10
-3.5555
 20
-7.7844
 30
0.0
 10
-3.5555
 20
-7.7844
 30
0.0
 10
-3.5555
 20
-7.7844
 30
0.0
 10
-3.5877
 20
-7.8534
 30
0.0
 10
-3.5877
 20
-7.8534
 30
0.0
 10
-3.5877
 20
-7.8534
 30
0.0
 10
-3.5877
 20
-7.8534
 30
0.0
 10
-3.586
 20
-7.8534
 30
0.0
 10
-3.586
 20
-7.8534
 30
0.0
 10
-3.586
 20
-7.8534
 30
0.0
 10
-3.586
 20
-7.8534
 30
0.0
 10
-3.5877
 20
-7.8534
 30
0.0
 10
-3.5877
 20
-7.8534
 30
0.0
 10
-3.5877
 20
-7.8534
 30
0.0
 10
-3.5877
 20
-7.8534
 30
0.0
 10
-3.5555
 20
-7.7844
 30
0.0
 10
-3.5555
 20
-7.7844
 30
0.0
 10
-3.5555
 20
-7.7844
 30
0.0
 10
-3.5555
 20
-7.7844
 30
0.0
 10
-0.032
 20
-0.2693
 30
0.0
 10
-0.032
 20
-0.2693
 30
0.0
 10
-0.032
 20
-0.2693
 30
0.0
 10
-0.032
 20
-0.2693
 30
0.0
 10
3.6148
 20
7.5043
 30
0.0
 10
3.6148
 20
7.5043
 30
0.0
  0
SPLINE
  5
9F
330
1F
100
AcDbEntity
  8
AXIS
 62
   250
100
AcDbSpline
210
0.0
220
0.0
230
1.0
 70
    27
 71
     3
 72
    12
 73
     8
 74
     0
 42
0.0000000001
 43
0.0000000001
 40
0.0
 40
0.0
 40
0.0
 40
0.0
 40
0.3333333333333333
 40
0.3333333333333333
 40
0.3333333333333333
 40
0.3333333333333333
 40
1.0
 40
1.0
 40
1.0
 40
1.0
 10
3.3549
 20
7.7627
 30
0.0
 10
3.3549
 20
7.7627
 30
0.0
 10
-4.0476
 20
-8.022
 30
0.0
 10
-4.0476
 20
-8.022
 30
0.0
 10
-4.0476
 20
-8.022
 30
0.0
 10
-4.0476
 20
-8.022
 30
0.0
 10
3.3549
 20
7.7627
 30
0.0
 10
3.3549
 20
7.7627
 30
0.0
  0
SPLINE
  5
A0
330
1F
100
AcDbEntity
  8
AXIS
 62
   250
100
AcDbSpline
210
0.0
220
0.0
230
1.0
 70
    27
 71
     3
 72
    12
 73
     8
 74
     0
 42
0.0000000001
 43
0.0000000001
 40
0.0
 40
0.0
 40
0.0
 40
0.0
 40
0.3333333333333333
 40
0.3333333333333333
 40
0.3333333333333333
 40
0.3333333333333333
 40
1.0
 40
1.0
 40
1.0
 40
1.0
 10
-3.4271
 20
-8.0879
 30
0.0
 10
-3.4271
 20
-8.0879
 30
0.0
 10
-3.4277
 20
-8.0879
 30
0.0
 10
-3.4277
 20
-8.0879
 30
0.0
 10
-3.4277
 20
-8.0879
 30
0.0
 10
-3.4277
 20
-8.0879
 30
0.0
 10
-3.4271
 20
-8.0879
 30
0.0
 10
-3.4271
 20
-8.0879
 30
0.0
  0
SPLINE
  5
A1
330
1F
100
AcDbEntity
  8
AXIS
 62
   250
100
AcDbSpline
210
0.0
220
0.0
230
1.0
 70
    27
 71
     3
 72
    12
 73
     8
 74
     0
 42
0.0000000001
 43
0.0000000001
 40
0.0
 40
0.0
 40
0.0
 40
0.0
 40
0.3333333333333333
 40
0.3333333333333333
 40
0.3333333333333333
 40
0.3333333333333333
 40
1.0
 40
1.0
 40
1.0
 40
1.0
 10
3.8945
 20
7.7198
 30
0.0
 10
3.8945
 20
7.7198
 30
0.0
 10
3.8953
 20
7.7198
 30
0.0
 10
3.8953
 20
7.7198
 30
0.0
 10
3.8953
 20
7.7198
 30
0.0
 10
3.8953
 20
7.7198
 30
0.0
 10
3.8945
 20
7.7198
 30
0.0
 10
3.8945
 20
7.7198
 30
0.0
  0
ENDSEC
  0
SECTION
  2
OBJECTS
  0
DICTIONARY
  5
C
330
0
100
AcDbDictionary
  3
ACAD_GROUP
350
D
  3
ACAD_LAYOUT
350
1A
  3
ACAD_MATERIAL
350
3B
  3
ACAD_MLEADERSTYLE
350
C4
  3
ACAD_MLINESTYLE
350
17
  3
ACAD_PLOTSETTINGS
350
19
  3
ACAD_VISUALSTYLE
350
2A
  3
ACDBHEADERROUNDTRIPXREC
350
A2
  3
ACDBVARIABLEDICTIONARY
350
C2
  0
DICTIONARY
  5
D
102
{ACAD_REACTORS
330
C
102
}
330
C
100
AcDbDictionary
  0
DICTIONARY
  5
1A
102
{ACAD_REACTORS
330
C
102
}
330
C
100
AcDbDictionary
  0
DICTIONARY
  5
3B
102
{ACAD_REACTORS
330
C
102
}
330
C
100
AcDbDictionary
  3
BYBLOCK
350
3D
  3
BYLAYER
350
3C
  3
GLOBAL
350
3E
  0
DICTIONARY
  5
C4
102
{ACAD_REACTORS
330
C
102
}
330
C
100
AcDbDictionary
  0
DICTIONARY
  5
17
102
{ACAD_REACTORS
330
C
102
}
330
C
100
AcDbDictionary
  3
STANDARD
350
18
  0
DICTIONARY
  5
19
102
{ACAD_REACTORS
330
C
102
}
330
C
100
AcDbDictionary
  0
DICTIONARY
  5
2A
102
{ACAD_REACTORS
330
C
102
}
330
C
100
AcDbDictionary
  3
2DWIREFRAME
350
2F
  3
3D_HIDDEN
350
31
  3
3DWIREFRAME
350
30
  3
BASIC
350
32
  3
BRIGHTEN
350
36
  3
COLORCHANGE
350
3A
  3
CONCEPTUAL
350
34
  3
DIM
350
35
  3
FACEPATTERN
350
39
  3
FLAT
350
2B
  3
FLATWITHEDGES
350
2C
  3
GOURAUD
350
2D
  3
GOURAUDWITHEDGES
350
2E
  3
LINEPATTERN
350
38
  3
REALISTIC
350
33
  3
THICKEN
350
37
  0
DICTIONARY
  5
A2
102
{ACAD_REACTORS
330
C
102
}
330
C
100
AcDbDictionary
  3
CEPSNTYPE
350
AB
  3
DIMSTYLEDATA
350
C1
  3
FINGERPRINTGUID
350
AC
  3
HYPERLINKBASE
350
A5
  3
INSUNITS
350
AA
  3
LAYOUTDICT
350
A7
  3
LWETCUNION
350
A9
  3
PLOTSETDICT
350
A8
  3
PSVPSCALE
350
AE
  3
PUCSBASE
350
B1
  3
PUCSORGBACK
350
B7
  3
PUCSORGBOTTOM
350
B3
  3
PUCSORGFRONT
350
B6
  3
PUCSORGLEFT
350
B4
  3
PUCSORGRIGHT
350
B5
  3
PUCSORGTOP
350
B2
  3
PUCSORTHOREF
350
AF
  3
PUCSORTHOVIEW
350
B0
  3
STYLESHEET
350
A6
  3
TSTACKALIGN
350
A3
  3
TSTACKSIZE
350
A4
  3
UCSBASE
350
BA
  3
UCSORGBACK
350
C0
  3
UCSORGBOTTOM
350
BC
  3
UCSORGFRONT
350
BF
  3
UCSORGLEFT
350
BD
  3
UCSORGRIGHT
350
BE
  3
UCSORGTOP
350
BB
  3
UCSORTHOREF
350
B8
  3
UCSORTHOVIEW
350
B9
  3
VERSIONGUID
350
AD
  0
DICTIONARY
  5
C2
102
{ACAD_REACTORS
330
C
102
}
330
C
100
AcDbDictionary
  3
DIMASSOC
350
C5
  3
HIDETEXT
350
C6
  0
MATERIAL
  5
3D
102
{ACAD_REACTORS
330
3B
102
}
102
{ACAD_XDICTIONARY
360
C9
102
}
330
3B
100
AcDbMaterial
  1
ByBlock
  0
MATERIAL
  5
3C
102
{ACAD_REACTORS
330
3B
102
}
102
{ACAD_XDICTIONARY
360
C7
102
}
330
3B
100
AcDbMaterial
  1
ByLayer
  0
MATERIAL
  5
3E
102
{ACAD_REACTORS
330
3B
102
}
102
{ACAD_XDICTIONARY
360
CB
102
}
330
3B
100
AcDbMaterial
  1
Global
  0
MLINESTYLE
  5
18
102
{ACAD_REACTORS
330
17
102
}
330
17
100
AcDbMlineStyle
  2
Standard
 70
     0
  3

 62
   256
 51
90.0
 52
90.0
 71
     2
 49
0.5
 62
   256
  6
BYLAYER
 49
-0.5
 62
   256
  6
BYLAYER
  0
ACAD_PROXY_OBJECT
  5
2F
102
{ACAD_REACTORS
330
2A
102
}
330
2A
100
AcDbProxyObject
 90
      499
 91
      501
 93
      436
310
42CC9915DA5C99599C985B595049028333333333333E3BF0000000000000FB0107901411070040501600405405064090741402480A0340
1001
ACAD
1000
AcDbSavedByObjectVersion
1070
     0
  0
ACAD_PROXY_OBJECT
  5
31
102
{ACAD_REACTORS
330
2A
102
}
330
2A
100
AcDbProxyObject
 90
      499
 91
      501
 93
      500
310
424CD108121A5919195B90640502408333333333333E3BF0000000000000FB01079024090700405020000000000001110200405405064090740C02480A0340
1001
ACAD
1000
AcDbSavedByObjectVersion
1070
     0
  0
ACAD_PROXY_OBJECT
  5
30
102
{ACAD_REACTORS
330
2A
102
}
330
2A
100
AcDbProxyObject
 90
      499
 91
      501
 93
      436
310
42CCD915DA5C99599C985B595059028333333333333E3BF0000000000000FB0107901411070040501600405405064090741402480A0340
1001
ACAD
1000
AcDbSavedByObjectVersion
1070
     0
  0
ACAD_PROXY_OBJECT
  5
32
102
{ACAD_REACTORS
330
2A
102
}
330
2A
100
AcDbProxyObject
 90
      499
 91
      501
 93
      388
310
4150985CDA58D07406404333333333333E3BF0000000000000FB0107A41107004050150841D405064090741402480A0350
1001
ACAD
1000
AcDbSavedByObjectVersion
1070
     0
  0
ACAD_PROXY_OBJECT
  5
36
102
{ACAD_REACTORS
330
2A
102
}
330
2A
100
AcDbProxyObject
 90
      499
 91
      501
 93
      428
310
42109C9A59DA1D195B90C409028333333333333E3BF0000000000000FB010790141107004050150841D405064090741402480A029950
1001
ACAD
1000
AcDbSavedByObjectVersion
1070
     0
  0
ACAD_PROXY_OBJECT
  5
3A
102
{ACAD_REACTORS
330
2A
102
}
330
2A
100
AcDbProxyObject
 90
      499
 91
      501
 93
      452
310
42D0DBDB1BDC90DA185B99D95104090240C333333333333E3BF0000000000000FB0108901411070040501508421405064090741402480A0350
1001
ACAD
1000
AcDbSavedByObjectVersion
1070
     0
  0
ACAD_PROXY_OBJECT
  5
34
102
{ACAD_REACTORS
330
2A
102
}
330
2A
100
AcDbProxyObject
 90
      499
 91
      501
 93
      500
310
4290DBDB98D95C1D1D585B10940D028333333333333E3BF0000000000000FB0107902409070040501000000000000111010841D405064090740C02480A0340
1001
ACAD
1000
AcDbSavedByObjectVersion
1070
     0
  0
ACAD_PROXY_OBJECT
  5
35
102
{ACAD_REACTORS
330
2A
102
}
330
2A
100
AcDbProxyObject
 90
      499
 91
      501
 93
      412
310
40D11A5B50B409028333333333333E3BF0000000000000FB010790141107004050150841D405064090741402480A02677FFFFFD0
1001
ACAD
1000
AcDbSavedByObjectVersion
1070
     0
  0
ACAD_PROXY_OBJECT
  5
39
102
{ACAD_REACTORS
330
2A
102
}
330
2A
100
AcDbProxyObject
 90
      499
 91
      501
 93
      444
310
42D19858D95C185D1D195C9B90F409028333333333333E3BF0000000000000FB010790141107004050150841D405064090741402480A0350
1001
ACAD
1000
AcDbSavedByObjectVersion
1070
     0
  0
ACAD_PROXY_OBJECT
  5
2B
102
{ACAD_REACTORS
330
2A
102
}
330
2A
100
AcDbProxyObject
 90
      499
 91
      501
 93
      388
310
41119B185D240901404333333333333E3BF0000000000000F9010740A41107004050150841D405064090741402480A1B50
1001
ACAD
1000
AcDbSavedByObjectVersion
1070
     0
  0
ACAD_PROXY_OBJECT
  5
2C
102
{ACAD_REACTORS
330
2A
102
}
330
2A
100
AcDbProxyObject
 90
      499
 91
      501
 93
      476
310
43519B185D15DA5D1A115919D95CD0140901404333333333333E3BF0000000000000F9010740901411070040501600405405064090741402480A1B50
1001
ACAD
1000
AcDbSavedByObjectVersion
1070
     0
  0
ACAD_PROXY_OBJECT
  5
2D
102
{ACAD_REACTORS
330
2A
102
}
330
2A
100
AcDbProxyObject
 90
      499
 91
      501
 93
      412
310
41D1DBDD5C985D5910240902404333333333333E3BF0000000000000F9010740A411070040501641D405064090741402480A1B50
1001
ACAD
1000
AcDbSavedByObjectVersion
1070
     0
  0
ACAD_PROXY_OBJECT
  5
2E
102
{ACAD_REACTORS
330
2A
102
}
330
2A
100
AcDbProxyObject
 90
      499
 91
      501
 93
      500
310
4411DBDD5C985D5915DA5D1A115919D95CD0340902404333333333333E3BF0000000000000F9010740901411070040501600405405064090741402480A1B50
1001
ACAD
1000
AcDbSavedByObjectVersion
1070
     0
  0
ACAD_PROXY_OBJECT
  5
38
102
{ACAD_REACTORS
330
2A
102
}
330
2A
100
AcDbProxyObject
 90
      499
 91
      501
 93
      444
310
42D31A5B995C185D1D195C9B90E409028333333333333E3BF0000000000000FB010790141107004050750841D405064090741402483A0350
1001
ACAD
1000
AcDbSavedByObjectVersion
1070
     0
  0
ACAD_PROXY_OBJECT
  5
33
102
{ACAD_REACTORS
330
2A
102
}
330
2A
100
AcDbProxyObject
 90
      499
 91
      501
 93
      420
310
425499585B1A5CDD1A58D08409028333333333333E3BF0000000000000FB01079019070040501508421405064090741402480A1B40
1001
ACAD
1000
AcDbSavedByObjectVersion
1070
     0
  0
ACAD_PROXY_OBJECT
  5
37
102
{ACAD_REACTORS
330
2A
102
}
330
2A
100
AcDbProxyObject
 90
      499
 91
      501
 93
      412
310
41D51A1A58DAD95B90D409028333333333333E3BF0000000000000FB010790141107004050150C41D405064090741402480A0350
1001
ACAD
1000
AcDbSavedByObjectVersion
1070
     0
  0
XRECORD
  5
AB
102
{ACAD_REACTORS
330
A2
102
}
330
A2
100
AcDbXrecord
 90
        0
  0
XRECORD
  5
C1
102
{ACAD_REACTORS
330
A2
102
}
330
A2
100
AcDbXrecord
1000
DSTYLE
1002
{
1070
   340
340
11
1002
}
  0
XRECORD
  5
AC
102
{ACAD_REACTORS
330
A2
102
}
330
A2
100
AcDbXrecord
  1
{C77BE3D6-FF6E-43AA-B02F-EF5A72E41492}
  0
XRECORD
  5
A5
102
{ACAD_REACTORS
330
A2
102
}
330
A2
100
AcDbXrecord
  1

  0
XRECORD
  5
AA
102
{ACAD_REACTORS
330
A2
102
}
330
A2
100
AcDbXrecord
 90
        4
  0
XRECORD
  5
A7
102
{ACAD_REACTORS
330
A2
102
}
330
A2
100
AcDbXrecord
340
1A
  0
XRECORD
  5
A9
102
{ACAD_REACTORS
330
A2
102
}
330
A2
100
AcDbXrecord
 90
    10781
  0
XRECORD
  5
A8
102
{ACAD_REACTORS
330
A2
102
}
330
A2
100
AcDbXrecord
340
19
  0
XRECORD
  5
AE
102
{ACAD_REACTORS
330
A2
102
}
330
A2
100
AcDbXrecord
 40
0.0
  0
XRECORD
  5
B1
102
{ACAD_REACTORS
330
A2
102
}
330
A2
100
AcDbXrecord
340
0
  0
XRECORD
  5
B7
102
{ACAD_REACTORS
330
A2
102
}
330
A2
100
AcDbXrecord
 10
0.0
 20
0.0
 30
0.0
  0
XRECORD
  5
B3
102
{ACAD_REACTORS
330
A2
102
}
330
A2
100
AcDbXrecord
 10
0.0
 20
0.0
 30
0.0
  0
XRECORD
  5
B6
102
{ACAD_REACTORS
330
A2
102
}
330
A2
100
AcDbXrecord
 10
0.0
 20
0.0
 30
0.0
  0
XRECORD
  5
B4
102
{ACAD_REACTORS
330
A2
102
}
330
A2
100
AcDbXrecord
 10
0.0
 20
0.0
 30
0.0
  0
XRECORD
  5
B5
102
{ACAD_REACTORS
330
A2
102
}
330
A2
100
AcDbXrecord
 10
0.0
 20
0.0
 30
0.0
  0
XRECORD
  5
B2
102
{ACAD_REACTORS
330
A2
102
}
330
A2
100
AcDbXrecord
 10
0.0
 20
0.0
 30
0.0
  0
XRECORD
  5
AF
102
{ACAD_REACTORS
330
A2
102
}
330
A2
100
AcDbXrecord
340
0
  0
XRECORD
  5
B0
102
{ACAD_REACTORS
330
A2
102
}
330
A2
100
AcDbXrecord
 70
     0
  0
XRECORD
  5
A6
102
{ACAD_REACTORS
330
A2
102
}
330
A2
100
AcDbXrecord
  1

  0
XRECORD
  5
A3
102
{ACAD_REACTORS
330
A2
102
}
330
A2
100
AcDbXrecord
 90
        1
  0
XRECORD
  5
A4
102
{ACAD_REACTORS
330
A2
102
}
330
A2
100
AcDbXrecord
 90
       70
  0
XRECORD
  5
BA
102
{ACAD_REACTORS
330
A2
102
}
330
A2
100
AcDbXrecord
340
0
  0
XRECORD
  5
C0
102
{ACAD_REACTORS
330
A2
102
}
330
A2
100
AcDbXrecord
 10
0.0
 20
0.0
 30
0.0
  0
XRECORD
  5
BC
102
{ACAD_REACTORS
330
A2
102
}
330
A2
100
AcDbXrecord
 10
0.0
 20
0.0
 30
0.0
  0
XRECORD
  5
BF
102
{ACAD_REACTORS
330
A2
102
}
330
A2
100
AcDbXrecord
 10
0.0
 20
0.0
 30
0.0
  0
XRECORD
  5
BD
102
{ACAD_REACTORS
330
A2
102
}
330
A2
100
AcDbXrecord
 10
0.0
 20
0.0
 30
0.0
  0
XRECORD
  5
BE
102
{ACAD_REACTORS
330
A2
102
}
330
A2
100
AcDbXrecord
 10
0.0
 20
0.0
 30
0.0
  0
XRECORD
  5
BB
102
{ACAD_REACTORS
330
A2
102
}
330
A2
100
AcDbXrecord
 10
0.0
 20
0.0
 30
0.0
  0
XRECORD
  5
B8
102
{ACAD_REACTORS
330
A2
102
}
330
A2
100
AcDbXrecord
340
0
  0
XRECORD
  5
B9
102
{ACAD_REACTORS
330
A2
102
}
330
A2
100
AcDbXrecord
 70
     0
  0
XRECORD
  5
AD
102
{ACAD_REACTORS
330
A2
102
}
330
A2
100
AcDbXrecord
  1
{FAEB1C32-E019-11D5-929B-00C0DF256EC4}
  0
DICTIONARYVAR
  5
C5
102
{ACAD_REACTORS
330
C2
102
}
330
C2
100
DictionaryVariables
280
     0
  1
2
  0
DICTIONARYVAR
  5
C6
102
{ACAD_REACTORS
330
C2
102
}
330
C2
100
DictionaryVariables
280
     0
  1
1
  0
DICTIONARY
  5
C9
330
3D
100
AcDbDictionary
280
     1
  3
ACAD_XREC_ROUNDTRIP
360
CA
  0
DICTIONARY
  5
C7
330
3C
100
AcDbDictionary
280
     1
  3
ACAD_XREC_ROUNDTRIP
360
C8
  0
DICTIONARY
  5
CB
330
3E
100
AcDbDictionary
280
     1
  3
ACAD_XREC_ROUNDTRIP
360
CC
  0
XRECORD
  5
CA
102
{ACAD_REACTORS
330
C9
102
}
330
C9
100
AcDbXrecord
102
MATERIAL
148
0.0
149
0.0
149
0.0
 93
        0
 94
      127
282
     0
 72
     1
 77
     1
171
     1
175
     1
179
     1
273
     0
  0
XRECORD
  5
C8
102
{ACAD_REACTORS
330
C7
102
}
330
C7
100
AcDbXrecord
102
MATERIAL
148
0.0
149
0.0
149
0.0
 93
        0
 94
      127
282
     0
 72
     1
 77
     1
171
     1
175
     1
179
     1
273
     0
  0
XRECORD
  5
CC
102
{ACAD_REACTORS
330
CB
102
}
330
CB
100
AcDbXrecord
102
MATERIAL
148
0.0
149
0.0
149
0.0
 93
        0
 94
      127
282
     0
 72
     1
 77
     1
171
     1
175
     1
179
     1
273
     0
  0
ENDSEC
  0
EOF
